  0
SECTION
  2
HEADER
  9
$ACADVER
  1
AC1021
  9
$ACADMAINTVER
 70
    25
  9
$DWGCODEPAGE
  3
UNDEFINED
  9
$INSBASE
 10
0.0
 20
0.0
 30
0.0
  9
$EXTMIN
 10
1.000000000000000E+20
 20
1.000000000000000E+20
 30
1.000000000000000E+20
  9
$EXTMAX
 10
-1.000000000000000E+20
 20
-1.000000000000000E+20
 30
-1.000000000000000E+20
  9
$LIMMIN
 10
0.0
 20
0.0
  9
$LIMMAX
 10
12.0
 20
9.0
  9
$ORTHOMODE
 70
     0
  9
$REGENMODE
 70
     1
  9
$FILLMODE
 70
     1
  9
$QTEXTMODE
 70
     0
  9
$MIRRTEXT
 70
     1
  9
$LTSCALE
 40
1.0
  9
$ATTMODE
 70
     1
  9
$TEXTSIZE
 40
0.2
  9
$TRACEWID
 40
0.05
  9
$TEXTSTYLE
  7
Standard
  9
$CLAYER
  8
0
  9
$CELTYPE
  6
ByLayer
  9
$CECOLOR
 62
   256
  9
$CELTSCALE
 40
1.0
  9
$DISPSILH
 70
     0
  9
$DIMSCALE
 40
1.0
  9
$DIMASZ
 40
0.18
  9
$DIMEXO
 40
0.0625
  9
$DIMDLI
 40
0.38
  9
$DIMRND
 40
0.0
  9
$DIMDLE
 40
0.0
  9
$DIMEXE
 40
0.18
  9
$DIMTP
 40
0.0
  9
$DIMTM
 40
0.0
  9
$DIMTXT
 40
0.18
  9
$DIMCEN
 40
0.09
  9
$DIMTSZ
 40
0.0
  9
$DIMTOL
 70
     0
  9
$DIMLIM
 70
     0
  9
$DIMTIH
 70
     1
  9
$DIMTOH
 70
     1
  9
$DIMSE1
 70
     0
  9
$DIMSE2
 70
     0
  9
$DIMTAD
 70
     0
  9
$DIMZIN
 70
     0
  9
$DIMBLK
  1

  9
$DIMASO
 70
     1
  9
$DIMSHO
 70
     1
  9
$DIMPOST
  1

  9
$DIMAPOST
  1

  9
$DIMALT
 70
     0
  9
$DIMALTD
 70
     2
  9
$DIMALTF
 40
25.4
  9
$DIMLFAC
 40
1.0
  9
$DIMTOFL
 70
     0
  9
$DIMTVP
 40
0.0
  9
$DIMTIX
 70
     0
  9
$DIMSOXD
 70
     0
  9
$DIMSAH
 70
     0
  9
$DIMBLK1
  1

  9
$DIMBLK2
  1

  9
$DIMSTYLE
  2
Standard
  9
$DIMCLRD
 70
     0
  9
$DIMCLRE
 70
     0
  9
$DIMCLRT
 70
     0
  9
$DIMTFAC
 40
1.0
  9
$DIMGAP
 40
0.09
  9
$DIMJUST
 70
     0
  9
$DIMSD1
 70
     0
  9
$DIMSD2
 70
     0
  9
$DIMTOLJ
 70
     1
  9
$DIMTZIN
 70
     0
  9
$DIMALTZ
 70
     0
  9
$DIMALTTZ
 70
     0
  9
$DIMUPT
 70
     0
  9
$DIMDEC
 70
     4
  9
$DIMTDEC
 70
     4
  9
$DIMALTU
 70
     2
  9
$DIMALTTD
 70
     2
  9
$DIMTXSTY
  7
Standard
  9
$DIMAUNIT
 70
     0
  9
$DIMADEC
 70
     0
  9
$DIMALTRND
 40
0.0
  9
$DIMAZIN
 70
     0
  9
$DIMDSEP
 70
    46
  9
$DIMATFIT
 70
     3
  9
$DIMFRAC
 70
     0
  9
$DIMLDRBLK
  1

  9
$DIMLUNIT
 70
     2
  9
$DIMLWD
 70
    -2
  9
$DIMLWE
 70
    -2
  9
$DIMTMOVE
 70
     0
  9
$DIMFXL
 40
1.0
  9
$DIMFXLON
 70
     0
  9
$DIMJOGANG
 40
0.7853981633974483
  9
$DIMTFILL
 70
     0
  9
$DIMTFILLCLR
 70
     0
  9
$DIMARCSYM
 70
     0
  9
$DIMLTYPE
  6

  9
$DIMLTEX1
  6

  9
$DIMLTEX2
  6

  9
$LUNITS
 70
     2
  9
$LUPREC
 70
     4
  9
$SKETCHINC
 40
0.1
  9
$FILLETRAD
 40
0.5
  9
$AUNITS
 70
     0
  9
$AUPREC
 70
     0
  9
$MENU
  1
.
  9
$ELEVATION
 40
0.0
  9
$PELEVATION
 40
0.0
  9
$THICKNESS
 40
0.0
  9
$LIMCHECK
 70
     0
  9
$CHAMFERA
 40
0.5
  9
$CHAMFERB
 40
0.5
  9
$CHAMFERC
 40
1.0
  9
$CHAMFERD
 40
0.0
  9
$SKPOLY
 70
     0
  9
$TDCREATE
 40
2459377.499074062
  9
$TDUCREATE
 40
2459377.457407407
  9
$TDUPDATE
 40
2459377.499074062
  9
$TDUUPDATE
 40
2459377.457407407
  9
$TDINDWG
 40
0.0000000116
  9
$TDUSRTIMER
 40
0.0000000116
  9
$USRTIMER
 70
     1
  9
$ANGBASE
 50
0.0
  9
$ANGDIR
 70
     0
  9
$PDMODE
 70
     0
  9
$PDSIZE
 40
0.0
  9
$PLINEWID
 40
0.0
  9
$SPLFRAME
 70
     0
  9
$SPLINETYPE
 70
     6
  9
$SPLINESEGS
 70
     8
  9
$HANDSEED
  5
9B
  9
$SURFTAB1
 70
     6
  9
$SURFTAB2
 70
     6
  9
$SURFTYPE
 70
     6
  9
$SURFU
 70
     6
  9
$SURFV
 70
     6
  9
$UCSBASE
  2

  9
$UCSNAME
  2

  9
$UCSORG
 10
0.0
 20
0.0
 30
0.0
  9
$UCSXDIR
 10
1.0
 20
0.0
 30
0.0
  9
$UCSYDIR
 10
0.0
 20
1.0
 30
0.0
  9
$UCSORTHOREF
  2

  9
$UCSORTHOVIEW
 70
     0
  9
$UCSORGTOP
 10
0.0
 20
0.0
 30
0.0
  9
$UCSORGBOTTOM
 10
0.0
 20
0.0
 30
0.0
  9
$UCSORGLEFT
 10
0.0
 20
0.0
 30
0.0
  9
$UCSORGRIGHT
 10
0.0
 20
0.0
 30
0.0
  9
$UCSORGFRONT
 10
0.0
 20
0.0
 30
0.0
  9
$UCSORGBACK
 10
0.0
 20
0.0
 30
0.0
  9
$PUCSBASE
  2

  9
$PUCSNAME
  2

  9
$PUCSORG
 10
0.0
 20
0.0
 30
0.0
  9
$PUCSXDIR
 10
1.0
 20
0.0
 30
0.0
  9
$PUCSYDIR
 10
0.0
 20
1.0
 30
0.0
  9
$PUCSORTHOREF
  2

  9
$PUCSORTHOVIEW
 70
     0
  9
$PUCSORGTOP
 10
0.0
 20
0.0
 30
0.0
  9
$PUCSORGBOTTOM
 10
0.0
 20
0.0
 30
0.0
  9
$PUCSORGLEFT
 10
0.0
 20
0.0
 30
0.0
  9
$PUCSORGRIGHT
 10
0.0
 20
0.0
 30
0.0
  9
$PUCSORGFRONT
 10
0.0
 20
0.0
 30
0.0
  9
$PUCSORGBACK
 10
0.0
 20
0.0
 30
0.0
  9
$USERI1
 70
     0
  9
$USERI2
 70
     0
  9
$USERI3
 70
     0
  9
$USERI4
 70
     0
  9
$USERI5
 70
     0
  9
$USERR1
 40
0.0
  9
$USERR2
 40
0.0
  9
$USERR3
 40
0.0
  9
$USERR4
 40
0.0
  9
$USERR5
 40
0.0
  9
$WORLDVIEW
 70
     1
  9
$SHADEDGE
 70
     3
  9
$SHADEDIF
 70
    70
  9
$TILEMODE
 70
     1
  9
$MAXACTVP
 70
    64
  9
$PINSBASE
 10
0.0
 20
0.0
 30
0.0
  9
$PLIMCHECK
 70
     0
  9
$PEXTMIN
 10
1.000000000000000E+20
 20
1.000000000000000E+20
 30
1.000000000000000E+20
  9
$PEXTMAX
 10
-1.000000000000000E+20
 20
-1.000000000000000E+20
 30
-1.000000000000000E+20
  9
$PLIMMIN
 10
0.0
 20
0.0
  9
$PLIMMAX
 10
12.0
 20
9.0
  9
$UNITMODE
 70
     0
  9
$VISRETAIN
 70
     1
  9
$PLINEGEN
 70
     0
  9
$PSLTSCALE
 70
     1
  9
$TREEDEPTH
 70
  3020
  9
$CMLSTYLE
  2
Standard
  9
$CMLJUST
 70
     0
  9
$CMLSCALE
 40
1.0
  9
$PROXYGRAPHICS
 70
     1
  9
$MEASUREMENT
 70
     0
  9
$CELWEIGHT
370
    -1
  9
$ENDCAPS
280
     0
  9
$JOINSTYLE
280
     0
  9
$LWDISPLAY
290
     1
  9
$INSUNITS
 70
     1
  9
$HYPERLINKBASE
  1

  9
$STYLESHEET
  1

  9
$XEDIT
290
     1
  9
$CEPSNTYPE
380
     0
  9
$PSTYLEMODE
290
     1
  9
$FINGERPRINTGUID
  2
{D2E2293A-6FB9-AF27-0A90-C1A794982B40}
  9
$VERSIONGUID
  2
{FAEB1C32-E019-11D5-929B-00C0DF256EC4}
  9
$EXTNAMES
290
     1
  9
$PSVPSCALE
 40
0.0
  9
$OLESTARTUP
290
     0
  9
$SORTENTS
280
   127
  9
$INDEXCTL
280
     0
  9
$HIDETEXT
280
     1
  9
$XCLIPFRAME
290
     0
  9
$HALOGAP
280
     0
  9
$OBSCOLOR
 70
   257
  9
$OBSLTYPE
280
     0
  9
$INTERSECTIONDISPLAY
280
     0
  9
$INTERSECTIONCOLOR
 70
   257
  9
$DIMASSOC
280
     2
  9
$PROJECTNAME
  1

  9
$CAMERADISPLAY
290
     0
  9
$LENSLENGTH
 40
50.0
  9
$CAMERAHEIGHT
 40
0.0
  9
$STEPSPERSEC
 40
2.0
  9
$STEPSIZE
 40
6.0
  9
$3DDWFPREC
 40
2.0
  9
$PSOLWIDTH
 40
0.25
  9
$PSOLHEIGHT
 40
4.0
  9
$LOFTANG1
 40
1.570796326794897
  9
$LOFTANG2
 40
1.570796326794897
  9
$LOFTMAG1
 40
0.0
  9
$LOFTMAG2
 40
0.0
  9
$LOFTPARAM
 70
     7
  9
$LOFTNORMALS
280
     1
  9
$LATITUDE
 40
37.795
  9
$LONGITUDE
 40
-122.394
  9
$NORTHDIRECTION
 40
0.0
  9
$TIMEZONE
 70
 -8000
  9
$LIGHTGLYPHDISPLAY
280
     1
  9
$TILEMODELIGHTSYNCH
280
     1
  9
$CMATERIAL
347
3C
  9
$SOLIDHIST
280
     1
  9
$SHOWHIST
280
     1
  9
$DWFFRAME
280
     2
  9
$DGNFRAME
280
     2
  9
$REALWORLDSCALE
290
     1
  9
$INTERFERECOLOR
 62
   256
  9
$CSHADOW
280
     0
  9
$SHADOWPLANELOCATION
 40
0.0
  0
ENDSEC
  0
SECTION
  2
CLASSES
  0
CLASS
  1
ACDBDICTIONARYWDFLT
  2
AcDbDictionaryWithDefault
  3
ObjectDBX Classes
 90
        0
 91
        4
280
     0
281
     0
  0
CLASS
  1
VISUALSTYLE
  2
AcDbVisualStyle
  3
ObjectDBX Classes
 90
     4095
 91
        4
280
     0
281
     0
  0
CLASS
  1
MATERIAL
  2
AcDbMaterial
  3
ObjectDBX Classes
 90
     1153
 91
        4
280
     0
281
     0
  0
CLASS
  1
SUN
  2
AcDbSun
  3
SCENEOE
 90
     1024
 91
        4
280
     0
281
     0
  0
ENDSEC
  0
SECTION
  2
TABLES
  0
TABLE
  2
VPORT
  5
8
330
0
100
AcDbSymbolTable
 70
     1
  0
VPORT
  5
29
330
8
100
AcDbSymbolTableRecord
100
AcDbViewportTableRecord
  2
*Active
 70
     0
 10
0.0
 20
0.0
 11
1.0
 21
1.0
 12
0.0
 22
0.0
 13
0.0
 23
0.0
 14
0.5
 24
0.5
 15
0.5
 25
0.5
 16
0.0
 26
0.0
 36
1.0
 17
105.0007777515277
 27
-148.5000416295416
 37
0.0
 40
297.0000832590831
 41
0.7070757462376333
 42
50.0
 43
0.0
 44
0.0
 50
0.0
 51
0.0
 71
     0
 72
   100
 73
     1
 74
     3
 75
     0
 76
     0
 77
     0
 78
     0
281
     0
 65
     1
110
0.0
120
0.0
130
0.0
111
1.0
121
0.0
131
0.0
112
0.0
122
1.0
132
0.0
 79
     0
146
0.0
 60
     3
 61
     5
292
     1
282
     1
141
0.0
142
0.0
 63
   250
361
3F
  0
ENDTAB
  0
TABLE
  2
LTYPE
  5
5
330
0
100
AcDbSymbolTable
 70
     5
  0
LTYPE
  5
14
330
5
100
AcDbSymbolTableRecord
100
AcDbLinetypeTableRecord
  2
ByBlock
 70
     0
  3

 72
    65
 73
     0
 40
0.0
  0
LTYPE
  5
15
330
5
100
AcDbSymbolTableRecord
100
AcDbLinetypeTableRecord
  2
ByLayer
 70
     0
  3

 72
    65
 73
     0
 40
0.0
  0
LTYPE
  5
16
330
5
100
AcDbSymbolTableRecord
100
AcDbLinetypeTableRecord
  2
Continuous
 70
     0
  3
Solid line
 72
    65
 73
     0
 40
0.0
  0
LTYPE
  5
52
330
5
100
AcDbSymbolTableRecord
100
AcDbLinetypeTableRecord
  2
AI-Linetype-1
 70
     0
  3
Adobe Illustrator Linetype No. 1
 72
    65
 73
     2
 40
8.794537478473567
 49
4.397268739236783
 74
     0
 49
-4.397268739236783
 74
     0
  0
LTYPE
  5
57
330
5
100
AcDbSymbolTableRecord
100
AcDbLinetypeTableRecord
  2
AI-Linetype-2
 70
     0
  3
Adobe Illustrator Linetype No. 2
 72
    65
 73
     4
 40
39.5756124397521
 49
26.38380622204174
 74
     0
 49
-4.397268739236783
 74
     0
 49
4.397268739236783
 74
     0
 49
-4.397268739236783
 74
     0
  0
LTYPE
  5
6C
330
5
100
AcDbSymbolTableRecord
100
AcDbLinetypeTableRecord
  2
AI-Linetype-3
 70
     0
  3
Adobe Illustrator Linetype No. 3
 72
    65
 73
     2
 40
8.776163411595498
 49
4.388081705797749
 74
     0
 49
-4.388081705797749
 74
     0
  0
LTYPE
  5
71
330
5
100
AcDbSymbolTableRecord
100
AcDbLinetypeTableRecord
  2
AI-Linetype-4
 70
     0
  3
Adobe Illustrator Linetype No. 4
 72
    65
 73
     4
 40
39.49292981167099
 49
26.32868469427775
 74
     0
 49
-4.388081705797749
 74
     0
 49
4.388081705797749
 74
     0
 49
-4.388081705797749
 74
     0
  0
ENDTAB
  0
TABLE
  2
LAYER
  5
2
330
0
100
AcDbSymbolTable
 70
     1
  0
LAYER
  5
10
330
2
100
AcDbSymbolTableRecord
100
AcDbLayerTableRecord
  2
0
 70
     0
 62
     7
  6
Continuous
370
    -3
390
F
347
3E
  0
ENDTAB
  0
TABLE
  2
STYLE
  5
3
330
0
100
AcDbSymbolTable
 70
     1
  0
STYLE
  5
11
330
3
100
AcDbSymbolTableRecord
100
AcDbTextStyleTableRecord
  2
Standard
 70
     0
 40
0.0
 41
1.0
 50
0.0
 71
     0
 42
0.2
  3
txt
  4

  0
ENDTAB
  0
TABLE
  2
VIEW
  5
6
330
0
100
AcDbSymbolTable
 70
     0
  0
ENDTAB
  0
TABLE
  2
UCS
  5
7
330
0
100
AcDbSymbolTable
 70
     0
  0
ENDTAB
  0
TABLE
  2
APPID
  5
9
330
0
100
AcDbSymbolTable
 70
     1
  0
APPID
  5
12
330
9
100
AcDbSymbolTableRecord
100
AcDbRegAppTableRecord
  2
ACAD
 70
     0
  0
ENDTAB
  0
TABLE
  2
DIMSTYLE
  5
A
330
0
100
AcDbSymbolTable
 70
     1
100
AcDbDimStyleTable
  0
DIMSTYLE
105
27
330
A
100
AcDbSymbolTableRecord
100
AcDbDimStyleTableRecord
  2
Standard
 70
     0
178
     0
340
11
  0
ENDTAB
  0
TABLE
  2
BLOCK_RECORD
  5
1
330
0
100
AcDbSymbolTable
 70
     5
  0
BLOCK_RECORD
  5
1F
330
1
100
AcDbSymbolTableRecord
100
AcDbBlockTableRecord
  2
*Model_Space
340
22
 70
     0
280
     1
281
     0
  0
BLOCK_RECORD
  5
1B
330
1
100
AcDbSymbolTableRecord
100
AcDbBlockTableRecord
  2
*Paper_Space
340
1E
 70
     0
280
     1
281
     0
  0
BLOCK_RECORD
  5
23
330
1
100
AcDbSymbolTableRecord
100
AcDbBlockTableRecord
  2
*Paper_Space0
340
26
 70
     0
280
     1
281
     0
  0
BLOCK_RECORD
  5
43
330
1
100
AcDbSymbolTableRecord
100
AcDbBlockTableRecord
  2
block 2
340
0
102
{BLKREFS
331
44
102
}
 70
     0
280
     1
281
     0
  0
BLOCK_RECORD
  5
47
330
1
100
AcDbSymbolTableRecord
100
AcDbBlockTableRecord
  2
block 3
340
0
102
{BLKREFS
331
48
102
}
 70
     0
280
     1
281
     0
  0
BLOCK_RECORD
  5
5D
330
1
100
AcDbSymbolTableRecord
100
AcDbBlockTableRecord
  2
block 4
340
0
102
{BLKREFS
331
5E
102
}
 70
     0
280
     1
281
     0
  0
BLOCK_RECORD
  5
61
330
1
100
AcDbSymbolTableRecord
100
AcDbBlockTableRecord
  2
block 5
340
0
102
{BLKREFS
331
62
102
}
 70
     0
280
     1
281
     0
  0
ENDTAB
  0
ENDSEC
  0
SECTION
  2
BLOCKS
  0
BLOCK
  5
20
330
1F
100
AcDbEntity
  8
0
100
AcDbBlockBegin
  2
*Model_Space
 70
     0
 10
0.0
 20
0.0
 30
0.0
  3
*Model_Space
  1

  0
ENDBLK
  5
21
330
1F
100
AcDbEntity
  8
0
100
AcDbBlockEnd
  0
BLOCK
  5
1C
330
1B
100
AcDbEntity
 67
     1
  8
0
100
AcDbBlockBegin
  2
*Paper_Space
 70
     0
 10
0.0
 20
0.0
 30
0.0
  3
*Paper_Space
  1

  0
ENDBLK
  5
1D
330
1B
100
AcDbEntity
 67
     1
  8
0
100
AcDbBlockEnd
  0
BLOCK
  5
24
330
23
100
AcDbEntity
  8
0
100
AcDbBlockBegin
  2
*Paper_Space0
 70
     0
 10
0.0
 20
0.0
 30
0.0
  3
*Paper_Space0
  1

  0
ENDBLK
  5
25
330
23
100
AcDbEntity
  8
0
100
AcDbBlockEnd
  0
BLOCK
  5
45
330
43
100
AcDbEntity
  8
0
100
AcDbBlockBegin
  2
block 2
 70
     0
 10
0.0
 20
0.0
 30
0.0
  3
block 2
  1

  0
INSERT
  5
48
330
43
100
AcDbEntity
  8
0
100
AcDbBlockReference
  2
block 3
 10
0.0
 20
0.0
 30
0.0
  0
ENDBLK
  5
46
330
43
100
AcDbEntity
  8
0
100
AcDbBlockEnd
  0
BLOCK
  5
49
330
47
100
AcDbEntity
  8
0
100
AcDbBlockBegin
  2
block 3
 70
     0
 10
0.0
 20
0.0
 30
0.0
  3
block 3
  1

  0
POLYLINE
  5
4B
330
47
100
AcDbEntity
  8
0
 62
     4
370
    25
100
AcDb2dPolyline
 66
     1
 10
0.0
 20
0.0
 30
0.0
  0
VERTEX
  5
4C
330
4B
100
AcDbEntity
  8
0
 62
     4
370
    25
100
AcDbVertex
100
AcDb2dVertex
 10
53.78874951183494
 20
-153.4824166655953
 30
0.0
  0
VERTEX
  5
4D
330
4B
100
AcDbEntity
  8
0
 62
     4
370
    25
100
AcDbVertex
100
AcDb2dVertex
 10
65.03883262703728
 20
-153.4824166655953
 30
0.0
  0
SEQEND
  5
4E
330
4B
100
AcDbEntity
  8
0
 62
     4
370
    25
  0
POLYLINE
  5
4F
330
47
100
AcDbEntity
  8
0
  6
AI-Linetype-1
 62
     4
370
    25
100
AcDb2dPolyline
 66
     1
 10
0.0
 20
0.0
 30
0.0
  0
VERTEX
  5
50
330
4F
100
AcDbEntity
  8
0
  6
AI-Linetype-1
 62
     4
370
    25
100
AcDbVertex
100
AcDb2dVertex
 10
69.43609867479321
 20
-153.4824166655953
 30
0.0
  0
VERTEX
  5
51
330
4F
100
AcDbEntity
  8
0
  6
AI-Linetype-1
 62
     4
370
    25
100
AcDbVertex
100
AcDb2dVertex
 10
76.03200312938881
 20
-153.4824166655953
 30
0.0
  0
SEQEND
  5
53
330
4F
100
AcDbEntity
  8
0
  6
AI-Linetype-1
 62
     4
370
    25
  0
POLYLINE
  5
54
330
47
100
AcDbEntity
  8
0
  6
AI-Linetype-2
 62
     4
370
    25
100
AcDb2dPolyline
 66
     1
 10
0.0
 20
0.0
 30
0.0
  0
VERTEX
  5
55
330
54
100
AcDbEntity
  8
0
  6
AI-Linetype-2
 62
     4
370
    25
100
AcDbVertex
100
AcDb2dVertex
 10
78.23063615326679
 20
-153.4824166655953
 30
0.0
  0
VERTEX
  5
56
330
54
100
AcDbEntity
  8
0
  6
AI-Linetype-2
 62
     4
370
    25
100
AcDbVertex
100
AcDb2dVertex
 10
155.183228008893
 20
-153.4824166655953
 30
0.0
  0
SEQEND
  5
58
330
54
100
AcDbEntity
  8
0
  6
AI-Linetype-2
 62
     4
370
    25
  0
POLYLINE
  5
59
330
47
100
AcDbEntity
  8
0
 62
     4
370
    25
100
AcDb2dPolyline
 66
     1
 10
0.0
 20
0.0
 30
0.0
  0
VERTEX
  5
5A
330
59
100
AcDbEntity
  8
0
 62
     4
370
    25
100
AcDbVertex
100
AcDb2dVertex
 10
157.3818664157327
 20
-153.4824166655953
 30
0.0
  0
VERTEX
  5
5B
330
59
100
AcDbEntity
  8
0
 62
     4
370
    25
100
AcDbVertex
100
AcDb2dVertex
 10
168.6319441479733
 20
-153.4824166655953
 30
0.0
  0
SEQEND
  5
5C
330
59
100
AcDbEntity
  8
0
 62
     4
370
    25
  0
ENDBLK
  5
4A
330
47
100
AcDbEntity
  8
0
100
AcDbBlockEnd
  0
BLOCK
  5
5F
330
5D
100
AcDbEntity
  8
0
100
AcDbBlockBegin
  2
block 4
 70
     0
 10
0.0
 20
0.0
 30
0.0
  3
block 4
  1

  0
INSERT
  5
62
330
5D
100
AcDbEntity
  8
0
100
AcDbBlockReference
  2
block 5
 10
0.0
 20
0.0
 30
0.0
  0
ENDBLK
  5
60
330
5D
100
AcDbEntity
  8
0
100
AcDbBlockEnd
  0
BLOCK
  5
63
330
61
100
AcDbEntity
  8
0
100
AcDbBlockBegin
  2
block 5
 70
     0
 10
0.0
 20
0.0
 30
0.0
  3
block 5
  1

  0
POLYLINE
  5
65
330
61
100
AcDbEntity
  8
0
 62
     4
370
    25
100
AcDb2dPolyline
 66
     1
 10
0.0
 20
0.0
 30
0.0
  0
VERTEX
  5
66
330
65
100
AcDbEntity
  8
0
 62
     4
370
    25
100
AcDbVertex
100
AcDb2dVertex
 10
111.2103522128658
 20
-96.87729082864527
 30
0.0
  0
VERTEX
  5
67
330
65
100
AcDbEntity
  8
0
 62
     4
370
    25
100
AcDbVertex
100
AcDb2dVertex
 10
111.2103522128658
 20
-108.1273793268093
 30
0.0
  0
SEQEND
  5
68
330
65
100
AcDbEntity
  8
0
 62
     4
370
    25
  0
POLYLINE
  5
69
330
61
100
AcDbEntity
  8
0
  6
AI-Linetype-3
 62
     4
370
    25
100
AcDb2dPolyline
 66
     1
 10
0.0
 20
0.0
 30
0.0
  0
VERTEX
  5
6A
330
69
100
AcDbEntity
  8
0
  6
AI-Linetype-3
 62
     4
370
    25
100
AcDbVertex
100
AcDb2dVertex
 10
111.2103522128658
 20
-112.5154620419124
 30
0.0
  0
VERTEX
  5
6B
330
69
100
AcDbEntity
  8
0
  6
AI-Linetype-3
 62
     4
370
    25
100
AcDbVertex
100
AcDb2dVertex
 10
111.2103522128658
 20
-119.097586114567
 30
0.0
  0
SEQEND
  5
6D
330
69
100
AcDbEntity
  8
0
  6
AI-Linetype-3
 62
     4
370
    25
  0
POLYLINE
  5
6E
330
61
100
AcDbEntity
  8
0
  6
AI-Linetype-4
 62
     4
370
    25
100
AcDb2dPolyline
 66
     1
 10
0.0
 20
0.0
 30
0.0
  0
VERTEX
  5
6F
330
6E
100
AcDbEntity
  8
0
  6
AI-Linetype-4
 62
     4
370
    25
100
AcDbVertex
100
AcDb2dVertex
 10
111.2103522128658
 20
-121.2916274721185
 30
0.0
  0
VERTEX
  5
70
330
6E
100
AcDbEntity
  8
0
  6
AI-Linetype-4
 62
     4
370
    25
100
AcDbVertex
100
AcDb2dVertex
 10
111.2103522128658
 20
-198.0834517937409
 30
0.0
  0
SEQEND
  5
72
330
6E
100
AcDbEntity
  8
0
  6
AI-Linetype-4
 62
     4
370
    25
  0
POLYLINE
  5
73
330
61
100
AcDbEntity
  8
0
 62
     4
370
    25
100
AcDb2dPolyline
 66
     1
 10
0.0
 20
0.0
 30
0.0
  0
VERTEX
  5
74
330
73
100
AcDbEntity
  8
0
 62
     4
370
    25
100
AcDbVertex
100
AcDb2dVertex
 10
111.2103522128658
 20
-200.277482385369
 30
0.0
  0
VERTEX
  5
75
330
73
100
AcDbEntity
  8
0
 62
     4
370
    25
100
AcDbVertex
100
AcDb2dVertex
 10
111.2103522128658
 20
-211.5275708835331
 30
0.0
  0
SEQEND
  5
76
330
73
100
AcDbEntity
  8
0
 62
     4
370
    25
  0
ENDBLK
  5
64
330
61
100
AcDbEntity
  8
0
100
AcDbBlockEnd
  0
ENDSEC
  0
SECTION
  2
ENTITIES
  0
SPLINE
  5
40
330
1F
100
AcDbEntity
  8
0
 62
   250
370
    25
100
AcDbSpline
210
0.0
220
0.0
230
1.0
 70
    11
 71
     3
 72
   221
 73
   217
 74
     0
 42
0.0000000001
 43
0.0000000001
 12
1.0
 22
0.0
 32
0.0
 13
1.0
 23
0.0
 33
0.0
 40
0.0
 40
0.0
 40
0.0
 40
0.0
 40
1.0
 40
1.0
 40
1.0
 40
2.0
 40
2.0
 40
2.0
 40
3.0
 40
3.0
 40
3.0
 40
4.0
 40
4.0
 40
4.0
 40
5.0
 40
5.0
 40
5.0
 40
6.0
 40
6.0
 40
6.0
 40
7.0
 40
7.0
 40
7.0
 40
8.0
 40
8.0
 40
8.0
 40
9.0
 40
9.0
 40
9.0
 40
10.0
 40
10.0
 40
10.0
 40
11.0
 40
11.0
 40
11.0
 40
12.0
 40
12.0
 40
12.0
 40
13.0
 40
13.0
 40
13.0
 40
14.0
 40
14.0
 40
14.0
 40
15.0
 40
15.0
 40
15.0
 40
16.0
 40
16.0
 40
16.0
 40
17.0
 40
17.0
 40
17.0
 40
18.0
 40
18.0
 40
18.0
 40
19.0
 40
19.0
 40
19.0
 40
20.0
 40
20.0
 40
20.0
 40
21.0
 40
21.0
 40
21.0
 40
22.0
 40
22.0
 40
22.0
 40
23.0
 40
23.0
 40
23.0
 40
24.0
 40
24.0
 40
24.0
 40
25.0
 40
25.0
 40
25.0
 40
26.0
 40
26.0
 40
26.0
 40
27.0
 40
27.0
 40
27.0
 40
28.0
 40
28.0
 40
28.0
 40
29.0
 40
29.0
 40
29.0
 40
30.0
 40
30.0
 40
30.0
 40
31.0
 40
31.0
 40
31.0
 40
32.0
 40
32.0
 40
32.0
 40
33.0
 40
33.0
 40
33.0
 40
34.0
 40
34.0
 40
34.0
 40
35.0
 40
35.0
 40
35.0
 40
36.0
 40
36.0
 40
36.0
 40
37.0
 40
37.0
 40
37.0
 40
38.0
 40
38.0
 40
38.0
 40
39.0
 40
39.0
 40
39.0
 40
40.0
 40
40.0
 40
40.0
 40
41.0
 40
41.0
 40
41.0
 40
42.0
 40
42.0
 40
42.0
 40
43.0
 40
43.0
 40
43.0
 40
44.0
 40
44.0
 40
44.0
 40
45.0
 40
45.0
 40
45.0
 40
46.0
 40
46.0
 40
46.0
 40
47.0
 40
47.0
 40
47.0
 40
48.0
 40
48.0
 40
48.0
 40
49.0
 40
49.0
 40
49.0
 40
50.0
 40
50.0
 40
50.0
 40
51.0
 40
51.0
 40
51.0
 40
52.0
 40
52.0
 40
52.0
 40
53.0
 40
53.0
 40
53.0
 40
54.0
 40
54.0
 40
54.0
 40
55.0
 40
55.0
 40
55.0
 40
56.0
 40
56.0
 40
56.0
 40
57.0
 40
57.0
 40
57.0
 40
58.0
 40
58.0
 40
58.0
 40
59.0
 40
59.0
 40
59.0
 40
60.0
 40
60.0
 40
60.0
 40
61.0
 40
61.0
 40
61.0
 40
62.0
 40
62.0
 40
62.0
 40
63.0
 40
63.0
 40
63.0
 40
64.0
 40
64.0
 40
64.0
 40
65.0
 40
65.0
 40
65.0
 40
66.0
 40
66.0
 40
66.0
 40
67.0
 40
67.0
 40
67.0
 40
68.0
 40
68.0
 40
68.0
 40
69.0
 40
69.0
 40
69.0
 40
70.0
 40
70.0
 40
70.0
 40
71.0
 40
71.0
 40
71.0
 40
72.0
 40
72.0
 40
72.0
 40
72.0
 10
-176.8889131179373
 20
-153.4656924502726
 30
0.0
 10
-176.8887014528181
 20
-92.11858122893436
 30
0.0
 10
-176.8881370125045
 20
-30.77175222774619
 30
0.0
 10
-176.8889483954578
 20
30.57547503561192
 30
0.0
 10
-176.8889483954578
 20
31.60152169438186
 30
0.0
 10
-176.8889483954578
 20
32.62756835315181
 30
0.0
 10
-176.8472503672404
 20
33.65276835145112
 30
0.0
 10
-176.8146186615711
 20
34.45409721010615
 30
0.0
 10
-176.756516586723
 20
35.25493218348419
 30
0.0
 10
-176.6531534541724
 20
36.05022858627967
 30
0.0
 10
-176.5515541976072
 20
36.83208425409141
 30
0.0
 10
-176.4062108166859
 20
37.60861301643602
 30
0.0
 10
-176.2111261330686
 20
38.37233603915468
 30
0.0
 10
-175.8633956219607
 20
39.73390718723201
 30
0.0
 10
-175.3576571003844
 20
41.05480335516482
 30
0.0
 10
-174.7171584537738
 20
42.30577947916927
 30
0.0
 10
-173.9905473817206
 20
43.72488826178049
 30
0.0
 10
-173.0905473006281
 20
45.05396881427029
 30
0.0
 10
-172.0544465487605
 20
46.26628077674621
 30
0.0
 10
-171.0421581226513
 20
47.45072349870643
 30
0.0
 10
-169.899942591705
 20
48.52372453612024
 30
0.0
 10
-168.6437453947941
 20
49.44492640651462
 30
0.0
 10
-167.7761653542516
 20
50.0811564732476
 30
0.0
 10
-166.8541521009071
 20
50.64499706967878
 30
0.0
 10
-165.8873363976094
 20
51.11718667007448
 30
0.0
 10
-164.951706021686
 20
51.57410110446952
 30
0.0
 10
-163.9740953973819
 20
51.94522061109985
 30
0.0
 10
-162.9712613465385
 20
52.22398357130551
 30
0.0
 10
-161.9783755562344
 20
52.49995960745915
 30
0.0
 10
-160.9607602246545
 20
52.68541352821468
 30
0.0
 10
-159.9369007721019
 20
52.80535709499891
 30
0.0
 10
-158.6258117546301
 20
52.95895541551443
 30
0.0
 10
-157.3045275339793
 20
53.00509841120464
 30
0.0
 10
-155.9845838590787
 20
53.02894601448288
 30
0.0
 10
-155.542768203091
 20
53.03691873392028
 30
0.0
 10
-155.1010936571816
 20
53.04242202698328
 30
0.0
 10
-154.6594191112722
 20
53.04785476500877
 30
0.0
 10
-151.5913685055795
 20
53.08567226606377
 30
0.0
 10
-148.5221184642211
 20
53.1211967283431
 30
0.0
 10
-145.4530095329382
 20
53.1562978603868
 30
0.0
 10
-139.4376985488068
 20
53.22505374617013
 30
0.0
 10
-133.4231283925881
 20
53.29208103348749
 30
0.0
 10
-127.4083465712536
 20
53.35656833939326
 30
0.0
 10
-116.0484913614506
 20
53.47841689223771
 30
0.0
 10
-104.6879658787759
 20
53.5913049550853
 30
0.0
 10
-93.32744039610158
 20
53.69555002562713
 30
0.0
 10
-70.60635415323206
 20
53.90404016670724
 30
0.0
 10
-47.88537374292091
 20
54.07792306102002
 30
0.0
 10
-25.16407583493535
 20
54.21702232096576
 30
0.0
 10
20.50133279509368
 20
54.49659666412154
 30
0.0
 10
66.16790558327062
 20
54.63566064654739
 30
0.0
 10
111.8343725388899
 20
54.63435537832381
 30
0.0
 10
156.5112697910465
 20
54.63312066513484
 30
0.0
 10
201.1880259331282
 20
54.49751387963642
 30
0.0
 10
245.8641118023312
 20
54.22749974429809
 30
0.0
 10
268.5813880730828
 20
54.09019963785519
 30
0.0
 10
291.2984879562283
 20
53.91815117456255
 30
0.0
 10
314.0151997866658
 20
53.71135435442371
 30
0.0
 10
324.341000340734
 20
53.61733976458149
 30
0.0
 10
334.6666950622441
 20
53.51616383824846
 30
0.0
 10
344.9923545062436
 20
53.40793240798938
 30
0.0
 10
351.1877572281425
 20
53.34298649432809
 30
0.0
 10
357.3831246725309
 20
53.27550059925457
 30
0.0
 10
363.5784215618704
 20
53.20505139253028
 30
0.0
 10
368.004868338864
 20
53.15471037200355
 30
0.0
 10
372.4312798383475
 20
53.10285241813108
 30
0.0
 10
376.8575149502371
 20
53.05088863169736
 30
0.0
 10
377.3807511215607
 20
53.04475034327978
 30
0.0
 10
377.9039872928848
 20
53.0386120548622
 30
0.0
 10
378.4273292967549
 20
53.02894601448288
 30
0.0
 10
379.7296694893653
 20
53.0048514685716
 30
0.0
 10
381.0326093997948
 20
52.9588848604734
 30
0.0
 10
382.3261302124861
 20
52.80899067952124
 30
0.0
 10
383.425024949312
 20
52.68167411113079
 30
0.0
 10
384.5171111248592
 20
52.47935753598877
 30
0.0
 10
385.5794230738191
 20
52.17134951199991
 30
0.0
 10
386.4909589038374
 20
51.90705033484736
 30
0.0
 10
387.3805521166248
 20
51.56489367184379
 30
0.0
 10
388.2354322500917
 20
51.1520408594816
 30
0.0
 10
389.2135367596682
 20
50.67971014900446
 30
0.0
 10
390.1461685464275
 20
50.11477594946961
 30
0.0
 10
391.0237674025445
 20
49.47515924084701
 30
0.0
 10
392.2757665746248
 20
48.56256508524494
 30
0.0
 10
393.4156890667924
 20
47.49788954246924
 30
0.0
 10
394.426848612271
 20
46.32307758337102
 30
0.0
 10
395.4859855844767
 20
45.09249186572059
 30
0.0
 10
396.4038713680145
 20
43.74108064329862
 30
0.0
 10
397.143005959549
 20
42.29614871630725
 30
0.0
 10
397.8093630280461
 20
40.99356158106691
 30
0.0
 10
398.3304472706741
 20
39.61495139100082
 30
0.0
 10
398.67775445155
 20
38.19362012465112
 30
0.0
 10
398.848744589245
 20
37.49378469000384
 30
0.0
 10
398.9776486460123
 20
36.78361294210534
 30
0.0
 10
399.070957685463
 20
36.06917261432576
 30
0.0
 10
399.171957224206
 20
35.29617160394258
 30
0.0
 10
399.2313292897524
 20
34.51819646329359
 30
0.0
 10
399.2651251535715
 20
33.73944521720794
 30
0.0
 10
399.309751215915
 20
32.71099968710367
 30
0.0
 10
399.3097864934384
 20
31.681143056212
 30
0.0
 10
399.3098570484859
 20
30.65156864547743
 30
0.0
 10
399.3098923259958
 20
29.77337007152728
 30
0.0
 10
399.3099981585532
 20
28.89538316269255
 30
0.0
 10
399.3100334360766
 20
28.01732569881742
 30
0.0
 10
399.3100687136006
 20
27.14325459466308
 30
0.0
 10
399.3100687136006
 20
26.26911293546386
 30
0.0
 10
399.3100687136006
 20
25.39500655379509
 30
0.0
 10
399.3101392686372
 20
-34.22524492579928
 30
0.0
 10
399.3100334360766
 20
-93.84545104927582
 30
0.0
 10
399.3100687136006
 20
-153.4656924502726
 30
0.0
 10
399.3098570484859
 20
-214.8127683940912
 30
0.0
 10
399.3093278856823
 20
-276.1595973952788
 30
0.0
 10
399.3101039911099
 20
-337.5068144491756
 30
0.0
 10
399.3101039911099
 20
-338.5328601970185
 30
0.0
 10
399.3101392686372
 20
-339.5589068557916
 30
0.0
 10
399.2684059628979
 20
-340.5841421316047
 30
0.0
 10
399.235809534752
 20
-341.3854357127396
 30
0.0
 10
399.1776721823786
 20
-342.186270686124
 30
0.0
 10
399.0743090498363
 20
-342.9815670889157
 30
0.0
 10
398.9727097932706
 20
-343.7634227567274
 30
0.0
 10
398.8273664123386
 20
-344.5399515190752
 30
0.0
 10
398.6323170062419
 20
-345.3037098193083
 30
0.0
 10
398.2845864951365
 20
-346.6652456898712
 30
0.0
 10
397.7788126960435
 20
-347.9861771353246
 30
0.0
 10
397.1383140494345
 20
-349.2371532593229
 30
0.0
 10
396.4117382548981
 20
-350.6562267644171
 30
0.0
 10
395.5117028962847
 20
-351.9853073169098
 30
0.0
 10
394.4756021444264
 20
-353.1976192793857
 30
0.0
 10
393.4633137183066
 20
-354.3820972788674
 30
0.0
 10
392.3210981873619
 20
-355.4550983162774
 30
0.0
 10
391.0649362679677
 20
-356.3762649091551
 30
0.0
 10
390.1973209499088
 20
-357.012530253409
 30
0.0
 10
389.27534297408
 20
-357.5763708498356
 30
0.0
 10
388.3085272707891
 20
-358.0485251727143
 30
0.0
 10
387.3728968948702
 20
-358.5054748846302
 30
0.0
 10
386.395286270559
 20
-358.876559113732
 30
0.0
 10
385.3924169421961
 20
-359.1553220739434
 30
0.0
 10
384.3995311518881
 20
-359.4312981100983
 30
0.0
 10
383.3819158203185
 20
-359.6167873083728
 30
0.0
 10
382.3580563677578
 20
-359.7366955976301
 30
0.0
 10
381.0470026278066
 20
-359.890293918153
 30
0.0
 10
379.7256831296452
 20
-359.9364369138451
 30
0.0
 10
378.4057394547375
 20
-359.9603197946362
 30
0.0
 10
377.9639237987479
 20
-359.9682925140765
 30
0.0
 10
377.5222492528424
 20
-359.973795807142
 30
0.0
 10
377.0805747069368
 20
-359.9792285451679
 30
0.0
 10
374.0125241012361
 20
-360.0170460462209
 30
0.0
 10
370.9432740598757
 20
-360.0525705085003
 30
0.0
 10
367.8742004061201
 20
-360.087636363024
 30
0.0
 10
361.8588894219817
 20
-360.1563922488026
 30
0.0
 10
355.8442839882524
 20
-360.2234195361248
 30
0.0
 10
349.8295374444282
 20
-360.2879421195488
 30
0.0
 10
338.4696469571049
 20
-360.4097906723914
 30
0.0
 10
327.1091214744334
 20
-360.522678735244
 30
0.0
 10
315.748595991762
 20
-360.6269238057823
 30
0.0
 10
293.0275097488964
 20
-360.8354139468653
 30
0.0
 10
270.3065293385746
 20
-361.0092968411743
 30
0.0
 10
247.5852314305929
 20
-361.1483961011216
 30
0.0
 10
201.91982280057
 20
-361.4279351667575
 30
0.0
 10
156.2532500123901
 20
-361.5669991491847
 30
0.0
 10
110.5867830567677
 20
-361.5657291584806
 30
0.0
 10
65.90988580461422
 20
-361.5644591677734
 30
0.0
 10
21.23312966253578
 20
-361.4288876597932
 30
0.0
 10
-23.44295620667429
 20
-361.1588735244569
 30
0.0
 10
-46.16023247741887
 20
-361.0215734180069
 30
0.0
 10
-68.8773323605647
 20
-360.849524954722
 30
0.0
 10
-91.59404419100183
 20
-360.6426928570619
 30
0.0
 10
-101.91984474507
 20
-360.5486782672168
 30
0.0
 10
-112.2455394665897
 20
-360.4475023408831
 30
0.0
 10
-122.5711989105829
 20
-360.3392709106286
 30
0.0
 10
-128.7665663549648
 20
-360.2743249969654
 30
0.0
 10
-134.9619337993467
 20
-360.2068743794104
 30
0.0
 10
-141.1572659662081
 20
-360.1364251726881
 30
0.0
 10
-145.5837127432109
 20
-360.0860841521649
 30
0.0
 10
-150.0100889651736
 20
-360.0342261982892
 30
0.0
 10
-154.4363593545777
 20
-359.9822624118523
 30
0.0
 10
-154.9595955258987
 20
-359.976124123436
 30
0.0
 10
-155.4828316972196
 20
-359.9699505575034
 30
0.0
 10
-156.0061384235813
 20
-359.9602845171192
 30
0.0
 10
-157.3085138936995
 20
-359.9361899712038
 30
0.0
 10
-158.6114185266177
 20
-359.8902233631126
 30
0.0
 10
-159.9049746168279
 20
-359.7403644596787
 30
0.0
 10
-161.0038340761356
 20
-359.6130478912908
 30
0.0
 10
-162.0959555291949
 20
-359.4107313161469
 30
0.0
 10
-163.1582322006366
 20
-359.1027232921564
 30
0.0
 10
-164.0698033081689
 20
-358.8384241150004
 30
0.0
 10
-164.9593965209666
 20
-358.4962674520022
 30
0.0
 10
-165.8142766544354
 20
-358.0834146396397
 30
0.0
 10
-166.7923458864889
 20
-357.611048651643
 30
0.0
 10
-167.7250129507715
 20
-357.0461497296239
 30
0.0
 10
-168.6025765293732
 20
-356.4064977434869
 30
0.0
 10
-169.8546109789653
 20
-355.4939388654066
 30
0.0
 10
-170.9945334711355
 20
-354.429228045102
 30
0.0
 10
-172.0056930166174
 20
-353.2544160860115
 30
0.0
 10
-173.0648299888095
 20
-352.0238303683572
 30
0.0
 10
-173.9827157723614
 20
-350.6724191459321
 30
0.0
 10
-174.7218503638864
 20
-349.2275224964647
 30
0.0
 10
-175.3881721548735
 20
-347.9249000837061
 30
0.0
 10
-175.9092563974974
 20
-346.5462898936407
 30
0.0
 10
-176.2565635783664
 20
-345.1249939048079
 30
0.0
 10
-176.4275889935862
 20
-344.4251584701639
 30
0.0
 10
-176.5564577728362
 20
-343.7149514447414
 30
0.0
 10
-176.6498020898068
 20
-343.0005111169656
 30
0.0
 10
-176.7508016285408
 20
-342.2275101065824
 30
0.0
 10
-176.8101736940983
 20
-341.4495702434498
 30
0.0
 10
-176.8439695579094
 20
-340.6707837198471
 30
0.0
 10
-176.88859562026
 20
-339.6423381897435
 30
0.0
 10
-176.8886308977805
 20
-338.612516836372
 30
0.0
 10
-176.888666175301
 20
-337.5829433346331
 30
0.0
 10
-176.8887367303386
 20
-336.7047447828696
 30
0.0
 10
-176.8888072853793
 20
-335.8267226186918
 30
0.0
 10
-176.8888778404171
 20
-334.9486651770028
 30
0.0
 10
-176.8889131179373
 20
-334.0745940949255
 30
0.0
 10
-176.8889131179373
 20
-333.2004877353382
 30
0.0
 10
-176.8889131179373
 20
-332.3263813757433
 30
0.0
 10
-176.8889836729719
 20
-272.7061399747401
 30
0.0
 10
-176.8888778404171
 20
-213.0859338512668
 30
0.0
 10
-176.8889131179373
 20
-153.4656924502726
 30
0.0
  0
SPLINE
  5
41
330
1F
100
AcDbEntity
  8
0
 62
   250
370
    25
100
AcDbSpline
210
0.0
220
0.0
230
1.0
 70
     8
 71
     3
 72
   137
 73
   133
 74
     0
 42
0.0000000001
 43
0.0000000001
 12
1.0
 22
0.0
 32
0.0
 13
1.0
 23
0.0
 33
0.0
 40
0.0
 40
0.0
 40
0.0
 40
0.0
 40
1.0
 40
1.0
 40
1.0
 40
2.0
 40
2.0
 40
2.0
 40
3.0
 40
3.0
 40
3.0
 40
4.0
 40
4.0
 40
4.0
 40
5.0
 40
5.0
 40
5.0
 40
6.0
 40
6.0
 40
6.0
 40
7.0
 40
7.0
 40
7.0
 40
8.0
 40
8.0
 40
8.0
 40
9.0
 40
9.0
 40
9.0
 40
10.0
 40
10.0
 40
10.0
 40
11.0
 40
11.0
 40
11.0
 40
12.0
 40
12.0
 40
12.0
 40
13.0
 40
13.0
 40
13.0
 40
14.0
 40
14.0
 40
14.0
 40
15.0
 40
15.0
 40
15.0
 40
16.0
 40
16.0
 40
16.0
 40
17.0
 40
17.0
 40
17.0
 40
18.0
 40
18.0
 40
18.0
 40
19.0
 40
19.0
 40
19.0
 40
20.0
 40
20.0
 40
20.0
 40
21.0
 40
21.0
 40
21.0
 40
22.0
 40
22.0
 40
22.0
 40
23.0
 40
23.0
 40
23.0
 40
24.0
 40
24.0
 40
24.0
 40
25.0
 40
25.0
 40
25.0
 40
26.0
 40
26.0
 40
26.0
 40
27.0
 40
27.0
 40
27.0
 40
28.0
 40
28.0
 40
28.0
 40
29.0
 40
29.0
 40
29.0
 40
30.0
 40
30.0
 40
30.0
 40
31.0
 40
31.0
 40
31.0
 40
32.0
 40
32.0
 40
32.0
 40
33.0
 40
33.0
 40
33.0
 40
34.0
 40
34.0
 40
34.0
 40
35.0
 40
35.0
 40
35.0
 40
36.0
 40
36.0
 40
36.0
 40
37.0
 40
37.0
 40
37.0
 40
38.0
 40
38.0
 40
38.0
 40
39.0
 40
39.0
 40
39.0
 40
40.0
 40
40.0
 40
40.0
 40
41.0
 40
41.0
 40
41.0
 40
42.0
 40
42.0
 40
42.0
 40
43.0
 40
43.0
 40
43.0
 40
44.0
 40
44.0
 40
44.0
 40
44.0
 10
-188.8888083665919
 20
-153.4656924502726
 30
0.0
 10
-188.888773089071
 20
-213.1807950991896
 30
0.0
 10
-188.8888789216326
 20
-272.8959330256204
 30
0.0
 10
-188.8885967014758
 20
-332.611070952057
 30
0.0
 10
-188.8885967014758
 20
-333.2397516137029
 30
0.0
 10
-188.8885967014758
 20
-333.868396997832
 30
0.0
 10
-188.8888789216326
 20
-334.4970776594779
 30
0.0
 10
-188.8893728069087
 20
-335.5397752811804
 30
0.0
 10
-188.8907133526524
 20
-336.5824376253594
 30
0.0
 10
-188.8892316968272
 20
-337.6253469121709
 30
0.0
 10
-188.8870797681298
 20
-339.1339185766664
 30
0.0
 10
-188.8789659386138
 20
-340.6430908669273
 30
0.0
 10
-188.7823760898353
 20
-342.1481709649094
 30
0.0
 10
-188.6981686504506
 20
-343.4605652506069
 30
0.0
 10
-188.5466517035909
 20
-344.7698551145797
 30
0.0
 10
-188.3150900646625
 20
-346.0646811954958
 30
0.0
 10
-188.1211695391996
 20
-347.1489357616725
 30
0.0
 10
-187.8711224799773
 20
-348.2230304021938
 30
0.0
 10
-187.5626911257528
 20
-349.2800860007296
 30
0.0
 10
-186.9340104482252
 20
-351.4349074554617
 30
0.0
 10
-186.0627968231568
 20
-353.5190327608423
 30
0.0
 10
-184.9838691624476
 20
-355.4880475196221
 30
0.0
 10
-183.844793330748
 20
-357.566845919529
 30
0.0
 10
-182.4742264151606
 20
-359.5173399805025
 30
0.0
 10
-180.9120672903999
 20
-361.3003011006981
 30
0.0
 10
-179.3323752383778
 20
-363.103299852048
 30
0.0
 10
-177.5568223973048
 20
-364.7349909680249
 30
0.0
 10
-175.6170527023051
 20
-366.1430226094678
 30
0.0
 10
-174.3229321717814
 20
-367.0823924024835
 30
0.0
 10
-172.9557166205596
 20
-367.9222443125808
 30
0.0
 10
-171.5289878937049
 20
-368.6445868047558
 30
0.0
 10
-170.0881834365094
 20
-369.3740906334264
 30
0.0
 10
-168.5867016455327
 20
-369.9837567278628
 30
0.0
 10
-167.044897649606
 20
-370.4634957174667
 30
0.0
 10
-165.4982606334886
 20
-370.944751640416
 30
0.0
 10
-163.9110191922645
 20
-371.295269075574
 30
0.0
 10
-162.3078675896816
 20
-371.5280301501632
 30
0.0
 10
-161.4071972357172
 20
-371.6588039154747
 30
0.0
 10
-160.5014821964424
 20
-371.752395175087
 30
0.0
 10
-159.593756338552
 20
-371.8182935817757
 30
0.0
 10
-158.7431447849572
 20
-371.8800292411503
 30
0.0
 10
-157.8907693553834
 20
-371.9173881344504
 30
0.0
 10
-157.0381822606906
 20
-371.9402479671756
 30
0.0
 10
-156.586206679044
 20
-371.9523481564169
 30
0.0
 10
-156.1341958198808
 20
-371.9603914308943
 30
0.0
 10
-155.6821144056765
 20
-371.9670941596241
 30
0.0
 10
-155.1388406031988
 20
-371.9751727116212
 30
0.0
 10
-154.5954962456803
 20
-371.9813462775577
 30
0.0
 10
-154.052151888165
 20
-371.9876256760587
 30
0.0
 10
-152.74134509085
 20
-372.0027597319772
 30
0.0
 10
-151.4305735710521
 20
-372.0183523956629
 30
0.0
 10
-150.1198373287781
 20
-372.0338039492639
 30
0.0
 10
-143.1016570162829
 20
-372.1165297328253
 30
0.0
 10
-136.0833708712264
 20
-372.1950222140283
 30
0.0
 10
-129.0650847261702
 20
-372.2706219386181
 30
0.0
 10
-125.9041836887829
 20
-372.3047000225956
 30
0.0
 10
-122.7432826513957
 20
-372.338178388733
 30
0.0
 10
-119.5823816140053
 20
-372.3709864819969
 30
0.0
 10
-110.9617199717996
 20
-372.4603797167743
 30
0.0
 10
-102.3409877745526
 20
-372.5444813235971
 30
0.0
 10
-93.72022029978929
 20
-372.6236793551874
 30
0.0
 10
-81.53614112108578
 20
-372.7355796474906
 30
0.0
 10
-69.35202666486143
 20
-372.8377080668536
 30
0.0
 10
-57.16784165359988
 20
-372.9297823931167
 30
0.0
 10
-44.98358608730051
 20
-373.0218567193798
 30
0.0
 10
-32.79925996596042
 20
-373.1038769525507
 30
0.0
 10
-20.61489856710013
 20
-373.1759136476518
 30
0.0
 10
23.69518303582749
 20
-373.4378845085139
 30
0.0
 10
68.00607602170555
 20
-373.5678468908711
 30
0.0
 10
112.3169337300628
 20
-373.5656596846548
 30
0.0
 10
158.4821542583666
 20
-373.5633666458778
 30
0.0
 10
204.6474100641939
 20
-373.4176352122378
 30
0.0
 10
250.8117133769989
 20
-373.1285359387758
 30
0.0
 10
273.8937944783546
 20
-372.9840039408065
 30
0.0
 10
296.9756639145936
 20
-372.8036299828793
 30
0.0
 10
320.0571805756351
 20
-372.5873787874798
 30
0.0
 10
331.1664948409521
 20
-372.483274827019
 30
0.0
 10
342.2757385512217
 20
-372.3708806494357
 30
0.0
 10
353.3848764289332
 20
-372.2501962547474
 30
0.0
 10
360.4226357648256
 20
-372.1737498696831
 30
0.0
 10
367.4603598232088
 20
-372.0939521202559
 30
0.0
 10
374.4980486040678
 20
-372.0108735615022
 30
0.0
 10
375.3854898881597
 20
-372.0004314156839
 30
0.0
 10
376.2729664497859
 20
-371.9898834373116
 30
0.0
 10
377.1604430113974
 20
-371.9791943488622
 30
0.0
 10
377.4437567716323
 20
-371.975807706979
 30
0.0
 10
377.7270705318806
 20
-371.9723857875717
 30
0.0
 10
378.0103842921116
 20
-371.9683994278516
 30
0.0
 10
378.4471905403223
 20
-371.9622611394321
 30
0.0
 10
378.8839967885226
 20
-371.9547823052714
 30
0.0
 10
379.3207324816864
 20
-371.943810996663
 30
0.0
 10
380.3045166719232
 20
-371.9190461778702
 30
0.0
 10
381.2880539195223
 20
-371.8763956566257
 30
0.0
 10
382.2690864632266
 20
-371.7994906638085
 30
0.0
 10
383.0960268011419
 20
-371.7346505827091
 30
0.0
 10
383.9212032630697
 20
-371.6454690130528
 30
0.0
 10
384.7420758676129
 20
-371.5257371113933
 30
0.0
 10
386.3713681122516
 20
-371.288107739088
 30
0.0
 10
387.9837977024936
 20
-370.9302525798475
 30
0.0
 10
389.5541412118149
 20
-370.4363320273428
 30
0.0
 10
391.1198280885316
 20
-369.9438578531437
 30
0.0
 10
392.6436405494379
 20
-369.3160943911344
 30
0.0
 10
394.1038476424396
 20
-368.5658473809216
 30
0.0
 10
395.5498378950234
 20
-367.8229028172718
 30
0.0
 10
396.9334222153489
 20
-366.9598735767636
 30
0.0
 10
398.2411245909441
 20
-365.9945042517784
 30
0.0
 10
400.04285335159
 20
-364.6644359287381
 30
0.0
 10
401.7005439995365
 20
-363.1401648600724
 30
0.0
 10
403.1878795051342
 20
-361.4651882275041
 30
0.0
 10
404.8235217033072
 20
-359.6232783719879
 30
0.0
 10
406.2531784643017
 20
-357.5991954050399
 30
0.0
 10
407.4326823335067
 20
-355.4371067812651
 30
0.0
 10
408.5302012470648
 20
-353.4253356686693
 30
0.0
 10
409.4111161900317
 20
-351.2941148745776
 30
0.0
 10
410.0389854846164
 20
-349.0901871124971
 30
0.0
 10
410.3724991552962
 20
-347.9194673456777
 30
0.0
 10
410.6346111262295
 20
-346.7282160624316
 30
0.0
 10
410.8284610966671
 20
-345.5263109682505
 30
0.0
 10
411.0163844437986
 20
-344.3611650495345
 30
0.0
 10
411.1401732602225
 20
-343.1859650377211
 30
0.0
 10
411.2116102374867
 20
-342.0082250444894
 30
0.0
 10
411.2984634908458
 20
-340.5768749625594
 30
0.0
 10
411.3080236986726
 20
-339.1417149085083
 30
0.0
 10
411.3106695126482
 20
-337.7072965882313
 30
0.0
 10
411.3124686661488
 20
-336.7481008534105
 30
0.0
 10
411.3111281204044
 20
-335.7892226162638
 30
0.0
 10
411.3103872924829
 20
-334.8302738240761
 30
0.0
 10
411.3093289669038
 20
-333.5196787249889
 30
0.0
 10
411.3093642444138
 20
-332.208977793343
 30
0.0
 10
411.3093642444138
 20
-330.8982415841807
 30
0.0
 10
411.3100345172879
 20
-271.7539997436811
 30
0.0
 10
411.3099639622507
 20
-212.6098284582167
 30
0.0
 10
411.3099639622507
 20
-153.4656924502726
 30
0.0
  0
SPLINE
  5
42
330
1F
100
AcDbEntity
  8
0
 62
   250
370
    25
100
AcDbSpline
210
0.0
220
0.0
230
1.0
 70
     8
 71
     3
 72
   137
 73
   133
 74
     0
 42
0.0000000001
 43
0.0000000001
 12
1.0
 22
0.0
 32
0.0
 13
1.0
 23
0.0
 33
0.0
 40
0.0
 40
0.0
 40
0.0
 40
0.0
 40
1.0
 40
1.0
 40
1.0
 40
2.0
 40
2.0
 40
2.0
 40
3.0
 40
3.0
 40
3.0
 40
4.0
 40
4.0
 40
4.0
 40
5.0
 40
5.0
 40
5.0
 40
6.0
 40
6.0
 40
6.0
 40
7.0
 40
7.0
 40
7.0
 40
8.0
 40
8.0
 40
8.0
 40
9.0
 40
9.0
 40
9.0
 40
10.0
 40
10.0
 40
10.0
 40
11.0
 40
11.0
 40
11.0
 40
12.0
 40
12.0
 40
12.0
 40
13.0
 40
13.0
 40
13.0
 40
14.0
 40
14.0
 40
14.0
 40
15.0
 40
15.0
 40
15.0
 40
16.0
 40
16.0
 40
16.0
 40
17.0
 40
17.0
 40
17.0
 40
18.0
 40
18.0
 40
18.0
 40
19.0
 40
19.0
 40
19.0
 40
20.0
 40
20.0
 40
20.0
 40
21.0
 40
21.0
 40
21.0
 40
22.0
 40
22.0
 40
22.0
 40
23.0
 40
23.0
 40
23.0
 40
24.0
 40
24.0
 40
24.0
 40
25.0
 40
25.0
 40
25.0
 40
26.0
 40
26.0
 40
26.0
 40
27.0
 40
27.0
 40
27.0
 40
28.0
 40
28.0
 40
28.0
 40
29.0
 40
29.0
 40
29.0
 40
30.0
 40
30.0
 40
30.0
 40
31.0
 40
31.0
 40
31.0
 40
32.0
 40
32.0
 40
32.0
 40
33.0
 40
33.0
 40
33.0
 40
34.0
 40
34.0
 40
34.0
 40
35.0
 40
35.0
 40
35.0
 40
36.0
 40
36.0
 40
36.0
 40
37.0
 40
37.0
 40
37.0
 40
38.0
 40
38.0
 40
38.0
 40
39.0
 40
39.0
 40
39.0
 40
40.0
 40
40.0
 40
40.0
 40
41.0
 40
41.0
 40
41.0
 40
42.0
 40
42.0
 40
42.0
 40
43.0
 40
43.0
 40
43.0
 40
44.0
 40
44.0
 40
44.0
 40
44.0
 10
411.3099639622507
 20
-153.4656924502726
 30
0.0
 10
411.3099639622507
 20
-93.7505545238331
 30
0.0
 10
411.3100345172879
 20
-34.03545187491896
 30
0.0
 10
411.3097522971366
 20
25.67969613729971
 30
0.0
 10
411.3097522971366
 20
26.30837681483029
 30
0.0
 10
411.3097522971366
 20
26.93705749235831
 30
0.0
 10
411.3100345172879
 20
27.56570289236869
 30
0.0
 10
411.3105636800915
 20
28.6084358179299
 30
0.0
 10
411.3119042258321
 20
29.65106291093309
 30
0.0
 10
411.3103872924829
 20
30.69400750161036
 30
0.0
 10
411.3082353637873
 20
32.20258007403365
 30
0.0
 10
411.3001215342765
 20
33.71171708676984
 30
0.0
 10
411.2035669630131
 20
35.2167971847519
 30
0.0
 10
411.1193242461095
 20
36.52919147045075
 30
0.0
 10
410.9678072992488
 20
37.83851661193984
 30
0.0
 10
410.7362456603194
 20
39.13334269285659
 30
0.0
 10
410.5423251348517
 20
40.21759725903586
 30
0.0
 10
410.2922780756336
 20
41.291656622037
 30
0.0
 10
409.9838819989274
 20
42.34874749809298
 30
0.0
 10
409.3551660438888
 20
44.50353367530555
 30
0.0
 10
408.4839524188185
 20
46.58765898068098
 30
0.0
 10
407.4050247581071
 20
48.55670901698413
 30
0.0
 10
406.2659489264029
 20
50.63547213937159
 30
0.0
 10
404.8953820108176
 20
52.58596620035018
 30
0.0
 10
403.3332228860546
 20
54.36896259806405
 30
0.0
 10
401.7535661115626
 20
56.1719260718934
 30
0.0
 10
399.977977992971
 20
57.80361718786357
 30
0.0
 10
398.0382435754905
 20
59.21164882931161
 30
0.0
 10
396.7440877674389
 20
60.15105389984236
 30
0.0
 10
395.3768722162127
 20
60.99087053242396
 30
0.0
 10
393.9501434893593
 20
61.71324830212075
 30
0.0
 10
392.5093743096929
 20
62.44271685327246
 30
0.0
 10
391.0078925187114
 20
63.05238294771013
 30
0.0
 10
389.4660885227818
 20
63.53212193731113
 30
0.0
 10
387.9194162291439
 20
64.01341313777807
 30
0.0
 10
386.3321747879198
 20
64.36389529541718
 30
0.0
 10
384.7290231853353
 20
64.59665637001117
 30
0.0
 10
383.8283528313751
 20
64.7274301353217
 30
0.0
 10
382.9226377920984
 20
64.82105667244879
 30
0.0
 10
382.0149119342102
 20
64.88691980161887
 30
0.0
 10
381.1643003806116
 20
64.94865546099281
 30
0.0
 10
380.3119249510364
 20
64.98604963181249
 30
0.0
 10
379.4593731338705
 20
65.00890946453833
 30
0.0
 10
379.0073975522205
 20
65.02100965377828
 30
0.0
 10
378.5553514155371
 20
65.02901765073621
 30
0.0
 10
378.1032700013296
 20
65.03575565699138
 30
0.0
 10
377.5599961988582
 20
65.0437989314663
 30
0.0
 10
377.0166518413394
 20
65.05000777492171
 30
0.0
 10
376.4733074838238
 20
65.05625189589443
 30
0.0
 10
375.1625006865075
 20
65.07138595182842
 30
0.0
 10
373.8517644442381
 20
65.08697861550607
 30
0.0
 10
372.540992924435
 20
65.10243016910772
 30
0.0
 10
365.5228126119484
 20
65.18519123018801
 30
0.0
 10
358.5045264668865
 20
65.26364843387054
 30
0.0
 10
351.4862403218277
 20
65.33928343598663
 30
0.0
 10
348.3253392844466
 20
65.37336151995453
 30
0.0
 10
345.1644382470532
 20
65.40683988609445
 30
0.0
 10
342.0035372096593
 20
65.4396127018423
 30
0.0
 10
333.3828755674597
 20
65.52900593661299
 30
0.0
 10
324.7621433702134
 20
65.61310754343674
 30
0.0
 10
316.1413758954436
 20
65.69230557503188
 30
0.0
 10
303.9573319942635
 20
65.80424114485402
 30
0.0
 10
291.773217538036
 20
65.90636956421571
 30
0.0
 10
279.5889972492639
 20
65.99844389048008
 30
0.0
 10
267.4047416829549
 20
66.09051821674444
 30
0.0
 10
255.2204508391353
 20
66.1725031723916
 30
0.0
 10
243.0360541627577
 20
66.24453986749945
 30
0.0
 10
198.7259725598326
 20
66.50651072835582
 30
0.0
 10
154.4151148514786
 20
66.63647311071301
 30
0.0
 10
110.1042218656012
 20
66.63428590449539
 30
0.0
 10
63.93900133728771
 20
66.63199286571972
 30
0.0
 10
17.77378080898066
 20
66.48626143208614
 30
0.0
 10
-28.39055778133524
 20
66.19719743613727
 30
0.0
 10
-51.47263888269703
 20
66.05263016064906
 30
0.0
 10
-74.55447304141582
 20
65.87225620272442
 30
0.0
 10
-97.63598970246375
 20
65.6560050073255
 30
0.0
 10
-108.7453392452913
 20
65.55193632437987
 30
0.0
 10
-119.8545829555577
 20
65.43954214680157
 30
0.0
 10
-130.9637208332695
 20
65.3188577521089
 30
0.0
 10
-138.0014801691687
 20
65.24237608952762
 30
0.0
 10
-145.0392042275451
 20
65.16261361761542
 30
0.0
 10
-152.0768577308827
 20
65.07953505886168
 30
0.0
 10
-152.9643342925035
 20
65.06905763552903
 30
0.0
 10
-153.8518108541181
 20
65.05854493467619
 30
0.0
 10
-154.7392874157389
 20
65.04785584622748
 30
0.0
 10
-155.0226011759789
 20
65.04443392681767
 30
0.0
 10
-155.3059149362186
 20
65.04101200741428
 30
0.0
 10
-155.589193418938
 20
65.03702564769414
 30
0.0
 10
-156.0260349446596
 20
65.03088735927655
 30
0.0
 10
-156.4628059153404
 20
65.02344380263217
 30
0.0
 10
-156.8995768860177
 20
65.01243721650296
 30
0.0
 10
-157.8833610762566
 20
64.98767239771658
 30
0.0
 10
-158.866898323859
 20
64.945057153991
 30
0.0
 10
-159.8479308675633
 20
64.86815216117152
 30
0.0
 10
-160.6748712054821
 20
64.80331208006827
 30
0.0
 10
-161.5000123898913
 20
64.71409523289663
 30
0.0
 10
-162.320920271947
 20
64.59439860875283
 30
0.0
 10
-163.9502125165864
 20
64.35676923645073
 30
0.0
 10
-165.5626421068296
 20
63.99891407720796
 30
0.0
 10
-167.1329503386333
 20
63.50495824718721
 30
0.0
 10
-168.6986372153519
 20
63.01248407299553
 30
0.0
 10
-170.222484953781
 20
62.3847558884965
 30
0.0
 10
-171.6826567692618
 20
61.63450887828113
 30
0.0
 10
-173.1286470218431
 20
60.89156431463448
 30
0.0
 10
-174.5122666196958
 20
60.02849979660935
 30
0.0
 10
-175.8199689952815
 20
59.0631304716196
 30
0.0
 10
-177.6216977559286
 20
57.73309742610145
 30
0.0
 10
-179.2793531263568
 20
56.20879107991652
 30
0.0
 10
-180.7667239094785
 20
54.53384972486299
 30
0.0
 10
-182.4023308301313
 20
52.69193986934738
 30
0.0
 10
-183.8320228686364
 20
50.66782162488442
 30
0.0
 10
-185.0115267378472
 20
48.50576827862333
 30
0.0
 10
-186.109010373891
 20
46.49396188851252
 30
0.0
 10
-186.9899605943761
 20
44.36274109441821
 30
0.0
 10
-187.6178298889505
 20
42.15884860986114
 30
0.0
 10
-187.9513435596419
 20
40.98809356552411
 30
0.0
 10
-188.2134555305771
 20
39.79687755979172
 30
0.0
 10
-188.4073055010086
 20
38.59497246561062
 30
0.0
 10
-188.5952288481353
 20
37.42982654689462
 30
0.0
 10
-188.7190176645576
 20
36.25462653508129
 30
0.0
 10
-188.7904546418311
 20
35.076851264332
 30
0.0
 10
-188.8773078951895
 20
33.64553645992279
 30
0.0
 10
-188.8868681030105
 20
32.21037640587551
 30
0.0
 10
-188.889513916984
 20
30.7759219022168
 30
0.0
 10
-188.8912777929631
 20
29.81672614316548
 30
0.0
 10
-188.8899725247398
 20
28.85788315931806
 30
0.0
 10
-188.8891964193099
 20
27.89893434290362
 30
0.0
 10
-188.8881733712402
 20
26.58833921070472
 30
0.0
 10
-188.8882086487575
 20
25.27760296842759
 30
0.0
 10
-188.8882086487575
 20
23.96686672615303
 30
0.0
 10
-188.8888436441121
 20
-35.17734987934706
 30
0.0
 10
-188.888773089071
 20
-94.321521164805
 30
0.0
 10
-188.8888083665919
 20
-153.4656924502726
 30
0.0
  0
INSERT
  5
44
330
1F
100
AcDbEntity
  8
0
100
AcDbBlockReference
  2
block 2
 10
0.0
 20
0.0
 30
0.0
  0
INSERT
  5
5E
330
1F
100
AcDbEntity
  8
0
100
AcDbBlockReference
  2
block 4
 10
0.0
 20
0.0
 30
0.0
  0
SPLINE
  5
77
330
1F
100
AcDbEntity
  8
0
 62
   250
370
    25
100
AcDbSpline
210
0.0
220
0.0
230
1.0
 70
    11
 71
     3
 72
    17
 73
    13
 74
     0
 42
0.0000000001
 43
0.0000000001
 12
1.0
 22
0.0
 32
0.0
 13
1.0
 23
0.0
 33
0.0
 40
0.0
 40
0.0
 40
0.0
 40
0.0
 40
1.0
 40
1.0
 40
1.0
 40
2.0
 40
2.0
 40
2.0
 40
3.0
 40
3.0
 40
3.0
 40
4.0
 40
4.0
 40
4.0
 40
4.0
 10
136.9803469358321
 20
-153.482412334979
 30
0.0
 10
136.9803469358321
 20
-139.2413459268926
 30
0.0
 10
125.437202543066
 20
-127.7167187961625
 30
0.0
 10
111.2116389590094
 20
-127.7167187961625
 30
0.0
 10
96.97746269493653
 20
-127.7167187961625
 30
0.0
 10
85.42699752415636
 20
-139.2413459268926
 30
0.0
 10
85.42699752415636
 20
-153.482412334979
 30
0.0
 10
85.42699752415636
 20
-167.7269238150722
 30
0.0
 10
96.97746269493653
 20
-179.2584410898158
 30
0.0
 10
111.2116389590094
 20
-179.2584410898158
 30
0.0
 10
125.437202543066
 20
-179.2584410898158
 30
0.0
 10
136.9803469358321
 20
-167.7269238150722
 30
0.0
 10
136.9803469358321
 20
-153.482412334979
 30
0.0
  0
SPLINE
  5
78
330
1F
100
AcDbEntity
  8
0
 62
   250
370
    25
100
AcDbSpline
210
0.0
220
0.0
230
1.0
 70
    11
 71
     3
 72
    17
 73
    13
 74
     0
 42
0.0000000001
 43
0.0000000001
 12
1.0
 22
0.0
 32
0.0
 13
1.0
 23
0.0
 33
0.0
 40
0.0
 40
0.0
 40
0.0
 40
0.0
 40
1.0
 40
1.0
 40
1.0
 40
2.0
 40
2.0
 40
2.0
 40
3.0
 40
3.0
 40
3.0
 40
4.0
 40
4.0
 40
4.0
 40
4.0
 10
148.161758767884
 20
-153.482412334979
 30
0.0
 10
148.161758767884
 20
-133.06433181871
 30
0.0
 10
131.6193842592585
 20
-116.5383214021162
 30
0.0
 10
111.2176678350219
 20
-116.5383214021162
 30
0.0
 10
90.81595141078468
 20
-116.5383214021162
 30
0.0
 10
74.25979661413172
 20
-133.06433181871
 30
0.0
 10
74.25979661413172
 20
-153.482412334979
 30
0.0
 10
74.25979661413172
 20
-173.90135411925
 30
0.0
 10
90.81595141078468
 20
-190.4308096078502
 30
0.0
 10
111.2176678350219
 20
-190.4308096078502
 30
0.0
 10
131.6193842592585
 20
-190.4308096078502
 30
0.0
 10
148.161758767884
 20
-173.90135411925
 30
0.0
 10
148.161758767884
 20
-153.482412334979
 30
0.0
  0
ENDSEC
  0
SECTION
  2
OBJECTS
  0
DICTIONARY
  5
C
330
0
100
AcDbDictionary
281
     1
  3
ACAD_GROUP
350
D
  3
ACAD_LAYOUT
350
1A
  3
ACAD_MATERIAL
350
3B
  3
ACAD_MLEADERSTYLE
350
9A
  3
ACAD_MLINESTYLE
350
17
  3
ACAD_PLOTSETTINGS
350
19
  3
ACAD_PLOTSTYLENAME
350
E
  3
ACAD_TABLESTYLE
350
99
  3
ACAD_VISUALSTYLE
350
2A
  0
SUN
  5
3F
330
29
100
AcDbSun
 90
        1
290
     0
 63
     7
421
 16777215
 40
1.0
291
     1
 91
  2455826
 92
 54000000
292
     0
 70
     2
 71
   256
280
     1
  0
DICTIONARY
  5
D
102
{ACAD_REACTORS
330
C
102
}
330
C
100
AcDbDictionary
281
     1
  0
DICTIONARY
  5
1A
102
{ACAD_REACTORS
330
C
102
}
330
C
100
AcDbDictionary
281
     1
  3
Layout1
350
1E
  3
Layout2
350
26
  3
Model
350
22
  0
DICTIONARY
  5
3B
102
{ACAD_REACTORS
330
C
102
}
330
C
100
AcDbDictionary
281
     1
  3
ByBlock
350
3D
  3
ByLayer
350
3C
  3
Global
350
3E
  0
DICTIONARY
  5
9A
102
{ACAD_REACTORS
330
C
102
}
330
C
100
AcDbDictionary
281
     1
  0
DICTIONARY
  5
17
102
{ACAD_REACTORS
330
C
102
}
330
C
100
AcDbDictionary
281
     1
  3
Standard
350
18
  0
DICTIONARY
  5
19
102
{ACAD_REACTORS
330
C
102
}
330
C
100
AcDbDictionary
281
     1
  0
ACDBDICTIONARYWDFLT
  5
E
102
{ACAD_REACTORS
330
C
102
}
330
C
100
AcDbDictionary
281
     1
  3
Normal
350
F
100
AcDbDictionaryWithDefault
340
F
  0
DICTIONARY
  5
99
102
{ACAD_REACTORS
330
C
102
}
330
C
100
AcDbDictionary
281
     1
  0
DICTIONARY
  5
2A
102
{ACAD_REACTORS
330
C
102
}
330
C
100
AcDbDictionary
281
     1
  3
2dWireframe
350
2F
  3
3D Hidden
350
31
  3
3dWireframe
350
30
  3
Basic
350
32
  3
Brighten
350
36
  3
ColorChange
350
3A
  3
Conceptual
350
34
  3
Dim
350
35
  3
Facepattern
350
39
  3
Flat
350
2B
  3
FlatWithEdges
350
2C
  3
Gouraud
350
2D
  3
GouraudWithEdges
350
2E
  3
Linepattern
350
38
  3
Realistic
350
33
  3
Thicken
350
37
  0
LAYOUT
  5
1E
102
{ACAD_REACTORS
330
1A
102
}
330
1A
100
AcDbPlotSettings
  1

  2
none_device
  4

  6

 40
0.0
 41
0.0
 42
0.0
 43
0.0
 44
0.0
 45
0.0
 46
0.0
 47
0.0
 48
0.0
 49
0.0
140
0.0
141
0.0
142
1.0
143
1.0
 70
   688
 72
     0
 73
     0
 74
     5
  7

 75
    16
 76
     0
 77
     2
 78
   300
147
1.0
148
0.0
149
0.0
100
AcDbLayout
  1
Layout1
 70
     1
 71
     1
 10
0.0
 20
0.0
 11
12.0
 21
9.0
 12
0.0
 22
0.0
 32
0.0
 14
1.000000000000000E+20
 24
1.000000000000000E+20
 34
1.000000000000000E+20
 15
-1.000000000000000E+20
 25
-1.000000000000000E+20
 35
-1.000000000000000E+20
146
0.0
 13
0.0
 23
0.0
 33
0.0
 16
1.0
 26
0.0
 36
0.0
 17
0.0
 27
1.0
 37
0.0
 76
     0
330
1B
  0
LAYOUT
  5
26
102
{ACAD_REACTORS
330
1A
102
}
330
1A
100
AcDbPlotSettings
  1

  2
none_device
  4

  6

 40
0.0
 41
0.0
 42
0.0
 43
0.0
 44
0.0
 45
0.0
 46
0.0
 47
0.0
 48
0.0
 49
0.0
140
0.0
141
0.0
142
1.0
143
1.0
 70
   688
 72
     0
 73
     0
 74
     5
  7

 75
    16
 76
     0
 77
     2
 78
   300
147
1.0
148
0.0
149
0.0
100
AcDbLayout
  1
Layout2
 70
     1
 71
     2
 10
0.0
 20
0.0
 11
0.0
 21
0.0
 12
0.0
 22
0.0
 32
0.0
 14
0.0
 24
0.0
 34
0.0
 15
0.0
 25
0.0
 35
0.0
146
0.0
 13
0.0
 23
0.0
 33
0.0
 16
1.0
 26
0.0
 36
0.0
 17
0.0
 27
1.0
 37
0.0
 76
     0
330
23
  0
LAYOUT
  5
22
102
{ACAD_REACTORS
330
1A
102
}
330
1A
100
AcDbPlotSettings
  1

  2
none_device
  4

  6

 40
0.0
 41
0.0
 42
0.0
 43
0.0
 44
0.0
 45
0.0
 46
0.0
 47
0.0
 48
0.0
 49
0.0
140
0.0
141
0.0
142
1.0
143
1.0
 70
  1712
 72
     0
 73
     0
 74
     0
  7

 75
     0
 76
     0
 77
     2
 78
   300
147
1.0
148
0.0
149
0.0
100
AcDbLayout
  1
Model
 70
     1
 71
     0
 10
0.0
 20
0.0
 11
12.0
 21
9.0
 12
0.0
 22
0.0
 32
0.0
 14
1.000000000000000E+20
 24
1.000000000000000E+20
 34
1.000000000000000E+20
 15
-1.000000000000000E+20
 25
-1.000000000000000E+20
 35
-1.000000000000000E+20
146
0.0
 13
0.0
 23
0.0
 33
0.0
 16
1.0
 26
0.0
 36
0.0
 17
0.0
 27
1.0
 37
0.0
 76
     0
330
1F
331
29
  0
MATERIAL
  5
3D
102
{ACAD_REACTORS
330
3B
102
}
330
3B
100
AcDbMaterial
  1
ByBlock
 72
     1
 94
      127
  0
MATERIAL
  5
3C
102
{ACAD_REACTORS
330
3B
102
}
330
3B
100
AcDbMaterial
  1
ByLayer
 72
     1
 94
      127
  0
MATERIAL
  5
3E
102
{ACAD_REACTORS
330
3B
102
}
330
3B
100
AcDbMaterial
  1
Global
 72
     1
 94
      127
  0
MLINESTYLE
  5
18
102
{ACAD_REACTORS
330
17
102
}
330
17
100
AcDbMlineStyle
  2
Standard
 70
     0
  3

 62
   256
 51
90.0
 52
90.0
 71
     2
 49
0.5
 62
   256
  6
BYLAYER
 49
-0.5
 62
   256
  6
BYLAYER
  0
ACDBPLACEHOLDER
  5
F
102
{ACAD_REACTORS
330
E
102
}
330
E
  0
VISUALSTYLE
  5
2F
102
{ACAD_REACTORS
330
2A
102
}
102
{ACAD_XDICTIONARY
360
81
102
}
330
2A
100
AcDbVisualStyle
  2
2dWireframe
 70
     4
 71
     0
 72
     2
 73
     0
 90
        0
 40
-0.6
 41
-30.0
 62
     5
 63
     7
421
 16777215
 74
     1
 91
        4
 64
     7
 65
   257
 75
     1
175
     1
 42
1.0
 92
        0
 66
   257
 43
1.0
 76
     1
 77
     6
 78
     2
 67
     7
 79
     5
170
     0
171
     0
290
     0
174
     0
 93
        1
 44
0.0
173
     0
291
     0
 45
0.0
  0
VISUALSTYLE
  5
31
102
{ACAD_REACTORS
330
2A
102
}
102
{ACAD_XDICTIONARY
360
85
102
}
330
2A
100
AcDbVisualStyle
  2
3D Hidden
 70
     6
 71
     1
 72
     2
 73
     2
 90
        0
 40
-0.6
 41
-30.0
 62
     5
 63
     7
421
 16777215
 74
     2
 91
        2
 64
     7
 65
   257
 75
     2
175
     1
 42
40.0
 92
        0
 66
   257
 43
1.0
 76
     1
 77
     6
 78
     2
 67
     7
 79
     3
170
     0
171
     0
290
     0
174
     0
 93
        1
 44
0.0
173
     0
291
     0
 45
0.0
  0
VISUALSTYLE
  5
30
102
{ACAD_REACTORS
330
2A
102
}
102
{ACAD_XDICTIONARY
360
83
102
}
330
2A
100
AcDbVisualStyle
  2
3dWireframe
 70
     5
 71
     0
 72
     2
 73
     0
 90
        0
 40
-0.6
 41
-30.0
 62
     5
 63
     7
421
 16777215
 74
     1
 91
        4
 64
     7
 65
   257
 75
     1
175
     1
 42
1.0
 92
        0
 66
   257
 43
1.0
 76
     1
 77
     6
 78
     2
 67
     7
 79
     5
170
     0
171
     0
290
     0
174
     0
 93
        1
 44
0.0
173
     0
291
     0
 45
0.0
  0
VISUALSTYLE
  5
32
102
{ACAD_REACTORS
330
2A
102
}
102
{ACAD_XDICTIONARY
360
87
102
}
330
2A
100
AcDbVisualStyle
  2
Basic
 70
     7
 71
     1
 72
     0
 73
     1
 90
        0
 40
-0.6
 41
-30.0
 62
     5
 63
     7
421
 16777215
 74
     0
 91
        4
 64
     7
 65
   257
 75
     1
175
     1
 42
1.0
 92
        8
 66
     7
 43
1.0
 76
     1
 77
     6
 78
     2
 67
     7
 79
     5
170
     0
171
     0
290
     0
174
     0
 93
        1
 44
0.0
173
     0
291
     1
 45
0.0
  0
VISUALSTYLE
  5
36
102
{ACAD_REACTORS
330
2A
102
}
102
{ACAD_XDICTIONARY
360
8F
102
}
330
2A
100
AcDbVisualStyle
  2
Brighten
 70
    12
 71
     2
 72
     2
 73
     0
 90
        0
 40
-0.6
 41
-30.0
 62
     5
 63
     7
421
 16777215
 74
     1
 91
        4
 64
     7
 65
   257
 75
     1
175
     1
 42
1.0
 92
        8
 66
     7
 43
1.0
 76
     1
 77
     6
 78
     2
 67
     7
 79
     5
170
     0
171
     0
290
     0
174
     0
 93
        1
 44
50.0
173
     0
291
     1
 45
0.0
  0
VISUALSTYLE
  5
3A
102
{ACAD_REACTORS
330
2A
102
}
102
{ACAD_XDICTIONARY
360
97
102
}
330
2A
100
AcDbVisualStyle
  2
ColorChange
 70
    16
 71
     2
 72
     2
 73
     3
 90
        0
 40
-0.6
 41
-30.0
 62
     5
 63
     8
421
  8421504
 74
     1
 91
        4
 64
     7
 65
   257
 75
     1
175
     1
 42
1.0
 92
        8
 66
     8
424
  8421504
 43
1.0
 76
     1
 77
     6
 78
     2
 67
     7
 79
     5
170
     0
171
     0
290
     0
174
     0
 93
        1
 44
0.0
173
     0
291
     1
 45
0.0
  0
VISUALSTYLE
  5
34
102
{ACAD_REACTORS
330
2A
102
}
102
{ACAD_XDICTIONARY
360
8B
102
}
330
2A
100
AcDbVisualStyle
  2
Conceptual
 70
     9
 71
     3
 72
     2
 73
     0
 90
        0
 40
-0.6
 41
-30.0
 62
     5
 63
     7
421
 16777215
 74
     2
 91
        2
 64
     7
 65
   257
 75
     1
175
     1
 42
40.0
 92
        8
 66
     7
 43
1.0
 76
     1
 77
     6
 78
     2
 67
     7
 79
     3
170
     0
171
     0
290
     0
174
     0
 93
        1
 44
0.0
173
     0
291
     0
 45
0.0
  0
VISUALSTYLE
  5
35
102
{ACAD_REACTORS
330
2A
102
}
102
{ACAD_XDICTIONARY
360
8D
102
}
330
2A
100
AcDbVisualStyle
  2
Dim
 70
    11
 71
     2
 72
     2
 73
     0
 90
        0
 40
-0.6
 41
-30.0
 62
     5
 63
     7
421
 16777215
 74
     1
 91
        4
 64
     7
 65
   257
 75
     1
175
     1
 42
1.0
 92
        8
 66
     7
 43
1.0
 76
     1
 77
     6
 78
     2
 67
     7
 79
     5
170
     0
171
     0
290
     0
174
     0
 93
        1
 44
-50.0
173
     0
291
     1
 45
0.0
  0
VISUALSTYLE
  5
39
102
{ACAD_REACTORS
330
2A
102
}
102
{ACAD_XDICTIONARY
360
95
102
}
330
2A
100
AcDbVisualStyle
  2
Facepattern
 70
    15
 71
     2
 72
     2
 73
     0
 90
        0
 40
-0.6
 41
-30.0
 62
     5
 63
     7
421
 16777215
 74
     1
 91
        4
 64
     7
 65
   257
 75
     1
175
     1
 42
1.0
 92
        8
 66
     7
 43
1.0
 76
     1
 77
     6
 78
     2
 67
     7
 79
     5
170
     0
171
     0
290
     0
174
     0
 93
        1
 44
0.0
173
     0
291
     1
 45
0.0
  0
VISUALSTYLE
  5
2B
102
{ACAD_REACTORS
330
2A
102
}
102
{ACAD_XDICTIONARY
360
79
102
}
330
2A
100
AcDbVisualStyle
  2
Flat
 70
     0
 71
     2
 72
     1
 73
     1
 90
        2
 40
-0.6
 41
30.0
 62
     5
 63
     7
421
 16777215
 74
     0
 91
        4
 64
     7
 65
   257
 75
     1
175
     1
 42
1.0
 92
        8
 66
     7
 43
1.0
 76
     1
 77
     6
 78
     2
 67
     7
 79
     5
170
     0
171
     0
290
     0
174
     0
 93
       13
 44
0.0
173
     0
291
     1
 45
0.0
  0
VISUALSTYLE
  5
2C
102
{ACAD_REACTORS
330
2A
102
}
102
{ACAD_XDICTIONARY
360
7B
102
}
330
2A
100
AcDbVisualStyle
  2
FlatWithEdges
 70
     1
 71
     2
 72
     1
 73
     1
 90
        2
 40
-0.6
 41
30.0
 62
     5
 63
     7
421
 16777215
 74
     1
 91
        4
 64
     7
 65
   257
 75
     1
175
     1
 42
1.0
 92
        0
 66
   257
 43
1.0
 76
     1
 77
     6
 78
     2
 67
     7
 79
     5
170
     0
171
     0
290
     0
174
     0
 93
       13
 44
0.0
173
     0
291
     1
 45
0.0
  0
VISUALSTYLE
  5
2D
102
{ACAD_REACTORS
330
2A
102
}
102
{ACAD_XDICTIONARY
360
7D
102
}
330
2A
100
AcDbVisualStyle
  2
Gouraud
 70
     2
 71
     2
 72
     2
 73
     1
 90
        2
 40
-0.6
 41
30.0
 62
     5
 63
     7
421
 16777215
 74
     0
 91
        4
 64
     7
 65
   257
 75
     1
175
     1
 42
1.0
 92
        0
 66
     7
 43
1.0
 76
     1
 77
     6
 78
     2
 67
     7
 79
     5
170
     0
171
     0
290
     0
174
     0
 93
       13
 44
0.0
173
     0
291
     1
 45
0.0
  0
VISUALSTYLE
  5
2E
102
{ACAD_REACTORS
330
2A
102
}
102
{ACAD_XDICTIONARY
360
7F
102
}
330
2A
100
AcDbVisualStyle
  2
GouraudWithEdges
 70
     3
 71
     2
 72
     2
 73
     1
 90
        2
 40
-0.6
 41
30.0
 62
     5
 63
     7
421
 16777215
 74
     1
 91
        4
 64
     7
 65
   257
 75
     1
175
     1
 42
1.0
 92
        0
 66
   257
 43
1.0
 76
     1
 77
     6
 78
     2
 67
     7
 79
     5
170
     0
171
     0
290
     0
174
     0
 93
       13
 44
0.0
173
     0
291
     1
 45
0.0
  0
VISUALSTYLE
  5
38
102
{ACAD_REACTORS
330
2A
102
}
102
{ACAD_XDICTIONARY
360
93
102
}
330
2A
100
AcDbVisualStyle
  2
Linepattern
 70
    14
 71
     2
 72
     2
 73
     0
 90
        0
 40
-0.6
 41
-30.0
 62
     5
 63
     7
421
 16777215
 74
     1
 91
        4
 64
     7
 65
   257
 75
     7
175
     7
 42
1.0
 92
        8
 66
     7
 43
1.0
 76
     1
 77
     6
 78
     2
 67
     7
 79
     5
170
     0
171
     0
290
     0
174
     0
 93
        1
 44
0.0
173
     0
291
     1
 45
0.0
  0
VISUALSTYLE
  5
33
102
{ACAD_REACTORS
330
2A
102
}
102
{ACAD_XDICTIONARY
360
89
102
}
330
2A
100
AcDbVisualStyle
  2
Realistic
 70
     8
 71
     2
 72
     2
 73
     0
 90
        0
 40
-0.6
 41
-30.0
 62
     5
 63
     7
421
 16777215
 74
     1
 91
        0
 64
     7
 65
   257
 75
     1
175
     1
 42
1.0
 92
        8
 66
     8
424
  7895160
 43
1.0
 76
     1
 77
     6
 78
     2
 67
     7
 79
     5
170
     0
171
     0
290
     0
174
     0
 93
       13
 44
0.0
173
     0
291
     0
 45
0.0
  0
VISUALSTYLE
  5
37
102
{ACAD_REACTORS
330
2A
102
}
102
{ACAD_XDICTIONARY
360
91
102
}
330
2A
100
AcDbVisualStyle
  2
Thicken
 70
    13
 71
     2
 72
     2
 73
     0
 90
        0
 40
-0.6
 41
-30.0
 62
     5
 63
     7
421
 16777215
 74
     1
 91
        4
 64
     7
 65
   257
 75
     1
175
     1
 42
1.0
 92
       12
 66
     7
 43
1.0
 76
     1
 77
     6
 78
     2
 67
     7
 79
     5
170
     0
171
     0
290
     0
174
     0
 93
        1
 44
0.0
173
     0
291
     1
 45
0.0
  0
DICTIONARY
  5
81
330
2F
100
AcDbDictionary
280
     1
281
     1
  3
ACAD_XREC_ROUNDTRIP
360
82
  0
DICTIONARY
  5
85
330
31
100
AcDbDictionary
280
     1
281
     1
  3
ACAD_XREC_ROUNDTRIP
360
86
  0
DICTIONARY
  5
83
330
30
100
AcDbDictionary
280
     1
281
     1
  3
ACAD_XREC_ROUNDTRIP
360
84
  0
DICTIONARY
  5
87
330
32
100
AcDbDictionary
280
     1
281
     1
  3
ACAD_XREC_ROUNDTRIP
360
88
  0
DICTIONARY
  5
8F
330
36
100
AcDbDictionary
280
     1
281
     1
  3
ACAD_XREC_ROUNDTRIP
360
90
  0
DICTIONARY
  5
97
330
3A
100
AcDbDictionary
280
     1
281
     1
  3
ACAD_XREC_ROUNDTRIP
360
98
  0
DICTIONARY
  5
8B
330
34
100
AcDbDictionary
280
     1
281
     1
  3
ACAD_XREC_ROUNDTRIP
360
8C
  0
DICTIONARY
  5
8D
330
35
100
AcDbDictionary
280
     1
281
     1
  3
ACAD_XREC_ROUNDTRIP
360
8E
  0
DICTIONARY
  5
95
330
39
100
AcDbDictionary
280
     1
281
     1
  3
ACAD_XREC_ROUNDTRIP
360
96
  0
DICTIONARY
  5
79
330
2B
100
AcDbDictionary
280
     1
281
     1
  3
ACAD_XREC_ROUNDTRIP
360
7A
  0
DICTIONARY
  5
7B
330
2C
100
AcDbDictionary
280
     1
281
     1
  3
ACAD_XREC_ROUNDTRIP
360
7C
  0
DICTIONARY
  5
7D
330
2D
100
AcDbDictionary
280
     1
281
     1
  3
ACAD_XREC_ROUNDTRIP
360
7E
  0
DICTIONARY
  5
7F
330
2E
100
AcDbDictionary
280
     1
281
     1
  3
ACAD_XREC_ROUNDTRIP
360
80
  0
DICTIONARY
  5
93
330
38
100
AcDbDictionary
280
     1
281
     1
  3
ACAD_XREC_ROUNDTRIP
360
94
  0
DICTIONARY
  5
89
330
33
100
AcDbDictionary
280
     1
281
     1
  3
ACAD_XREC_ROUNDTRIP
360
8A
  0
DICTIONARY
  5
91
330
37
100
AcDbDictionary
280
     1
281
     1
  3
ACAD_XREC_ROUNDTRIP
360
92
  0
XRECORD
  5
82
102
{ACAD_REACTORS
330
81
102
}
330
81
100
AcDbXrecord
280
     1
102
RTVSPropertyOp0
 70
     1
102
RTVSPropertyOp1
 70
     1
102
RTVSPropertyOp2
 70
     1
102
RTVSPropertyOp3
 70
     1
102
RTVSPropertyOp4
 70
     1
102
RTVSPropertyOp5
 70
     1
102
RTVSPropertyOp6
 70
     1
102
RTVSPropertyOp7
 70
     1
102
RTVSPropertyOp8
 70
     1
102
RTVSPropertyOp9
 70
     1
102
RTVSPropertyOp10
 70
     1
102
RTVSPropertyOp11
 70
     1
102
RTVSPropertyOp12
 70
     1
102
RTVSPropertyOp13
 70
     1
102
RTVSPropertyOp14
 70
     1
102
RTVSPropertyOp15
 70
     1
102
RTVSPropertyOp16
 70
     1
102
RTVSPropertyOp17
 70
     1
102
RTVSPropertyOp18
 70
     1
102
RTVSPropertyOp19
 70
     1
102
RTVSPropertyOp20
 70
     1
102
RTVSPropertyOp21
 70
     1
102
RTVSPropertyOp22
 70
     1
102
RTVSPropertyOp23
 70
     1
102
RTVSPropertyOp24
 70
     1
102
RTVSPropertyOp25
 70
     1
102
RTVSPropertyOp26
 70
     1
102
RTVSPropertyOp27
 70
     1
102
RTVSPropertyOp28
 70
     1
102
RTVSPropertyOp29
 70
     1
102
RTVSPropertyOp30
 70
     1
102
RTVSPropertyOp31
 70
     1
102
RTVSPropertyOp32
 70
     1
  0
XRECORD
  5
86
102
{ACAD_REACTORS
330
85
102
}
330
85
100
AcDbXrecord
280
     1
102
RTVSPropertyOp0
 70
     1
102
RTVSPropertyOp1
 70
     1
102
RTVSPropertyOp2
 70
     1
102
RTVSPropertyOp3
 70
     1
102
RTVSPropertyOp4
 70
     1
102
RTVSPropertyOp5
 70
     1
102
RTVSPropertyOp6
 70
     1
102
RTVSPropertyOp7
 70
     1
102
RTVSPropertyOp8
 70
     1
102
RTVSPropertyOp9
 70
     1
102
RTVSPropertyOp10
 70
     1
102
RTVSPropertyOp11
 70
     1
102
RTVSPropertyOp12
 70
     1
102
RTVSPropertyOp13
 70
     1
102
RTVSPropertyOp14
 70
     1
102
RTVSPropertyOp15
 70
     1
102
RTVSPropertyOp16
 70
     1
102
RTVSPropertyOp17
 70
     1
102
RTVSPropertyOp18
 70
     1
102
RTVSPropertyOp19
 70
     1
102
RTVSPropertyOp20
 70
     1
102
RTVSPropertyOp21
 70
     1
102
RTVSPropertyOp22
 70
     1
102
RTVSPropertyOp23
 70
     1
102
RTVSPropertyOp24
 70
     1
102
RTVSPropertyOp25
 70
     1
102
RTVSPropertyOp26
 70
     1
102
RTVSPropertyOp27
 70
     1
102
RTVSPropertyOp28
 70
     1
102
RTVSPropertyOp29
 70
     1
102
RTVSPropertyOp30
 70
     1
102
RTVSPropertyOp31
 70
     1
102
RTVSPropertyOp32
 70
     1
  0
XRECORD
  5
84
102
{ACAD_REACTORS
330
83
102
}
330
83
100
AcDbXrecord
280
     1
102
RTVSPropertyOp0
 70
     1
102
RTVSPropertyOp1
 70
     1
102
RTVSPropertyOp2
 70
     1
102
RTVSPropertyOp3
 70
     1
102
RTVSPropertyOp4
 70
     1
102
RTVSPropertyOp5
 70
     1
102
RTVSPropertyOp6
 70
     1
102
RTVSPropertyOp7
 70
     1
102
RTVSPropertyOp8
 70
     1
102
RTVSPropertyOp9
 70
     1
102
RTVSPropertyOp10
 70
     1
102
RTVSPropertyOp11
 70
     1
102
RTVSPropertyOp12
 70
     1
102
RTVSPropertyOp13
 70
     1
102
RTVSPropertyOp14
 70
     1
102
RTVSPropertyOp15
 70
     1
102
RTVSPropertyOp16
 70
     1
102
RTVSPropertyOp17
 70
     1
102
RTVSPropertyOp18
 70
     1
102
RTVSPropertyOp19
 70
     1
102
RTVSPropertyOp20
 70
     1
102
RTVSPropertyOp21
 70
     1
102
RTVSPropertyOp22
 70
     1
102
RTVSPropertyOp23
 70
     1
102
RTVSPropertyOp24
 70
     1
102
RTVSPropertyOp25
 70
     1
102
RTVSPropertyOp26
 70
     1
102
RTVSPropertyOp27
 70
     1
102
RTVSPropertyOp28
 70
     1
102
RTVSPropertyOp29
 70
     1
102
RTVSPropertyOp30
 70
     1
102
RTVSPropertyOp31
 70
     1
102
RTVSPropertyOp32
 70
     1
  0
XRECORD
  5
88
102
{ACAD_REACTORS
330
87
102
}
330
87
100
AcDbXrecord
280
     1
102
RTVSPropertyOp0
 70
     1
102
RTVSPropertyOp1
 70
     1
102
RTVSPropertyOp2
 70
     1
102
RTVSPropertyOp3
 70
     1
102
RTVSPropertyOp4
 70
     1
102
RTVSPropertyOp5
 70
     1
102
RTVSPropertyOp6
 70
     1
102
RTVSPropertyOp7
 70
     1
102
RTVSPropertyOp8
 70
     1
102
RTVSPropertyOp9
 70
     1
102
RTVSPropertyOp10
 70
     1
102
RTVSPropertyOp11
 70
     1
102
RTVSPropertyOp12
 70
     1
102
RTVSPropertyOp13
 70
     1
102
RTVSPropertyOp14
 70
     1
102
RTVSPropertyOp15
 70
     1
102
RTVSPropertyOp16
 70
     1
102
RTVSPropertyOp17
 70
     1
102
RTVSPropertyOp18
 70
     1
102
RTVSPropertyOp19
 70
     1
102
RTVSPropertyOp20
 70
     1
102
RTVSPropertyOp21
 70
     1
102
RTVSPropertyOp22
 70
     1
102
RTVSPropertyOp23
 70
     1
102
RTVSPropertyOp24
 70
     1
102
RTVSPropertyOp25
 70
     1
102
RTVSPropertyOp26
 70
     1
102
RTVSPropertyOp27
 70
     1
102
RTVSPropertyOp28
 70
     1
102
RTVSPropertyOp29
 70
     1
102
RTVSPropertyOp30
 70
     1
102
RTVSPropertyOp31
 70
     1
102
RTVSPropertyOp32
 70
     1
  0
XRECORD
  5
90
102
{ACAD_REACTORS
330
8F
102
}
330
8F
100
AcDbXrecord
280
     1
102
RTVSPropertyOp0
 70
     1
102
RTVSPropertyOp1
 70
     1
102
RTVSPropertyOp2
 70
     1
102
RTVSPropertyOp3
 70
     1
102
RTVSPropertyOp4
 70
     1
102
RTVSPropertyOp5
 70
     1
102
RTVSPropertyOp6
 70
     1
102
RTVSPropertyOp7
 70
     1
102
RTVSPropertyOp8
 70
     1
102
RTVSPropertyOp9
 70
     1
102
RTVSPropertyOp10
 70
     1
102
RTVSPropertyOp11
 70
     1
102
RTVSPropertyOp12
 70
     1
102
RTVSPropertyOp13
 70
     1
102
RTVSPropertyOp14
 70
     1
102
RTVSPropertyOp15
 70
     1
102
RTVSPropertyOp16
 70
     1
102
RTVSPropertyOp17
 70
     1
102
RTVSPropertyOp18
 70
     1
102
RTVSPropertyOp19
 70
     1
102
RTVSPropertyOp20
 70
     1
102
RTVSPropertyOp21
 70
     1
102
RTVSPropertyOp22
 70
     1
102
RTVSPropertyOp23
 70
     1
102
RTVSPropertyOp24
 70
     1
102
RTVSPropertyOp25
 70
     1
102
RTVSPropertyOp26
 70
     1
102
RTVSPropertyOp27
 70
     1
102
RTVSPropertyOp28
 70
     1
102
RTVSPropertyOp29
 70
     1
102
RTVSPropertyOp30
 70
     1
102
RTVSPropertyOp31
 70
     1
102
RTVSPropertyOp32
 70
     1
  0
XRECORD
  5
98
102
{ACAD_REACTORS
330
97
102
}
330
97
100
AcDbXrecord
280
     1
102
RTVSPropertyOp0
 70
     1
102
RTVSPropertyOp1
 70
     1
102
RTVSPropertyOp2
 70
     1
102
RTVSPropertyOp3
 70
     1
102
RTVSPropertyOp4
 70
     1
102
RTVSPropertyOp5
 70
     1
102
RTVSPropertyOp6
 70
     1
102
RTVSPropertyOp7
 70
     1
102
RTVSPropertyOp8
 70
     1
102
RTVSPropertyOp9
 70
     1
102
RTVSPropertyOp10
 70
     1
102
RTVSPropertyOp11
 70
     1
102
RTVSPropertyOp12
 70
     1
102
RTVSPropertyOp13
 70
     1
102
RTVSPropertyOp14
 70
     1
102
RTVSPropertyOp15
 70
     1
102
RTVSPropertyOp16
 70
     1
102
RTVSPropertyOp17
 70
     1
102
RTVSPropertyOp18
 70
     1
102
RTVSPropertyOp19
 70
     1
102
RTVSPropertyOp20
 70
     1
102
RTVSPropertyOp21
 70
     1
102
RTVSPropertyOp22
 70
     1
102
RTVSPropertyOp23
 70
     1
102
RTVSPropertyOp24
 70
     1
102
RTVSPropertyOp25
 70
     1
102
RTVSPropertyOp26
 70
     1
102
RTVSPropertyOp27
 70
     1
102
RTVSPropertyOp28
 70
     1
102
RTVSPropertyOp29
 70
     1
102
RTVSPropertyOp30
 70
     1
102
RTVSPropertyOp31
 70
     1
102
RTVSPropertyOp32
 70
     1
  0
XRECORD
  5
8C
102
{ACAD_REACTORS
330
8B
102
}
330
8B
100
AcDbXrecord
280
     1
102
RTVSPropertyOp0
 70
     1
102
RTVSPropertyOp1
 70
     1
102
RTVSPropertyOp2
 70
     1
102
RTVSPropertyOp3
 70
     1
102
RTVSPropertyOp4
 70
     1
102
RTVSPropertyOp5
 70
     1
102
RTVSPropertyOp6
 70
     1
102
RTVSPropertyOp7
 70
     1
102
RTVSPropertyOp8
 70
     1
102
RTVSPropertyOp9
 70
     1
102
RTVSPropertyOp10
 70
     1
102
RTVSPropertyOp11
 70
     1
102
RTVSPropertyOp12
 70
     1
102
RTVSPropertyOp13
 70
     1
102
RTVSPropertyOp14
 70
     1
102
RTVSPropertyOp15
 70
     1
102
RTVSPropertyOp16
 70
     1
102
RTVSPropertyOp17
 70
     1
102
RTVSPropertyOp18
 70
     1
102
RTVSPropertyOp19
 70
     1
102
RTVSPropertyOp20
 70
     1
102
RTVSPropertyOp21
 70
     1
102
RTVSPropertyOp22
 70
     1
102
RTVSPropertyOp23
 70
     1
102
RTVSPropertyOp24
 70
     1
102
RTVSPropertyOp25
 70
     1
102
RTVSPropertyOp26
 70
     1
102
RTVSPropertyOp27
 70
     1
102
RTVSPropertyOp28
 70
     1
102
RTVSPropertyOp29
 70
     1
102
RTVSPropertyOp30
 70
     1
102
RTVSPropertyOp31
 70
     1
102
RTVSPropertyOp32
 70
     1
  0
XRECORD
  5
8E
102
{ACAD_REACTORS
330
8D
102
}
330
8D
100
AcDbXrecord
280
     1
102
RTVSPropertyOp0
 70
     1
102
RTVSPropertyOp1
 70
     1
102
RTVSPropertyOp2
 70
     1
102
RTVSPropertyOp3
 70
     1
102
RTVSPropertyOp4
 70
     1
102
RTVSPropertyOp5
 70
     1
102
RTVSPropertyOp6
 70
     1
102
RTVSPropertyOp7
 70
     1
102
RTVSPropertyOp8
 70
     1
102
RTVSPropertyOp9
 70
     1
102
RTVSPropertyOp10
 70
     1
102
RTVSPropertyOp11
 70
     1
102
RTVSPropertyOp12
 70
     1
102
RTVSPropertyOp13
 70
     1
102
RTVSPropertyOp14
 70
     1
102
RTVSPropertyOp15
 70
     1
102
RTVSPropertyOp16
 70
     1
102
RTVSPropertyOp17
 70
     1
102
RTVSPropertyOp18
 70
     1
102
RTVSPropertyOp19
 70
     1
102
RTVSPropertyOp20
 70
     1
102
RTVSPropertyOp21
 70
     1
102
RTVSPropertyOp22
 70
     1
102
RTVSPropertyOp23
 70
     1
102
RTVSPropertyOp24
 70
     1
102
RTVSPropertyOp25
 70
     1
102
RTVSPropertyOp26
 70
     1
102
RTVSPropertyOp27
 70
     1
102
RTVSPropertyOp28
 70
     1
102
RTVSPropertyOp29
 70
     1
102
RTVSPropertyOp30
 70
     1
102
RTVSPropertyOp31
 70
     1
102
RTVSPropertyOp32
 70
     1
  0
XRECORD
  5
96
102
{ACAD_REACTORS
330
95
102
}
330
95
100
AcDbXrecord
280
     1
102
RTVSPropertyOp0
 70
     1
102
RTVSPropertyOp1
 70
     1
102
RTVSPropertyOp2
 70
     1
102
RTVSPropertyOp3
 70
     1
102
RTVSPropertyOp4
 70
     1
102
RTVSPropertyOp5
 70
     1
102
RTVSPropertyOp6
 70
     1
102
RTVSPropertyOp7
 70
     1
102
RTVSPropertyOp8
 70
     1
102
RTVSPropertyOp9
 70
     1
102
RTVSPropertyOp10
 70
     1
102
RTVSPropertyOp11
 70
     1
102
RTVSPropertyOp12
 70
     1
102
RTVSPropertyOp13
 70
     1
102
RTVSPropertyOp14
 70
     1
102
RTVSPropertyOp15
 70
     1
102
RTVSPropertyOp16
 70
     1
102
RTVSPropertyOp17
 70
     1
102
RTVSPropertyOp18
 70
     1
102
RTVSPropertyOp19
 70
     1
102
RTVSPropertyOp20
 70
     1
102
RTVSPropertyOp21
 70
     1
102
RTVSPropertyOp22
 70
     1
102
RTVSPropertyOp23
 70
     1
102
RTVSPropertyOp24
 70
     1
102
RTVSPropertyOp25
 70
     1
102
RTVSPropertyOp26
 70
     1
102
RTVSPropertyOp27
 70
     1
102
RTVSPropertyOp28
 70
     1
102
RTVSPropertyOp29
 70
     1
102
RTVSPropertyOp30
 70
     1
102
RTVSPropertyOp31
 70
     1
102
RTVSPropertyOp32
 70
     1
  0
XRECORD
  5
7A
102
{ACAD_REACTORS
330
79
102
}
330
79
100
AcDbXrecord
280
     1
102
RTVSPropertyOp0
 70
     1
102
RTVSPropertyOp1
 70
     1
102
RTVSPropertyOp2
 70
     1
102
RTVSPropertyOp3
 70
     1
102
RTVSPropertyOp4
 70
     1
102
RTVSPropertyOp5
 70
     1
102
RTVSPropertyOp6
 70
     1
102
RTVSPropertyOp7
 70
     1
102
RTVSPropertyOp8
 70
     1
102
RTVSPropertyOp9
 70
     1
102
RTVSPropertyOp10
 70
     1
102
RTVSPropertyOp11
 70
     1
102
RTVSPropertyOp12
 70
     1
102
RTVSPropertyOp13
 70
     1
102
RTVSPropertyOp14
 70
     1
102
RTVSPropertyOp15
 70
     1
102
RTVSPropertyOp16
 70
     1
102
RTVSPropertyOp17
 70
     1
102
RTVSPropertyOp18
 70
     1
102
RTVSPropertyOp19
 70
     1
102
RTVSPropertyOp20
 70
     1
102
RTVSPropertyOp21
 70
     1
102
RTVSPropertyOp22
 70
     1
102
RTVSPropertyOp23
 70
     1
102
RTVSPropertyOp24
 70
     1
102
RTVSPropertyOp25
 70
     1
102
RTVSPropertyOp26
 70
     1
102
RTVSPropertyOp27
 70
     1
102
RTVSPropertyOp28
 70
     1
102
RTVSPropertyOp29
 70
     1
102
RTVSPropertyOp30
 70
     1
102
RTVSPropertyOp31
 70
     1
102
RTVSPropertyOp32
 70
     1
  0
XRECORD
  5
7C
102
{ACAD_REACTORS
330
7B
102
}
330
7B
100
AcDbXrecord
280
     1
102
RTVSPropertyOp0
 70
     1
102
RTVSPropertyOp1
 70
     1
102
RTVSPropertyOp2
 70
     1
102
RTVSPropertyOp3
 70
     1
102
RTVSPropertyOp4
 70
     1
102
RTVSPropertyOp5
 70
     1
102
RTVSPropertyOp6
 70
     1
102
RTVSPropertyOp7
 70
     1
102
RTVSPropertyOp8
 70
     1
102
RTVSPropertyOp9
 70
     1
102
RTVSPropertyOp10
 70
     1
102
RTVSPropertyOp11
 70
     1
102
RTVSPropertyOp12
 70
     1
102
RTVSPropertyOp13
 70
     1
102
RTVSPropertyOp14
 70
     1
102
RTVSPropertyOp15
 70
     1
102
RTVSPropertyOp16
 70
     1
102
RTVSPropertyOp17
 70
     1
102
RTVSPropertyOp18
 70
     1
102
RTVSPropertyOp19
 70
     1
102
RTVSPropertyOp20
 70
     1
102
RTVSPropertyOp21
 70
     1
102
RTVSPropertyOp22
 70
     1
102
RTVSPropertyOp23
 70
     1
102
RTVSPropertyOp24
 70
     1
102
RTVSPropertyOp25
 70
     1
102
RTVSPropertyOp26
 70
     1
102
RTVSPropertyOp27
 70
     1
102
RTVSPropertyOp28
 70
     1
102
RTVSPropertyOp29
 70
     1
102
RTVSPropertyOp30
 70
     1
102
RTVSPropertyOp31
 70
     1
102
RTVSPropertyOp32
 70
     1
  0
XRECORD
  5
7E
102
{ACAD_REACTORS
330
7D
102
}
330
7D
100
AcDbXrecord
280
     1
102
RTVSPropertyOp0
 70
     1
102
RTVSPropertyOp1
 70
     1
102
RTVSPropertyOp2
 70
     1
102
RTVSPropertyOp3
 70
     1
102
RTVSPropertyOp4
 70
     1
102
RTVSPropertyOp5
 70
     1
102
RTVSPropertyOp6
 70
     1
102
RTVSPropertyOp7
 70
     1
102
RTVSPropertyOp8
 70
     1
102
RTVSPropertyOp9
 70
     1
102
RTVSPropertyOp10
 70
     1
102
RTVSPropertyOp11
 70
     1
102
RTVSPropertyOp12
 70
     1
102
RTVSPropertyOp13
 70
     1
102
RTVSPropertyOp14
 70
     1
102
RTVSPropertyOp15
 70
     1
102
RTVSPropertyOp16
 70
     1
102
RTVSPropertyOp17
 70
     1
102
RTVSPropertyOp18
 70
     1
102
RTVSPropertyOp19
 70
     1
102
RTVSPropertyOp20
 70
     1
102
RTVSPropertyOp21
 70
     1
102
RTVSPropertyOp22
 70
     1
102
RTVSPropertyOp23
 70
     1
102
RTVSPropertyOp24
 70
     1
102
RTVSPropertyOp25
 70
     1
102
RTVSPropertyOp26
 70
     1
102
RTVSPropertyOp27
 70
     1
102
RTVSPropertyOp28
 70
     1
102
RTVSPropertyOp29
 70
     1
102
RTVSPropertyOp30
 70
     1
102
RTVSPropertyOp31
 70
     1
102
RTVSPropertyOp32
 70
     1
  0
XRECORD
  5
80
102
{ACAD_REACTORS
330
7F
102
}
330
7F
100
AcDbXrecord
280
     1
102
RTVSPropertyOp0
 70
     1
102
RTVSPropertyOp1
 70
     1
102
RTVSPropertyOp2
 70
     1
102
RTVSPropertyOp3
 70
     1
102
RTVSPropertyOp4
 70
     1
102
RTVSPropertyOp5
 70
     1
102
RTVSPropertyOp6
 70
     1
102
RTVSPropertyOp7
 70
     1
102
RTVSPropertyOp8
 70
     1
102
RTVSPropertyOp9
 70
     1
102
RTVSPropertyOp10
 70
     1
102
RTVSPropertyOp11
 70
     1
102
RTVSPropertyOp12
 70
     1
102
RTVSPropertyOp13
 70
     1
102
RTVSPropertyOp14
 70
     1
102
RTVSPropertyOp15
 70
     1
102
RTVSPropertyOp16
 70
     1
102
RTVSPropertyOp17
 70
     1
102
RTVSPropertyOp18
 70
     1
102
RTVSPropertyOp19
 70
     1
102
RTVSPropertyOp20
 70
     1
102
RTVSPropertyOp21
 70
     1
102
RTVSPropertyOp22
 70
     1
102
RTVSPropertyOp23
 70
     1
102
RTVSPropertyOp24
 70
     1
102
RTVSPropertyOp25
 70
     1
102
RTVSPropertyOp26
 70
     1
102
RTVSPropertyOp27
 70
     1
102
RTVSPropertyOp28
 70
     1
102
RTVSPropertyOp29
 70
     1
102
RTVSPropertyOp30
 70
     1
102
RTVSPropertyOp31
 70
     1
102
RTVSPropertyOp32
 70
     1
  0
XRECORD
  5
94
102
{ACAD_REACTORS
330
93
102
}
330
93
100
AcDbXrecord
280
     1
102
RTVSPropertyOp0
 70
     1
102
RTVSPropertyOp1
 70
     1
102
RTVSPropertyOp2
 70
     1
102
RTVSPropertyOp3
 70
     1
102
RTVSPropertyOp4
 70
     1
102
RTVSPropertyOp5
 70
     1
102
RTVSPropertyOp6
 70
     1
102
RTVSPropertyOp7
 70
     1
102
RTVSPropertyOp8
 70
     1
102
RTVSPropertyOp9
 70
     1
102
RTVSPropertyOp10
 70
     1
102
RTVSPropertyOp11
 70
     1
102
RTVSPropertyOp12
 70
     1
102
RTVSPropertyOp13
 70
     1
102
RTVSPropertyOp14
 70
     1
102
RTVSPropertyOp15
 70
     1
102
RTVSPropertyOp16
 70
     1
102
RTVSPropertyOp17
 70
     1
102
RTVSPropertyOp18
 70
     1
102
RTVSPropertyOp19
 70
     1
102
RTVSPropertyOp20
 70
     1
102
RTVSPropertyOp21
 70
     1
102
RTVSPropertyOp22
 70
     1
102
RTVSPropertyOp23
 70
     1
102
RTVSPropertyOp24
 70
     1
102
RTVSPropertyOp25
 70
     1
102
RTVSPropertyOp26
 70
     1
102
RTVSPropertyOp27
 70
     1
102
RTVSPropertyOp28
 70
     1
102
RTVSPropertyOp29
 70
     1
102
RTVSPropertyOp30
 70
     1
102
RTVSPropertyOp31
 70
     1
102
RTVSPropertyOp32
 70
     1
  0
XRECORD
  5
8A
102
{ACAD_REACTORS
330
89
102
}
330
89
100
AcDbXrecord
280
     1
102
RTVSPropertyOp0
 70
     1
102
RTVSPropertyOp1
 70
     1
102
RTVSPropertyOp2
 70
     1
102
RTVSPropertyOp3
 70
     1
102
RTVSPropertyOp4
 70
     1
102
RTVSPropertyOp5
 70
     1
102
RTVSPropertyOp6
 70
     1
102
RTVSPropertyOp7
 70
     1
102
RTVSPropertyOp8
 70
     1
102
RTVSPropertyOp9
 70
     1
102
RTVSPropertyOp10
 70
     1
102
RTVSPropertyOp11
 70
     1
102
RTVSPropertyOp12
 70
     1
102
RTVSPropertyOp13
 70
     1
102
RTVSPropertyOp14
 70
     1
102
RTVSPropertyOp15
 70
     1
102
RTVSPropertyOp16
 70
     1
102
RTVSPropertyOp17
 70
     1
102
RTVSPropertyOp18
 70
     1
102
RTVSPropertyOp19
 70
     1
102
RTVSPropertyOp20
 70
     1
102
RTVSPropertyOp21
 70
     1
102
RTVSPropertyOp22
 70
     1
102
RTVSPropertyOp23
 70
     1
102
RTVSPropertyOp24
 70
     1
102
RTVSPropertyOp25
 70
     1
102
RTVSPropertyOp26
 70
     1
102
RTVSPropertyOp27
 70
     1
102
RTVSPropertyOp28
 70
     1
102
RTVSPropertyOp29
 70
     1
102
RTVSPropertyOp30
 70
     1
102
RTVSPropertyOp31
 70
     1
102
RTVSPropertyOp32
 70
     1
  0
XRECORD
  5
92
102
{ACAD_REACTORS
330
91
102
}
330
91
100
AcDbXrecord
280
     1
102
RTVSPropertyOp0
 70
     1
102
RTVSPropertyOp1
 70
     1
102
RTVSPropertyOp2
 70
     1
102
RTVSPropertyOp3
 70
     1
102
RTVSPropertyOp4
 70
     1
102
RTVSPropertyOp5
 70
     1
102
RTVSPropertyOp6
 70
     1
102
RTVSPropertyOp7
 70
     1
102
RTVSPropertyOp8
 70
     1
102
RTVSPropertyOp9
 70
     1
102
RTVSPropertyOp10
 70
     1
102
RTVSPropertyOp11
 70
     1
102
RTVSPropertyOp12
 70
     1
102
RTVSPropertyOp13
 70
     1
102
RTVSPropertyOp14
 70
     1
102
RTVSPropertyOp15
 70
     1
102
RTVSPropertyOp16
 70
     1
102
RTVSPropertyOp17
 70
     1
102
RTVSPropertyOp18
 70
     1
102
RTVSPropertyOp19
 70
     1
102
RTVSPropertyOp20
 70
     1
102
RTVSPropertyOp21
 70
     1
102
RTVSPropertyOp22
 70
     1
102
RTVSPropertyOp23
 70
     1
102
RTVSPropertyOp24
 70
     1
102
RTVSPropertyOp25
 70
     1
102
RTVSPropertyOp26
 70
     1
102
RTVSPropertyOp27
 70
     1
102
RTVSPropertyOp28
 70
     1
102
RTVSPropertyOp29
 70
     1
102
RTVSPropertyOp30
 70
     1
102
RTVSPropertyOp31
 70
     1
102
RTVSPropertyOp32
 70
     1
  0
ENDSEC
  0
EOF
