  0
SECTION
  2
HEADER
  9
$ACADVER
  1
AC1021
  9
$ACADMAINTVER
 70
    25
  9
$DWGCODEPAGE
  3
UNDEFINED
  9
$INSBASE
 10
0.0
 20
0.0
 30
0.0
  9
$EXTMIN
 10
1.000000000000000E+20
 20
1.000000000000000E+20
 30
1.000000000000000E+20
  9
$EXTMAX
 10
-1.000000000000000E+20
 20
-1.000000000000000E+20
 30
-1.000000000000000E+20
  9
$LIMMIN
 10
0.0
 20
0.0
  9
$LIMMAX
 10
12.0
 20
9.0
  9
$ORTHOMODE
 70
     0
  9
$REGENMODE
 70
     1
  9
$FILLMODE
 70
     1
  9
$QTEXTMODE
 70
     0
  9
$MIRRTEXT
 70
     1
  9
$LTSCALE
 40
1.0
  9
$ATTMODE
 70
     1
  9
$TEXTSIZE
 40
0.2
  9
$TRACEWID
 40
0.05
  9
$TEXTSTYLE
  7
Standard
  9
$CLAYER
  8
0
  9
$CELTYPE
  6
ByLayer
  9
$CECOLOR
 62
   256
  9
$CELTSCALE
 40
1.0
  9
$DISPSILH
 70
     0
  9
$DIMSCALE
 40
1.0
  9
$DIMASZ
 40
0.18
  9
$DIMEXO
 40
0.0625
  9
$DIMDLI
 40
0.38
  9
$DIMRND
 40
0.0
  9
$DIMDLE
 40
0.0
  9
$DIMEXE
 40
0.18
  9
$DIMTP
 40
0.0
  9
$DIMTM
 40
0.0
  9
$DIMTXT
 40
0.18
  9
$DIMCEN
 40
0.09
  9
$DIMTSZ
 40
0.0
  9
$DIMTOL
 70
     0
  9
$DIMLIM
 70
     0
  9
$DIMTIH
 70
     1
  9
$DIMTOH
 70
     1
  9
$DIMSE1
 70
     0
  9
$DIMSE2
 70
     0
  9
$DIMTAD
 70
     0
  9
$DIMZIN
 70
     0
  9
$DIMBLK
  1

  9
$DIMASO
 70
     1
  9
$DIMSHO
 70
     1
  9
$DIMPOST
  1

  9
$DIMAPOST
  1

  9
$DIMALT
 70
     0
  9
$DIMALTD
 70
     2
  9
$DIMALTF
 40
25.4
  9
$DIMLFAC
 40
1.0
  9
$DIMTOFL
 70
     0
  9
$DIMTVP
 40
0.0
  9
$DIMTIX
 70
     0
  9
$DIMSOXD
 70
     0
  9
$DIMSAH
 70
     0
  9
$DIMBLK1
  1

  9
$DIMBLK2
  1

  9
$DIMSTYLE
  2
Standard
  9
$DIMCLRD
 70
     0
  9
$DIMCLRE
 70
     0
  9
$DIMCLRT
 70
     0
  9
$DIMTFAC
 40
1.0
  9
$DIMGAP
 40
0.09
  9
$DIMJUST
 70
     0
  9
$DIMSD1
 70
     0
  9
$DIMSD2
 70
     0
  9
$DIMTOLJ
 70
     1
  9
$DIMTZIN
 70
     0
  9
$DIMALTZ
 70
     0
  9
$DIMALTTZ
 70
     0
  9
$DIMUPT
 70
     0
  9
$DIMDEC
 70
     4
  9
$DIMTDEC
 70
     4
  9
$DIMALTU
 70
     2
  9
$DIMALTTD
 70
     2
  9
$DIMTXSTY
  7
Standard
  9
$DIMAUNIT
 70
     0
  9
$DIMADEC
 70
     0
  9
$DIMALTRND
 40
0.0
  9
$DIMAZIN
 70
     0
  9
$DIMDSEP
 70
    46
  9
$DIMATFIT
 70
     3
  9
$DIMFRAC
 70
     0
  9
$DIMLDRBLK
  1

  9
$DIMLUNIT
 70
     2
  9
$DIMLWD
 70
    -2
  9
$DIMLWE
 70
    -2
  9
$DIMTMOVE
 70
     0
  9
$DIMFXL
 40
1.0
  9
$DIMFXLON
 70
     0
  9
$DIMJOGANG
 40
0.7853981633974483
  9
$DIMTFILL
 70
     0
  9
$DIMTFILLCLR
 70
     0
  9
$DIMARCSYM
 70
     0
  9
$DIMLTYPE
  6

  9
$DIMLTEX1
  6

  9
$DIMLTEX2
  6

  9
$LUNITS
 70
     2
  9
$LUPREC
 70
     4
  9
$SKETCHINC
 40
0.1
  9
$FILLETRAD
 40
0.5
  9
$AUNITS
 70
     0
  9
$AUPREC
 70
     0
  9
$MENU
  1
.
  9
$ELEVATION
 40
0.0
  9
$PELEVATION
 40
0.0
  9
$THICKNESS
 40
0.0
  9
$LIMCHECK
 70
     0
  9
$CHAMFERA
 40
0.5
  9
$CHAMFERB
 40
0.5
  9
$CHAMFERC
 40
1.0
  9
$CHAMFERD
 40
0.0
  9
$SKPOLY
 70
     0
  9
$TDCREATE
 40
2459906.439328692
  9
$TDUCREATE
 40
2459906.397662037
  9
$TDUPDATE
 40
2459906.439328692
  9
$TDUUPDATE
 40
2459906.397662037
  9
$TDINDWG
 40
0.0000000116
  9
$TDUSRTIMER
 40
0.0000000116
  9
$USRTIMER
 70
     1
  9
$ANGBASE
 50
0.0
  9
$ANGDIR
 70
     0
  9
$PDMODE
 70
     0
  9
$PDSIZE
 40
0.0
  9
$PLINEWID
 40
0.0
  9
$SPLFRAME
 70
     0
  9
$SPLINETYPE
 70
     6
  9
$SPLINESEGS
 70
     8
  9
$HANDSEED
  5
15B
  9
$SURFTAB1
 70
     6
  9
$SURFTAB2
 70
     6
  9
$SURFTYPE
 70
     6
  9
$SURFU
 70
     6
  9
$SURFV
 70
     6
  9
$UCSBASE
  2

  9
$UCSNAME
  2

  9
$UCSORG
 10
0.0
 20
0.0
 30
0.0
  9
$UCSXDIR
 10
1.0
 20
0.0
 30
0.0
  9
$UCSYDIR
 10
0.0
 20
1.0
 30
0.0
  9
$UCSORTHOREF
  2

  9
$UCSORTHOVIEW
 70
     0
  9
$UCSORGTOP
 10
0.0
 20
0.0
 30
0.0
  9
$UCSORGBOTTOM
 10
0.0
 20
0.0
 30
0.0
  9
$UCSORGLEFT
 10
0.0
 20
0.0
 30
0.0
  9
$UCSORGRIGHT
 10
0.0
 20
0.0
 30
0.0
  9
$UCSORGFRONT
 10
0.0
 20
0.0
 30
0.0
  9
$UCSORGBACK
 10
0.0
 20
0.0
 30
0.0
  9
$PUCSBASE
  2

  9
$PUCSNAME
  2

  9
$PUCSORG
 10
0.0
 20
0.0
 30
0.0
  9
$PUCSXDIR
 10
1.0
 20
0.0
 30
0.0
  9
$PUCSYDIR
 10
0.0
 20
1.0
 30
0.0
  9
$PUCSORTHOREF
  2

  9
$PUCSORTHOVIEW
 70
     0
  9
$PUCSORGTOP
 10
0.0
 20
0.0
 30
0.0
  9
$PUCSORGBOTTOM
 10
0.0
 20
0.0
 30
0.0
  9
$PUCSORGLEFT
 10
0.0
 20
0.0
 30
0.0
  9
$PUCSORGRIGHT
 10
0.0
 20
0.0
 30
0.0
  9
$PUCSORGFRONT
 10
0.0
 20
0.0
 30
0.0
  9
$PUCSORGBACK
 10
0.0
 20
0.0
 30
0.0
  9
$USERI1
 70
     0
  9
$USERI2
 70
     0
  9
$USERI3
 70
     0
  9
$USERI4
 70
     0
  9
$USERI5
 70
     0
  9
$USERR1
 40
0.0
  9
$USERR2
 40
0.0
  9
$USERR3
 40
0.0
  9
$USERR4
 40
0.0
  9
$USERR5
 40
0.0
  9
$WORLDVIEW
 70
     1
  9
$SHADEDGE
 70
     3
  9
$SHADEDIF
 70
    70
  9
$TILEMODE
 70
     1
  9
$MAXACTVP
 70
    64
  9
$PINSBASE
 10
0.0
 20
0.0
 30
0.0
  9
$PLIMCHECK
 70
     0
  9
$PEXTMIN
 10
1.000000000000000E+20
 20
1.000000000000000E+20
 30
1.000000000000000E+20
  9
$PEXTMAX
 10
-1.000000000000000E+20
 20
-1.000000000000000E+20
 30
-1.000000000000000E+20
  9
$PLIMMIN
 10
0.0
 20
0.0
  9
$PLIMMAX
 10
12.0
 20
9.0
  9
$UNITMODE
 70
     0
  9
$VISRETAIN
 70
     1
  9
$PLINEGEN
 70
     0
  9
$PSLTSCALE
 70
     1
  9
$TREEDEPTH
 70
  3020
  9
$CMLSTYLE
  2
Standard
  9
$CMLJUST
 70
     0
  9
$CMLSCALE
 40
1.0
  9
$PROXYGRAPHICS
 70
     1
  9
$MEASUREMENT
 70
     0
  9
$CELWEIGHT
370
    -1
  9
$ENDCAPS
280
     0
  9
$JOINSTYLE
280
     0
  9
$LWDISPLAY
290
     1
  9
$INSUNITS
 70
     1
  9
$HYPERLINKBASE
  1

  9
$STYLESHEET
  1

  9
$XEDIT
290
     1
  9
$CEPSNTYPE
380
     0
  9
$PSTYLEMODE
290
     1
  9
$FINGERPRINTGUID
  2
{AB202548-A983-0EE8-5490-40D45A28B256}
  9
$VERSIONGUID
  2
{FAEB1C32-E019-11D5-929B-00C0DF256EC4}
  9
$EXTNAMES
290
     1
  9
$PSVPSCALE
 40
0.0
  9
$OLESTARTUP
290
     0
  9
$SORTENTS
280
   127
  9
$INDEXCTL
280
     0
  9
$HIDETEXT
280
     1
  9
$XCLIPFRAME
290
     0
  9
$HALOGAP
280
     0
  9
$OBSCOLOR
 70
   257
  9
$OBSLTYPE
280
     0
  9
$INTERSECTIONDISPLAY
280
     0
  9
$INTERSECTIONCOLOR
 70
   257
  9
$DIMASSOC
280
     2
  9
$PROJECTNAME
  1

  9
$CAMERADISPLAY
290
     0
  9
$LENSLENGTH
 40
50.0
  9
$CAMERAHEIGHT
 40
0.0
  9
$STEPSPERSEC
 40
2.0
  9
$STEPSIZE
 40
6.0
  9
$3DDWFPREC
 40
2.0
  9
$PSOLWIDTH
 40
0.25
  9
$PSOLHEIGHT
 40
4.0
  9
$LOFTANG1
 40
1.570796326794897
  9
$LOFTANG2
 40
1.570796326794897
  9
$LOFTMAG1
 40
0.0
  9
$LOFTMAG2
 40
0.0
  9
$LOFTPARAM
 70
     7
  9
$LOFTNORMALS
280
     1
  9
$LATITUDE
 40
37.795
  9
$LONGITUDE
 40
-122.394
  9
$NORTHDIRECTION
 40
0.0
  9
$TIMEZONE
 70
 -8000
  9
$LIGHTGLYPHDISPLAY
280
     1
  9
$TILEMODELIGHTSYNCH
280
     1
  9
$CMATERIAL
347
3C
  9
$SOLIDHIST
280
     1
  9
$SHOWHIST
280
     1
  9
$DWFFRAME
280
     2
  9
$DGNFRAME
280
     2
  9
$REALWORLDSCALE
290
     1
  9
$INTERFERECOLOR
 62
   256
  9
$CSHADOW
280
     0
  9
$SHADOWPLANELOCATION
 40
0.0
  0
ENDSEC
  0
SECTION
  2
CLASSES
  0
CLASS
  1
ACDBDICTIONARYWDFLT
  2
AcDbDictionaryWithDefault
  3
ObjectDBX Classes
 90
        0
 91
        4
280
     0
281
     0
  0
CLASS
  1
VISUALSTYLE
  2
AcDbVisualStyle
  3
ObjectDBX Classes
 90
     4095
 91
        4
280
     0
281
     0
  0
CLASS
  1
MATERIAL
  2
AcDbMaterial
  3
ObjectDBX Classes
 90
     1153
 91
        4
280
     0
281
     0
  0
CLASS
  1
SUN
  2
AcDbSun
  3
SCENEOE
 90
     1024
 91
        4
280
     0
281
     0
  0
ENDSEC
  0
SECTION
  2
TABLES
  0
TABLE
  2
VPORT
  5
8
330
0
100
AcDbSymbolTable
 70
     1
  0
VPORT
  5
29
330
8
100
AcDbSymbolTableRecord
100
AcDbViewportTableRecord
  2
*Active
 70
     0
 10
0.0
 20
0.0
 11
1.0
 21
1.0
 12
0.0
 22
0.0
 13
0.0
 23
0.0
 14
0.5
 24
0.5
 15
0.5
 25
0.5
 16
0.0
 26
0.0
 36
1.0
 17
105.0007777515277
 27
148.5000416295417
 37
0.0
 40
297.0000832590835
 41
0.7070757462376325
 42
50.0
 43
0.0
 44
0.0
 50
0.0
 51
0.0
 71
     0
 72
   100
 73
     1
 74
     3
 75
     0
 76
     0
 77
     0
 78
     0
281
     0
 65
     1
110
0.0
120
0.0
130
0.0
111
1.0
121
0.0
131
0.0
112
0.0
122
1.0
132
0.0
 79
     0
146
0.0
 60
     3
 61
     5
292
     1
282
     1
141
0.0
142
0.0
 63
   250
361
3F
  0
ENDTAB
  0
TABLE
  2
LTYPE
  5
5
330
0
100
AcDbSymbolTable
 70
     5
  0
LTYPE
  5
14
330
5
100
AcDbSymbolTableRecord
100
AcDbLinetypeTableRecord
  2
ByBlock
 70
     0
  3

 72
    65
 73
     0
 40
0.0
  0
LTYPE
  5
15
330
5
100
AcDbSymbolTableRecord
100
AcDbLinetypeTableRecord
  2
ByLayer
 70
     0
  3

 72
    65
 73
     0
 40
0.0
  0
LTYPE
  5
16
330
5
100
AcDbSymbolTableRecord
100
AcDbLinetypeTableRecord
  2
Continuous
 70
     0
  3
Solid line
 72
    65
 73
     0
 40
0.0
  0
LTYPE
  5
104
330
5
100
AcDbSymbolTableRecord
100
AcDbLinetypeTableRecord
  2
AI-Linetype-1
 70
     0
  3
Adobe Illustrator Linetype No. 1
 72
    65
 73
     2
 40
7.148193633093865
 49
3.574096816546933
 74
     0
 49
-3.574096816546933
 74
     0
  0
LTYPE
  5
10D
330
5
100
AcDbSymbolTableRecord
100
AcDbLinetypeTableRecord
  2
AI-Linetype-2
 70
     0
  3
Adobe Illustrator Linetype No. 2
 72
    65
 73
     4
 40
32.167028800552
 49
21.44473835091119
 74
     0
 49
-3.574096816546933
 74
     0
 49
3.574096816546933
 74
     0
 49
-3.574096816546933
 74
     0
  0
LTYPE
  5
126
330
5
100
AcDbSymbolTableRecord
100
AcDbLinetypeTableRecord
  2
AI-Linetype-3
 70
     0
  3
Adobe Illustrator Linetype No. 3
 72
    65
 73
     2
 40
7.148178829949202
 49
3.574089414974601
 74
     0
 49
-3.574089414974601
 74
     0
  0
LTYPE
  5
12F
330
5
100
AcDbSymbolTableRecord
100
AcDbLinetypeTableRecord
  2
AI-Linetype-4
 70
     0
  3
Adobe Illustrator Linetype No. 4
 72
    65
 73
     4
 40
32.16696353214144
 49
21.44469528721763
 74
     0
 49
-3.574089414974601
 74
     0
 49
3.574089414974601
 74
     0
 49
-3.574089414974601
 74
     0
  0
ENDTAB
  0
TABLE
  2
LAYER
  5
2
330
0
100
AcDbSymbolTable
 70
     1
  0
LAYER
  5
10
330
2
100
AcDbSymbolTableRecord
100
AcDbLayerTableRecord
  2
0
 70
     0
 62
     7
  6
Continuous
370
    -3
390
F
347
3E
  0
ENDTAB
  0
TABLE
  2
STYLE
  5
3
330
0
100
AcDbSymbolTable
 70
     1
  0
STYLE
  5
11
330
3
100
AcDbSymbolTableRecord
100
AcDbTextStyleTableRecord
  2
Standard
 70
     0
 40
0.0
 41
1.0
 50
0.0
 71
     0
 42
0.2
  3
txt
  4

  0
ENDTAB
  0
TABLE
  2
VIEW
  5
6
330
0
100
AcDbSymbolTable
 70
     0
  0
ENDTAB
  0
TABLE
  2
UCS
  5
7
330
0
100
AcDbSymbolTable
 70
     0
  0
ENDTAB
  0
TABLE
  2
APPID
  5
9
330
0
100
AcDbSymbolTable
 70
     1
  0
APPID
  5
12
330
9
100
AcDbSymbolTableRecord
100
AcDbRegAppTableRecord
  2
ACAD
 70
     0
  0
ENDTAB
  0
TABLE
  2
DIMSTYLE
  5
A
330
0
100
AcDbSymbolTable
 70
     1
100
AcDbDimStyleTable
  0
DIMSTYLE
105
27
330
A
100
AcDbSymbolTableRecord
100
AcDbDimStyleTableRecord
  2
Standard
 70
     0
178
     0
340
11
  0
ENDTAB
  0
TABLE
  2
BLOCK_RECORD
  5
1
330
0
100
AcDbSymbolTable
 70
    41
  0
BLOCK_RECORD
  5
1F
330
1
100
AcDbSymbolTableRecord
100
AcDbBlockTableRecord
  2
*Model_Space
340
22
 70
     0
280
     1
281
     0
  0
BLOCK_RECORD
  5
1B
330
1
100
AcDbSymbolTableRecord
100
AcDbBlockTableRecord
  2
*Paper_Space
340
1E
 70
     0
280
     1
281
     0
  0
BLOCK_RECORD
  5
23
330
1
100
AcDbSymbolTableRecord
100
AcDbBlockTableRecord
  2
*Paper_Space0
340
26
 70
     0
280
     1
281
     0
  0
BLOCK_RECORD
  5
40
330
1
100
AcDbSymbolTableRecord
100
AcDbBlockTableRecord
  2
block 2
340
0
102
{BLKREFS
331
41
102
}
 70
     0
280
     1
281
     0
  0
BLOCK_RECORD
  5
45
330
1
100
AcDbSymbolTableRecord
100
AcDbBlockTableRecord
  2
block 3
340
0
102
{BLKREFS
331
46
102
}
 70
     0
280
     1
281
     0
  0
BLOCK_RECORD
  5
4A
330
1
100
AcDbSymbolTableRecord
100
AcDbBlockTableRecord
  2
block 4
340
0
102
{BLKREFS
331
4B
102
}
 70
     0
280
     1
281
     0
  0
BLOCK_RECORD
  5
4F
330
1
100
AcDbSymbolTableRecord
100
AcDbBlockTableRecord
  2
block 5
340
0
102
{BLKREFS
331
50
102
}
 70
     0
280
     1
281
     0
  0
BLOCK_RECORD
  5
57
330
1
100
AcDbSymbolTableRecord
100
AcDbBlockTableRecord
  2
block 6
340
0
102
{BLKREFS
331
58
102
}
 70
     0
280
     1
281
     0
  0
BLOCK_RECORD
  5
5C
330
1
100
AcDbSymbolTableRecord
100
AcDbBlockTableRecord
  2
block 7
340
0
102
{BLKREFS
331
5D
102
}
 70
     0
280
     1
281
     0
  0
BLOCK_RECORD
  5
64
330
1
100
AcDbSymbolTableRecord
100
AcDbBlockTableRecord
  2
block 8
340
0
102
{BLKREFS
331
65
102
}
 70
     0
280
     1
281
     0
  0
BLOCK_RECORD
  5
69
330
1
100
AcDbSymbolTableRecord
100
AcDbBlockTableRecord
  2
block 9
340
0
102
{BLKREFS
331
6A
102
}
 70
     0
280
     1
281
     0
  0
BLOCK_RECORD
  5
71
330
1
100
AcDbSymbolTableRecord
100
AcDbBlockTableRecord
  2
block 10
340
0
102
{BLKREFS
331
72
102
}
 70
     0
280
     1
281
     0
  0
BLOCK_RECORD
  5
76
330
1
100
AcDbSymbolTableRecord
100
AcDbBlockTableRecord
  2
block 11
340
0
102
{BLKREFS
331
77
102
}
 70
     0
280
     1
281
     0
  0
BLOCK_RECORD
  5
7E
330
1
100
AcDbSymbolTableRecord
100
AcDbBlockTableRecord
  2
block 12
340
0
102
{BLKREFS
331
7F
102
}
 70
     0
280
     1
281
     0
  0
BLOCK_RECORD
  5
83
330
1
100
AcDbSymbolTableRecord
100
AcDbBlockTableRecord
  2
block 13
340
0
102
{BLKREFS
331
84
102
}
 70
     0
280
     1
281
     0
  0
BLOCK_RECORD
  5
88
330
1
100
AcDbSymbolTableRecord
100
AcDbBlockTableRecord
  2
block 14
340
0
102
{BLKREFS
331
89
102
}
 70
     0
280
     1
281
     0
  0
BLOCK_RECORD
  5
8D
330
1
100
AcDbSymbolTableRecord
100
AcDbBlockTableRecord
  2
block 15
340
0
102
{BLKREFS
331
8E
102
}
 70
     0
280
     1
281
     0
  0
BLOCK_RECORD
  5
92
330
1
100
AcDbSymbolTableRecord
100
AcDbBlockTableRecord
  2
block 16
340
0
102
{BLKREFS
331
93
102
}
 70
     0
280
     1
281
     0
  0
BLOCK_RECORD
  5
97
330
1
100
AcDbSymbolTableRecord
100
AcDbBlockTableRecord
  2
block 17
340
0
102
{BLKREFS
331
98
102
}
 70
     0
280
     1
281
     0
  0
BLOCK_RECORD
  5
9C
330
1
100
AcDbSymbolTableRecord
100
AcDbBlockTableRecord
  2
block 18
340
0
102
{BLKREFS
331
9D
102
}
 70
     0
280
     1
281
     0
  0
BLOCK_RECORD
  5
A1
330
1
100
AcDbSymbolTableRecord
100
AcDbBlockTableRecord
  2
block 19
340
0
102
{BLKREFS
331
A2
102
}
 70
     0
280
     1
281
     0
  0
BLOCK_RECORD
  5
A6
330
1
100
AcDbSymbolTableRecord
100
AcDbBlockTableRecord
  2
block 20
340
0
102
{BLKREFS
331
A7
102
}
 70
     0
280
     1
281
     0
  0
BLOCK_RECORD
  5
AB
330
1
100
AcDbSymbolTableRecord
100
AcDbBlockTableRecord
  2
block 21
340
0
102
{BLKREFS
331
AC
102
}
 70
     0
280
     1
281
     0
  0
BLOCK_RECORD
  5
B0
330
1
100
AcDbSymbolTableRecord
100
AcDbBlockTableRecord
  2
block 22
340
0
102
{BLKREFS
331
B1
102
}
 70
     0
280
     1
281
     0
  0
BLOCK_RECORD
  5
B5
330
1
100
AcDbSymbolTableRecord
100
AcDbBlockTableRecord
  2
block 23
340
0
102
{BLKREFS
331
B6
102
}
 70
     0
280
     1
281
     0
  0
BLOCK_RECORD
  5
BA
330
1
100
AcDbSymbolTableRecord
100
AcDbBlockTableRecord
  2
block 24
340
0
102
{BLKREFS
331
BB
102
}
 70
     0
280
     1
281
     0
  0
BLOCK_RECORD
  5
BF
330
1
100
AcDbSymbolTableRecord
100
AcDbBlockTableRecord
  2
block 25
340
0
102
{BLKREFS
331
C0
102
}
 70
     0
280
     1
281
     0
  0
BLOCK_RECORD
  5
C4
330
1
100
AcDbSymbolTableRecord
100
AcDbBlockTableRecord
  2
block 26
340
0
102
{BLKREFS
331
C5
102
}
 70
     0
280
     1
281
     0
  0
BLOCK_RECORD
  5
CC
330
1
100
AcDbSymbolTableRecord
100
AcDbBlockTableRecord
  2
block 27
340
0
102
{BLKREFS
331
CD
102
}
 70
     0
280
     1
281
     0
  0
BLOCK_RECORD
  5
D4
330
1
100
AcDbSymbolTableRecord
100
AcDbBlockTableRecord
  2
block 28
340
0
102
{BLKREFS
331
D5
102
}
 70
     0
280
     1
281
     0
  0
BLOCK_RECORD
  5
D9
330
1
100
AcDbSymbolTableRecord
100
AcDbBlockTableRecord
  2
block 29
340
0
102
{BLKREFS
331
DA
102
}
 70
     0
280
     1
281
     0
  0
BLOCK_RECORD
  5
E1
330
1
100
AcDbSymbolTableRecord
100
AcDbBlockTableRecord
  2
block 30
340
0
102
{BLKREFS
331
E2
102
}
 70
     0
280
     1
281
     0
  0
BLOCK_RECORD
  5
E6
330
1
100
AcDbSymbolTableRecord
100
AcDbBlockTableRecord
  2
block 31
340
0
102
{BLKREFS
331
E7
102
}
 70
     0
280
     1
281
     0
  0
BLOCK_RECORD
  5
EB
330
1
100
AcDbSymbolTableRecord
100
AcDbBlockTableRecord
  2
block 32
340
0
102
{BLKREFS
331
EC
102
}
 70
     0
280
     1
281
     0
  0
BLOCK_RECORD
  5
F0
330
1
100
AcDbSymbolTableRecord
100
AcDbBlockTableRecord
  2
block 33
340
0
102
{BLKREFS
331
F1
102
}
 70
     0
280
     1
281
     0
  0
BLOCK_RECORD
  5
F5
330
1
100
AcDbSymbolTableRecord
100
AcDbBlockTableRecord
  2
block 34
340
0
102
{BLKREFS
331
F6
102
}
 70
     0
280
     1
281
     0
  0
BLOCK_RECORD
  5
FD
330
1
100
AcDbSymbolTableRecord
100
AcDbBlockTableRecord
  2
block 35
340
0
102
{BLKREFS
331
FE
102
}
 70
     0
280
     1
281
     0
  0
BLOCK_RECORD
  5
106
330
1
100
AcDbSymbolTableRecord
100
AcDbBlockTableRecord
  2
block 36
340
0
102
{BLKREFS
331
107
102
}
 70
     0
280
     1
281
     0
  0
BLOCK_RECORD
  5
10F
330
1
100
AcDbSymbolTableRecord
100
AcDbBlockTableRecord
  2
block 37
340
0
102
{BLKREFS
331
110
102
}
 70
     0
280
     1
281
     0
  0
BLOCK_RECORD
  5
117
330
1
100
AcDbSymbolTableRecord
100
AcDbBlockTableRecord
  2
block 38
340
0
102
{BLKREFS
331
118
102
}
 70
     0
280
     1
281
     0
  0
BLOCK_RECORD
  5
11F
330
1
100
AcDbSymbolTableRecord
100
AcDbBlockTableRecord
  2
block 39
340
0
102
{BLKREFS
331
120
102
}
 70
     0
280
     1
281
     0
  0
BLOCK_RECORD
  5
128
330
1
100
AcDbSymbolTableRecord
100
AcDbBlockTableRecord
  2
block 40
340
0
102
{BLKREFS
331
129
102
}
 70
     0
280
     1
281
     0
  0
BLOCK_RECORD
  5
131
330
1
100
AcDbSymbolTableRecord
100
AcDbBlockTableRecord
  2
block 41
340
0
102
{BLKREFS
331
132
102
}
 70
     0
280
     1
281
     0
  0
ENDTAB
  0
ENDSEC
  0
SECTION
  2
BLOCKS
  0
BLOCK
  5
20
330
1F
100
AcDbEntity
  8
0
100
AcDbBlockBegin
  2
*Model_Space
 70
     0
 10
0.0
 20
0.0
 30
0.0
  3
*Model_Space
  1

  0
ENDBLK
  5
21
330
1F
100
AcDbEntity
  8
0
100
AcDbBlockEnd
  0
BLOCK
  5
1C
330
1B
100
AcDbEntity
 67
     1
  8
0
100
AcDbBlockBegin
  2
*Paper_Space
 70
     0
 10
0.0
 20
0.0
 30
0.0
  3
*Paper_Space
  1

  0
ENDBLK
  5
1D
330
1B
100
AcDbEntity
 67
     1
  8
0
100
AcDbBlockEnd
  0
BLOCK
  5
24
330
23
100
AcDbEntity
  8
0
100
AcDbBlockBegin
  2
*Paper_Space0
 70
     0
 10
0.0
 20
0.0
 30
0.0
  3
*Paper_Space0
  1

  0
ENDBLK
  5
25
330
23
100
AcDbEntity
  8
0
100
AcDbBlockEnd
  0
BLOCK
  5
42
330
40
100
AcDbEntity
  8
0
100
AcDbBlockBegin
  2
block 2
 70
     0
 10
0.0
 20
0.0
 30
0.0
  3
block 2
  1

  0
SPLINE
  5
44
330
40
100
AcDbEntity
  8
0
 62
   250
370
    25
100
AcDbSpline
210
0.0
220
0.0
230
1.0
 70
     8
 71
     3
 72
    35
 73
    31
 74
     0
 42
0.0000000001
 43
0.0000000001
 12
1.0
 22
0.0
 32
0.0
 13
1.0
 23
0.0
 33
0.0
 40
0.0
 40
0.0
 40
0.0
 40
0.0
 40
1.0
 40
1.0
 40
1.0
 40
2.0
 40
2.0
 40
2.0
 40
3.0
 40
3.0
 40
3.0
 40
4.0
 40
4.0
 40
4.0
 40
5.0
 40
5.0
 40
5.0
 40
6.0
 40
6.0
 40
6.0
 40
7.0
 40
7.0
 40
7.0
 40
8.0
 40
8.0
 40
8.0
 40
9.0
 40
9.0
 40
9.0
 40
10.0
 40
10.0
 40
10.0
 40
10.0
 10
843.7960490391828
 20
122.5194321971369
 30
0.0
 10
843.7140987627303
 20
122.5168569194787
 30
0.0
 10
843.6394509861619
 20
122.5537574734858
 30
0.0
 10
843.5747868205405
 20
122.6012060826542
 30
0.0
 10
843.4598871001625
 20
122.6855199680458
 30
0.0
 10
843.376560990406
 20
122.8031360742934
 30
0.0
 10
843.3043826582339
 20
122.9260085692111
 30
0.0
 10
843.1978084932773
 20
123.1074068950366
 30
0.0
 10
843.1153996057183
 20
123.3002704981697
 30
0.0
 10
843.0427626624531
 20
123.496732434473
 30
0.0
 10
842.9446198862474
 20
123.7621271457149
 30
0.0
 10
842.864327665319
 20
124.0340482455637
 30
0.0
 10
842.792466833153
 20
124.3079801786843
 30
0.0
 10
842.7016971123873
 20
124.6539493310303
 30
0.0
 10
842.6244387802992
 20
125.0030934832389
 30
0.0
 10
842.5548710036468
 20
125.3537898576191
 30
0.0
 10
842.4712979494392
 20
125.7751123401908
 30
0.0
 10
842.3988021172727
 20
126.1986926004455
 30
0.0
 10
842.3326562850095
 20
126.6231548050881
 30
0.0
 10
842.1694260098618
 20
127.670305039529
 30
0.0
 10
842.0446485118753
 20
128.7229586070774
 30
0.0
 10
841.9383212913705
 20
129.7773407856549
 30
0.0
 10
841.8081815712459
 20
131.0674137878207
 30
0.0
 10
841.7056643506676
 20
132.360062067671
 30
0.0
 10
841.6199746298294
 20
133.653803958575
 30
0.0
 10
841.5218671314199
 20
135.1347297306097
 30
0.0
 10
841.4458435215238
 20
136.6170666137055
 30
0.0
 10
841.38520102251
 20
138.0999679412326
 30
0.0
 10
841.2433138025723
 20
141.5711247420159
 30
0.0
 10
841.1859521368249
 20
145.0454918204578
 30
0.0
 10
841.1842588035155
 20
148.5194355655662
 30
0.0
  0
ENDBLK
  5
43
330
40
100
AcDbEntity
  8
0
100
AcDbBlockEnd
  0
BLOCK
  5
47
330
45
100
AcDbEntity
  8
0
100
AcDbBlockBegin
  2
block 3
 70
     0
 10
0.0
 20
0.0
 30
0.0
  3
block 3
  1

  0
SPLINE
  5
49
330
45
100
AcDbEntity
  8
0
 62
   250
370
    25
100
AcDbSpline
210
0.0
220
0.0
230
1.0
 70
     8
 71
     3
 72
    14
 73
    10
 74
     0
 42
0.0000000001
 43
0.0000000001
 12
1.0
 22
0.0
 32
0.0
 13
1.0
 23
0.0
 33
0.0
 40
0.0
 40
0.0
 40
0.0
 40
0.0
 40
1.0
 40
1.0
 40
1.0
 40
2.0
 40
2.0
 40
2.0
 40
3.0
 40
3.0
 40
3.0
 40
3.0
 10
843.7960490391828
 20
174.5194484325649
 30
0.0
 10
844.3777443075844
 20
174.5194484325649
 30
0.0
 10
844.6964437468891
 20
173.2768945637114
 30
0.0
 10
844.8060165229149
 20
172.9317720692679
 30
0.0
 10
845.0047009641423
 20
172.3057326349261
 30
0.0
 10
845.1520915173276
 20
171.6699565340688
 30
0.0
 10
845.2843126263116
 20
171.0278657110862
 30
0.0
 10
845.5488606775912
 20
169.7432254540152
 30
0.0
 10
845.7403837300579
 20
168.4502243637503
 30
0.0
 10
845.9052720607433
 20
167.1502382735944
 30
0.0
  0
ENDBLK
  5
48
330
45
100
AcDbEntity
  8
0
100
AcDbBlockEnd
  0
BLOCK
  5
4C
330
4A
100
AcDbEntity
  8
0
100
AcDbBlockBegin
  2
block 4
 70
     0
 10
0.0
 20
0.0
 30
0.0
  3
block 4
  1

  0
SPLINE
  5
4E
330
4A
100
AcDbEntity
  8
0
 62
   250
370
    25
100
AcDbSpline
210
0.0
220
0.0
230
1.0
 70
     8
 71
     3
 72
     8
 73
     4
 74
     0
 42
0.0000000001
 43
0.0000000001
 12
1.0
 22
0.0
 32
0.0
 13
1.0
 23
0.0
 33
0.0
 40
0.0
 40
0.0
 40
0.0
 40
0.0
 40
1.0
 40
1.0
 40
1.0
 40
1.0
 10
845.9052720607433
 20
167.1502382735944
 30
0.0
 10
846.6920723258302
 20
160.947981706926
 30
0.0
 10
846.9031039890997
 20
154.7564143067625
 30
0.0
 10
846.9029628779883
 20
148.5194355655662
 30
0.0
  0
ENDBLK
  5
4D
330
4A
100
AcDbEntity
  8
0
100
AcDbBlockEnd
  0
BLOCK
  5
51
330
4F
100
AcDbEntity
  8
0
100
AcDbBlockBegin
  2
block 5
 70
     0
 10
0.0
 20
0.0
 30
0.0
  3
block 5
  1

  0
POLYLINE
  5
53
330
4F
100
AcDbEntity
  8
0
 62
   250
370
    25
100
AcDb2dPolyline
 66
     1
 10
0.0
 20
0.0
 30
0.0
  0
VERTEX
  5
54
330
53
100
AcDbEntity
  8
0
 62
   250
370
    25
100
AcDbVertex
100
AcDb2dVertex
 10
895.3041437642764
 20
-201.4805555051854
 30
0.0
  0
VERTEX
  5
55
330
53
100
AcDbEntity
  8
0
 62
   250
370
    25
100
AcDbVertex
100
AcDb2dVertex
 10
-684.6958104835949
 20
-201.4805555051854
 30
0.0
  0
SEQEND
  5
56
330
53
100
AcDbEntity
  8
0
 62
   250
370
    25
  0
ENDBLK
  5
52
330
4F
100
AcDbEntity
  8
0
100
AcDbBlockEnd
  0
BLOCK
  5
59
330
57
100
AcDbEntity
  8
0
100
AcDbBlockBegin
  2
block 6
 70
     0
 10
0.0
 20
0.0
 30
0.0
  3
block 6
  1

  0
SPLINE
  5
5B
330
57
100
AcDbEntity
  8
0
 62
   250
370
    25
100
AcDbSpline
210
0.0
220
0.0
230
1.0
 70
     8
 71
     3
 72
     8
 73
     4
 74
     0
 42
0.0000000001
 43
0.0000000001
 12
1.0
 22
0.0
 32
0.0
 13
1.0
 23
0.0
 33
0.0
 40
0.0
 40
0.0
 40
0.0
 40
0.0
 40
1.0
 40
1.0
 40
1.0
 40
1.0
 10
905.3041588808286
 20
-191.4805403886333
 30
0.0
 10
905.3041588808286
 20
-197.0034175218244
 30
0.0
 10
900.8270208974541
 20
-201.4805555051854
 30
0.0
 10
895.3041437642764
 20
-201.4805555051854
 30
0.0
  0
ENDBLK
  5
5A
330
57
100
AcDbEntity
  8
0
100
AcDbBlockEnd
  0
BLOCK
  5
5E
330
5C
100
AcDbEntity
  8
0
100
AcDbBlockBegin
  2
block 7
 70
     0
 10
0.0
 20
0.0
 30
0.0
  3
block 7
  1

  0
POLYLINE
  5
60
330
5C
100
AcDbEntity
  8
0
 62
   250
370
    25
100
AcDb2dPolyline
 66
     1
 10
0.0
 20
0.0
 30
0.0
  0
VERTEX
  5
61
330
60
100
AcDbEntity
  8
0
 62
   250
370
    25
100
AcDbVertex
100
AcDb2dVertex
 10
905.3041588808286
 20
488.5194292032689
 30
0.0
  0
VERTEX
  5
62
330
60
100
AcDbEntity
  8
0
 62
   250
370
    25
100
AcDbVertex
100
AcDb2dVertex
 10
905.3041588808286
 20
-191.4805403886333
 30
0.0
  0
SEQEND
  5
63
330
60
100
AcDbEntity
  8
0
 62
   250
370
    25
  0
ENDBLK
  5
5F
330
5C
100
AcDbEntity
  8
0
100
AcDbBlockEnd
  0
BLOCK
  5
66
330
64
100
AcDbEntity
  8
0
100
AcDbBlockBegin
  2
block 8
 70
     0
 10
0.0
 20
0.0
 30
0.0
  3
block 8
  1

  0
SPLINE
  5
68
330
64
100
AcDbEntity
  8
0
 62
   250
370
    25
100
AcDbSpline
210
0.0
220
0.0
230
1.0
 70
     8
 71
     3
 72
     8
 73
     4
 74
     0
 42
0.0000000001
 43
0.0000000001
 12
1.0
 22
0.0
 32
0.0
 13
1.0
 23
0.0
 33
0.0
 40
0.0
 40
0.0
 40
0.0
 40
0.0
 40
1.0
 40
1.0
 40
1.0
 40
1.0
 10
895.3041437642764
 20
498.5194443198146
 30
0.0
 10
900.8270208974541
 20
498.5194443198146
 30
0.0
 10
905.3041588808286
 20
494.0422710586757
 30
0.0
 10
905.3041588808286
 20
488.5194292032689
 30
0.0
  0
ENDBLK
  5
67
330
64
100
AcDbEntity
  8
0
100
AcDbBlockEnd
  0
BLOCK
  5
6B
330
69
100
AcDbEntity
  8
0
100
AcDbBlockBegin
  2
block 9
 70
     0
 10
0.0
 20
0.0
 30
0.0
  3
block 9
  1

  0
POLYLINE
  5
6D
330
69
100
AcDbEntity
  8
0
 62
   250
370
    25
100
AcDb2dPolyline
 66
     1
 10
0.0
 20
0.0
 30
0.0
  0
VERTEX
  5
6E
330
6D
100
AcDbEntity
  8
0
 62
   250
370
    25
100
AcDbVertex
100
AcDb2dVertex
 10
-684.6958104835952
 20
498.5194443198146
 30
0.0
  0
VERTEX
  5
6F
330
6D
100
AcDbEntity
  8
0
 62
   250
370
    25
100
AcDbVertex
100
AcDb2dVertex
 10
895.3041437642759
 20
498.5194443198146
 30
0.0
  0
SEQEND
  5
70
330
6D
100
AcDbEntity
  8
0
 62
   250
370
    25
  0
ENDBLK
  5
6C
330
69
100
AcDbEntity
  8
0
100
AcDbBlockEnd
  0
BLOCK
  5
73
330
71
100
AcDbEntity
  8
0
100
AcDbBlockBegin
  2
block 10
 70
     0
 10
0.0
 20
0.0
 30
0.0
  3
block 10
  1

  0
SPLINE
  5
75
330
71
100
AcDbEntity
  8
0
 62
   250
370
    25
100
AcDbSpline
210
0.0
220
0.0
230
1.0
 70
     8
 71
     3
 72
     8
 73
     4
 74
     0
 42
0.0000000001
 43
0.0000000001
 12
1.0
 22
0.0
 32
0.0
 13
1.0
 23
0.0
 33
0.0
 40
0.0
 40
0.0
 40
0.0
 40
0.0
 40
1.0
 40
1.0
 40
1.0
 40
1.0
 10
-694.695825600147
 20
488.5194292032689
 30
0.0
 10
-694.695825600147
 20
494.0422710586757
 30
0.0
 10
-690.218652339002
 20
498.5194443198146
 30
0.0
 10
-684.6958104835952
 20
498.5194443198146
 30
0.0
  0
ENDBLK
  5
74
330
71
100
AcDbEntity
  8
0
100
AcDbBlockEnd
  0
BLOCK
  5
78
330
76
100
AcDbEntity
  8
0
100
AcDbBlockBegin
  2
block 11
 70
     0
 10
0.0
 20
0.0
 30
0.0
  3
block 11
  1

  0
POLYLINE
  5
7A
330
76
100
AcDbEntity
  8
0
 62
   250
370
    25
100
AcDb2dPolyline
 66
     1
 10
0.0
 20
0.0
 30
0.0
  0
VERTEX
  5
7B
330
7A
100
AcDbEntity
  8
0
 62
   250
370
    25
100
AcDbVertex
100
AcDb2dVertex
 10
-694.695825600147
 20
-191.4805403886333
 30
0.0
  0
VERTEX
  5
7C
330
7A
100
AcDbEntity
  8
0
 62
   250
370
    25
100
AcDbVertex
100
AcDb2dVertex
 10
-694.695825600147
 20
488.5194292032689
 30
0.0
  0
SEQEND
  5
7D
330
7A
100
AcDbEntity
  8
0
 62
   250
370
    25
  0
ENDBLK
  5
79
330
76
100
AcDbEntity
  8
0
100
AcDbBlockEnd
  0
BLOCK
  5
80
330
7E
100
AcDbEntity
  8
0
100
AcDbBlockBegin
  2
block 12
 70
     0
 10
0.0
 20
0.0
 30
0.0
  3
block 12
  1

  0
SPLINE
  5
82
330
7E
100
AcDbEntity
  8
0
 62
   250
370
    25
100
AcDbSpline
210
0.0
220
0.0
230
1.0
 70
     8
 71
     3
 72
     8
 73
     4
 74
     0
 42
0.0000000001
 43
0.0000000001
 12
1.0
 22
0.0
 32
0.0
 13
1.0
 23
0.0
 33
0.0
 40
0.0
 40
0.0
 40
0.0
 40
0.0
 40
1.0
 40
1.0
 40
1.0
 40
1.0
 10
-684.6958104835952
 20
-201.4805555051854
 30
0.0
 10
-690.218652339002
 20
-201.4805555051854
 30
0.0
 10
-694.695825600147
 20
-197.0034175218244
 30
0.0
 10
-694.695825600147
 20
-191.4805403886333
 30
0.0
  0
ENDBLK
  5
81
330
7E
100
AcDbEntity
  8
0
100
AcDbBlockEnd
  0
BLOCK
  5
85
330
83
100
AcDbEntity
  8
0
100
AcDbBlockBegin
  2
block 13
 70
     0
 10
0.0
 20
0.0
 30
0.0
  3
block 13
  1

  0
SPLINE
  5
87
330
83
100
AcDbEntity
  8
0
 62
   250
370
    25
100
AcDbSpline
210
0.0
220
0.0
230
1.0
 70
     8
 71
     3
 72
    35
 73
    31
 74
     0
 42
0.0000000001
 43
0.0000000001
 12
1.0
 22
0.0
 32
0.0
 13
1.0
 23
0.0
 33
0.0
 40
0.0
 40
0.0
 40
0.0
 40
0.0
 40
1.0
 40
1.0
 40
1.0
 40
2.0
 40
2.0
 40
2.0
 40
3.0
 40
3.0
 40
3.0
 40
4.0
 40
4.0
 40
4.0
 40
5.0
 40
5.0
 40
5.0
 40
6.0
 40
6.0
 40
6.0
 40
7.0
 40
7.0
 40
7.0
 40
8.0
 40
8.0
 40
8.0
 40
9.0
 40
9.0
 40
9.0
 40
10.0
 40
10.0
 40
10.0
 40
10.0
 10
846.9029628779883
 20
148.5194355655662
 30
0.0
 10
846.9019045446666
 20
146.9280903536623
 30
0.0
 10
846.8844067671671
 20
145.3362159750981
 30
0.0
 10
846.8458834344636
 20
143.7450824298227
 30
0.0
 10
846.804961212894
 20
142.0554533330851
 30
0.0
 10
846.7402970472726
 20
140.3666709029758
 30
0.0
 10
846.6518556598173
 20
138.6788056950577
 30
0.0
 10
846.5082045510159
 20
135.9359938641173
 30
0.0
 10
846.3017942765687
 20
133.1956514775332
 30
0.0
 10
845.9757923373778
 20
130.4686088126011
 30
0.0
 10
845.84452372839
 20
129.3705174691682
 30
0.0
 10
845.6938523419255
 20
128.2745427923005
 30
0.0
 10
845.5055748449668
 20
127.1845653374052
 30
0.0
 10
845.3522929029821
 20
126.297082318581
 30
0.0
 10
845.1740695725272
 20
125.4135504107055
 30
0.0
 10
844.933651520847
 20
124.5455407244002
 30
0.0
 10
844.8544881887954
 20
124.2597201806765
 30
0.0
 10
844.7685515235062
 20
123.9755929702116
 30
0.0
 10
844.6657168029482
 20
123.6974982594965
 30
0.0
 10
844.587329581982
 20
123.4855846571594
 30
0.0
 10
844.4991351389649
 20
123.2771988324426
 30
0.0
 10
844.39241986291
 20
123.0776677296042
 30
0.0
 10
844.3170665307982
 20
122.9368035687599
 30
0.0
 10
844.2325056988125
 20
122.8003491299688
 30
0.0
 10
844.1204634784052
 20
122.6861902457923
 30
0.0
 10
844.0722740347334
 20
122.6370835811562
 30
0.0
 10
844.0190045911473
 20
122.5920691385795
 30
0.0
 10
843.9578329254728
 20
122.56095413987
 30
0.0
 10
843.9078090373943
 20
122.5354835853679
 30
0.0
 10
843.8524934827211
 20
122.5193263638101
 30
0.0
 10
843.7960490391828
 20
122.5194321971369
 30
0.0
  0
ENDBLK
  5
86
330
83
100
AcDbEntity
  8
0
100
AcDbBlockEnd
  0
BLOCK
  5
8A
330
88
100
AcDbEntity
  8
0
100
AcDbBlockBegin
  2
block 14
 70
     0
 10
0.0
 20
0.0
 30
0.0
  3
block 14
  1

  0
SPLINE
  5
8C
330
88
100
AcDbEntity
  8
0
 62
   250
370
    25
100
AcDbSpline
210
0.0
220
0.0
230
1.0
 70
     8
 71
     3
 72
    35
 73
    31
 74
     0
 42
0.0000000001
 43
0.0000000001
 12
1.0
 22
0.0
 32
0.0
 13
1.0
 23
0.0
 33
0.0
 40
0.0
 40
0.0
 40
0.0
 40
0.0
 40
1.0
 40
1.0
 40
1.0
 40
2.0
 40
2.0
 40
2.0
 40
3.0
 40
3.0
 40
3.0
 40
4.0
 40
4.0
 40
4.0
 40
5.0
 40
5.0
 40
5.0
 40
6.0
 40
6.0
 40
6.0
 40
7.0
 40
7.0
 40
7.0
 40
8.0
 40
8.0
 40
8.0
 40
9.0
 40
9.0
 40
9.0
 40
10.0
 40
10.0
 40
10.0
 40
10.0
 10
841.1842588035155
 20
148.5194355655662
 30
0.0
 10
841.1842588035155
 20
150.2742932707206
 30
0.0
 10
841.2004160254834
 20
152.0291246285122
 30
0.0
 10
841.2338946360574
 20
153.7836648779943
 30
0.0
 10
841.2657857466481
 20
155.4554081843751
 30
0.0
 10
841.3133754681022
 20
157.1268692685406
 30
0.0
 10
841.3804385225757
 20
158.7975542415994
 30
0.0
 10
841.4413279660404
 20
160.3145692171377
 30
0.0
 10
841.5182687981346
 20
161.8309491926878
 30
0.0
 10
841.6178932409705
 20
163.3459533349357
 30
0.0
 10
841.7035476840376
 20
164.6485147028275
 30
0.0
 10
841.805994349059
 20
165.9500882929535
 30
0.0
 10
841.936839624714
 20
167.2488749386777
 30
0.0
 10
842.0423907341333
 20
168.2969776995508
 30
0.0
 10
842.1664626765764
 20
169.343316571571
 30
0.0
 10
842.3268707295374
 20
170.3846107214484
 30
0.0
 10
842.4450865609804
 20
171.1518670979734
 30
0.0
 10
842.5830579476378
 20
171.9164070856531
 30
0.0
 10
842.7757451667525
 20
172.6685645735182
 30
0.0
 10
842.8455598878558
 20
172.9410854024497
 30
0.0
 10
842.9225712754923
 20
173.2119834536531
 30
0.0
 10
843.0171509961974
 20
173.4767784493656
 30
0.0
 10
843.0879534950558
 20
173.6750042795194
 30
0.0
 10
843.1685984937499
 20
173.8698081652647
 30
0.0
 10
843.2699515476662
 20
174.0549812178268
 30
0.0
 10
843.3399779354372
 20
174.1828984380003
 30
0.0
 10
843.4198468230315
 20
174.3061942693444
 30
0.0
 10
843.5298076545939
 20
174.4024673233397
 30
0.0
 10
843.6047023756126
 20
174.4680487111702
 30
0.0
 10
843.6934965408469
 20
174.521071210318
 30
0.0
 10
843.7960490391828
 20
174.5194484325649
 30
0.0
  0
ENDBLK
  5
8B
330
88
100
AcDbEntity
  8
0
100
AcDbBlockEnd
  0
BLOCK
  5
8F
330
8D
100
AcDbEntity
  8
0
100
AcDbBlockBegin
  2
block 15
 70
     0
 10
0.0
 20
0.0
 30
0.0
  3
block 15
  1

  0
SPLINE
  5
91
330
8D
100
AcDbEntity
  8
0
 62
   250
370
    25
100
AcDbSpline
210
0.0
220
0.0
230
1.0
 70
     8
 71
     3
 72
   128
 73
   124
 74
     0
 42
0.0000000001
 43
0.0000000001
 12
1.0
 22
0.0
 32
0.0
 13
1.0
 23
0.0
 33
0.0
 40
0.0
 40
0.0
 40
0.0
 40
0.0
 40
1.0
 40
1.0
 40
1.0
 40
2.0
 40
2.0
 40
2.0
 40
3.0
 40
3.0
 40
3.0
 40
4.0
 40
4.0
 40
4.0
 40
5.0
 40
5.0
 40
5.0
 40
6.0
 40
6.0
 40
6.0
 40
7.0
 40
7.0
 40
7.0
 40
8.0
 40
8.0
 40
8.0
 40
9.0
 40
9.0
 40
9.0
 40
10.0
 40
10.0
 40
10.0
 40
11.0
 40
11.0
 40
11.0
 40
12.0
 40
12.0
 40
12.0
 40
13.0
 40
13.0
 40
13.0
 40
14.0
 40
14.0
 40
14.0
 40
15.0
 40
15.0
 40
15.0
 40
16.0
 40
16.0
 40
16.0
 40
17.0
 40
17.0
 40
17.0
 40
18.0
 40
18.0
 40
18.0
 40
19.0
 40
19.0
 40
19.0
 40
20.0
 40
20.0
 40
20.0
 40
21.0
 40
21.0
 40
21.0
 40
22.0
 40
22.0
 40
22.0
 40
23.0
 40
23.0
 40
23.0
 40
24.0
 40
24.0
 40
24.0
 40
25.0
 40
25.0
 40
25.0
 40
26.0
 40
26.0
 40
26.0
 40
27.0
 40
27.0
 40
27.0
 40
28.0
 40
28.0
 40
28.0
 40
29.0
 40
29.0
 40
29.0
 40
30.0
 40
30.0
 40
30.0
 40
31.0
 40
31.0
 40
31.0
 40
32.0
 40
32.0
 40
32.0
 40
33.0
 40
33.0
 40
33.0
 40
34.0
 40
34.0
 40
34.0
 40
35.0
 40
35.0
 40
35.0
 40
36.0
 40
36.0
 40
36.0
 40
37.0
 40
37.0
 40
37.0
 40
38.0
 40
38.0
 40
38.0
 40
39.0
 40
39.0
 40
39.0
 40
40.0
 40
40.0
 40
40.0
 40
41.0
 40
41.0
 40
41.0
 40
41.0
 10
715.9099086011046
 20
148.5194355655662
 30
0.0
 10
715.9095205455551
 20
158.5962592448595
 30
0.0
 10
715.7897524919283
 20
168.6730740823685
 30
0.0
 10
715.5547672179284
 20
178.7471372532984
 30
0.0
 10
715.3208755550477
 20
188.7744573693961
 30
0.0
 10
714.9728250050894
 20
198.7990610966541
 30
0.0
 10
714.5200347346216
 20
208.8189023239909
 30
0.0
 10
714.0594480753791
 20
219.0116046596583
 30
0.0
 10
713.4904880845446
 20
229.1993328287362
 30
0.0
 10
712.8171058731805
 20
239.3801818312505
 30
0.0
 10
712.4557203234532
 20
244.8433689653971
 30
0.0
 10
712.0642781075431
 20
250.3046158217955
 30
0.0
 10
711.6444020032034
 20
255.7636049004398
 30
0.0
 10
711.4248331178582
 20
258.618317909968
 30
0.0
 10
711.1974678437499
 20
261.472395919508
 30
0.0
 10
710.9619886808737
 20
264.3258389290539
 30
0.0
 10
710.8662095157483
 20
265.4867247436756
 30
0.0
 10
710.7690545173209
 20
266.6475047249641
 30
0.0
 10
710.668230630052
 20
267.8079672062517
 30
0.0
 10
710.5873386869205
 20
268.7389830245728
 30
0.0
 10
710.5040478549228
 20
269.6697518984564
 30
0.0
 10
710.4155006341266
 20
270.6000621612341
 30
0.0
 10
710.34219341309
 20
271.3696821488282
 30
0.0
 10
710.2652878587668
 20
272.1390199141996
 30
0.0
 10
710.1825261934428
 20
272.9076168462559
 30
0.0
 10
710.1086545279742
 20
273.5937696129698
 30
0.0
 10
710.0300909181262
 20
274.2793579352383
 30
0.0
 10
709.9429548084174
 20
274.9641701464341
 30
0.0
 10
709.8342992546155
 20
275.8181040215502
 30
0.0
 10
709.7122734232473
 20
276.670803174475
 30
0.0
 10
709.5340500927924
 20
277.5124603831176
 30
0.0
 10
709.366939262149
 20
278.3015537037305
 30
0.0
 10
709.1504395434147
 20
279.0808750800622
 30
0.0
 10
708.8970039919466
 20
279.8467909010245
 30
0.0
 10
708.7762481605531
 20
280.2117042284883
 30
0.0
 10
708.6470962181946
 20
280.5735483893206
 30
0.0
 10
708.5085603871058
 20
280.9320764391028
 30
0.0
 10
708.3604995561599
 20
281.315298932917
 30
0.0
 10
708.2016790031553
 20
281.6947114268052
 30
0.0
 10
708.0273715059666
 20
282.0668566985796
 30
0.0
 10
707.7686795656873
 20
282.619271411896
 30
0.0
 10
707.4758034593042
 20
283.155740569911
 30
0.0
 10
707.142146242464
 20
283.6661747283489
 30
0.0
 10
706.7305604157617
 20
284.2958477737541
 30
0.0
 10
706.2569209789602
 20
284.8859744309038
 30
0.0
 10
705.7224626542356
 20
285.4153174779292
 30
0.0
 10
705.4259882145795
 20
285.7089696954107
 30
0.0
 10
705.1108165529914
 20
285.983924690973
 30
0.0
 10
704.7788173916762
 20
286.2367252424534
 30
0.0
 10
704.5534276730865
 20
286.4083516285796
 30
0.0
 10
704.3202768435209
 20
286.5697474593136
 30
0.0
 10
704.0790474029571
 20
286.7190077346849
 30
0.0
 10
703.8495301844349
 20
286.8610360657333
 30
0.0
 10
703.6127104660407
 20
286.9920224524997
 30
0.0
 10
703.3637199144862
 20
287.0939752286326
 30
0.0
 10
703.1364957514899
 20
287.1870380049115
 30
0.0
 10
702.8990763108784
 20
287.2559002260211
 30
0.0
 10
702.6596460369515
 20
287.3136499473116
 30
0.0
 10
702.3224963201645
 20
287.3949652237843
 30
0.0
 10
701.981254381229
 20
287.4543024450516
 30
0.0
 10
701.6393068867366
 20
287.5097943886078
 30
0.0
 10
701.1818246718901
 20
287.5840893873977
 30
0.0
 10
700.7230371792838
 20
287.6516110529822
 30
0.0
 10
700.263261908925
 20
287.7108071631317
 30
0.0
 10
699.294851646763
 20
287.8355141055632
 30
0.0
 10
698.3220669402311
 20
287.9232852152718
 30
0.0
 10
697.3482944559319
 20
287.9955693807592
 30
0.0
 10
696.1451811419935
 20
288.0848927126658
 30
0.0
 10
694.9405861614127
 20
288.1506152115955
 30
0.0
 10
693.7352856252886
 20
288.199898266359
 30
0.0
 10
692.2404956493874
 20
288.2609640987132
 30
0.0
 10
690.7446473401773
 20
288.2967710425772
 30
0.0
 10
689.248799030955
 20
288.3234763199258
 30
0.0
 10
687.9986251622233
 20
288.3458424306743
 30
0.0
 10
686.748451293491
 20
288.3618585415186
 30
0.0
 10
685.498171591432
 20
288.3747349302086
 30
0.0
 10
683.6342349548135
 20
288.3939613187892
 30
0.0
 10
681.7701219293117
 20
288.4062027074781
 30
0.0
 10
679.9061147371374
 20
288.4231360405334
 30
0.0
 10
678.7898553106986
 20
288.4332960403769
 30
0.0
 10
677.673666439802
 20
288.4451140957452
 30
0.0
 10
676.5574422911336
 20
288.457919928866
 30
0.0
 10
674.2587776059787
 20
288.4842724284363
 30
0.0
 10
671.9601129208123
 20
288.5147171501692
 30
0.0
 10
669.6615187912124
 20
288.5479488162974
 30
0.0
 10
667.3265532732987
 20
288.581674371316
 30
0.0
 10
664.9916935887245
 20
288.6182574262847
 30
0.0
 10
662.6567986263658
 20
288.6561104812301
 30
0.0
 10
656.3163237285893
 20
288.7589099240176
 30
0.0
 10
649.9759546641536
 20
288.8710932555305
 30
0.0
 10
643.635479766377
 20
288.9759388093994
 30
0.0
 10
639.2656567812734
 20
289.0481876971278
 30
0.0
 10
634.8957985183994
 20
289.1169440849107
 30
0.0
 10
630.5259049777408
 20
289.1835485282784
 30
0.0
 10
621.2365959608495
 20
289.3251535259927
 30
0.0
 10
611.9470752772905
 20
289.4570571349823
 30
0.0
 10
602.6574134826216
 20
289.5749907441884
 30
0.0
 10
593.3935750208734
 20
289.6926068534013
 30
0.0
 10
584.1295601702307
 20
289.796358796171
 30
0.0
 10
574.865439486274
 20
289.88913935024
 30
0.0
 10
564.7886599265108
 20
289.9900690708229
 30
0.0
 10
554.7117039778773
 20
290.0779812916435
 30
0.0
 10
544.6347127514591
 20
290.1570740681389
 30
0.0
 10
537.6290048088593
 20
290.2120721227996
 30
0.0
 10
530.6232615884749
 20
290.2628015664407
 30
0.0
 10
523.6174830903193
 20
290.3112732323206
 30
0.0
 10
514.2981879628003
 20
290.3757610090589
 30
0.0
 10
504.9788222797127
 20
290.4362271191901
 30
0.0
 10
495.6594918744225
 20
290.4949998960248
 30
0.0
 10
470.4757097804579
 20
290.6538204490173
 30
0.0
 10
445.2918571309382
 20
290.8001173911103
 30
0.0
 10
420.1079692036467
 20
290.9425337776955
 30
0.0
 10
396.9258834663052
 20
291.0736259978015
 30
0.0
 10
373.7437624511791
 20
291.2014021068566
 30
0.0
 10
350.5615708804973
 20
291.3182068271987
 30
0.0
 10
331.5758120199401
 20
291.4138801589845
 30
0.0
 10
312.5900178816119
 20
291.5021451575765
 30
0.0
 10
293.604153187715
 20
291.5813790451767
 30
0.0
 10
261.2667787090883
 20
291.7163518207784
 30
0.0
 10
228.9292631193497
 20
291.8251132079077
 30
0.0
 10
196.5916416962983
 20
291.89979626226
 30
0.0
 10
165.6196583067628
 20
291.9713043166606
 30
0.0
 10
134.6476043616851
 20
292.0115209826869
 30
0.0
 10
103.6755504166074
 20
292.0168479270467
 30
0.0
  0
ENDBLK
  5
90
330
8D
100
AcDbEntity
  8
0
100
AcDbBlockEnd
  0
BLOCK
  5
94
330
92
100
AcDbEntity
  8
0
100
AcDbBlockBegin
  2
block 16
 70
     0
 10
0.0
 20
0.0
 30
0.0
  3
block 16
  1

  0
SPLINE
  5
96
330
92
100
AcDbEntity
  8
0
 62
   250
370
    25
100
AcDbSpline
210
0.0
220
0.0
230
1.0
 70
     8
 71
     3
 72
   128
 73
   124
 74
     0
 42
0.0000000001
 43
0.0000000001
 12
1.0
 22
0.0
 32
0.0
 13
1.0
 23
0.0
 33
0.0
 40
0.0
 40
0.0
 40
0.0
 40
0.0
 40
1.0
 40
1.0
 40
1.0
 40
2.0
 40
2.0
 40
2.0
 40
3.0
 40
3.0
 40
3.0
 40
4.0
 40
4.0
 40
4.0
 40
5.0
 40
5.0
 40
5.0
 40
6.0
 40
6.0
 40
6.0
 40
7.0
 40
7.0
 40
7.0
 40
8.0
 40
8.0
 40
8.0
 40
9.0
 40
9.0
 40
9.0
 40
10.0
 40
10.0
 40
10.0
 40
11.0
 40
11.0
 40
11.0
 40
12.0
 40
12.0
 40
12.0
 40
13.0
 40
13.0
 40
13.0
 40
14.0
 40
14.0
 40
14.0
 40
15.0
 40
15.0
 40
15.0
 40
16.0
 40
16.0
 40
16.0
 40
17.0
 40
17.0
 40
17.0
 40
18.0
 40
18.0
 40
18.0
 40
19.0
 40
19.0
 40
19.0
 40
20.0
 40
20.0
 40
20.0
 40
21.0
 40
21.0
 40
21.0
 40
22.0
 40
22.0
 40
22.0
 40
23.0
 40
23.0
 40
23.0
 40
24.0
 40
24.0
 40
24.0
 40
25.0
 40
25.0
 40
25.0
 40
26.0
 40
26.0
 40
26.0
 40
27.0
 40
27.0
 40
27.0
 40
28.0
 40
28.0
 40
28.0
 40
29.0
 40
29.0
 40
29.0
 40
30.0
 40
30.0
 40
30.0
 40
31.0
 40
31.0
 40
31.0
 40
32.0
 40
32.0
 40
32.0
 40
33.0
 40
33.0
 40
33.0
 40
34.0
 40
34.0
 40
34.0
 40
35.0
 40
35.0
 40
35.0
 40
36.0
 40
36.0
 40
36.0
 40
37.0
 40
37.0
 40
37.0
 40
38.0
 40
38.0
 40
38.0
 40
39.0
 40
39.0
 40
39.0
 40
40.0
 40
40.0
 40
40.0
 40
41.0
 40
41.0
 40
41.0
 40
41.0
 10
715.9099086011046
 20
148.5194355655662
 30
0.0
 10
715.9093441566591
 20
138.442620982606
 30
0.0
 10
715.789611380817
 20
128.3658416774041
 30
0.0
 10
715.5547319401574
 20
118.2917787609975
 30
0.0
 10
715.3206991661517
 20
108.2535933430935
 30
0.0
 10
714.9722958384419
 20
98.21808903618725
 30
0.0
 10
714.5188705679731
 20
88.18738250687095
 30
0.0
 10
714.0590952976136
 20
78.01619987224637
 30
0.0
 10
713.4913700289833
 20
67.84992084853916
 30
0.0
 10
712.8193989287064
 20
57.69052099120374
 30
0.0
 10
712.4573078234358
 20
52.21597455110648
 30
0.0
 10
712.0649483853153
 20
46.7434389442611
 30
0.0
 10
711.6442256143208
 20
41.27309055953722
 30
0.0
 10
711.42458617342
 20
38.41735456661163
 30
0.0
 10
711.1972208993118
 20
35.56221829587627
 30
0.0
 10
710.9616006253242
 20
32.70775230290095
 30
0.0
 10
710.8657509046567
 20
31.54640790652537
 30
0.0
 10
710.7685253506601
 20
30.38516934346375
 30
0.0
 10
710.6676309078489
 20
29.22428355816769
 30
0.0
 10
710.5867036869193
 20
28.29291498560637
 30
0.0
 10
710.5034128549345
 20
27.36175807970439
 30
0.0
 10
710.4147598008122
 20
26.43113034043825
 30
0.0
 10
710.3414525797749
 20
25.66119287230664
 30
0.0
 10
710.2644764698966
 20
24.89160818192777
 30
0.0
 10
710.1816089712324
 20
24.12269376930765
 30
0.0
 10
710.1076314724241
 20
23.4363293532596
 30
0.0
 10
710.0289620292488
 20
22.75052938165571
 30
0.0
 10
709.9417906417689
 20
22.06547024333546
 30
0.0
 10
709.8334525879608
 20
21.21428805633455
 30
0.0
 10
709.7119559232528
 20
20.36423475818474
 30
0.0
 10
709.5341206483346
 20
19.52554090400283
 30
0.0
 10
709.3679623176861
 20
18.74205676976898
 30
0.0
 10
709.1525914878292
 20
17.96845041288636
 30
0.0
 10
708.9021192696453
 20
17.20694433329891
 30
0.0
 10
708.6532698292162
 20
16.45048297570168
 30
0.0
 10
708.3697423337802
 20
15.70594550652998
 30
0.0
 10
708.0321340058887
 20
14.9851852585645
 30
0.0
 10
707.7733009545109
 20
14.43259417032832
 30
0.0
 10
707.4826826258569
 20
13.8939378037317
 30
0.0
 10
707.1496956867865
 20
13.38248060267982
 30
0.0
 10
706.7389918045253
 20
12.75160812878202
 30
0.0
 10
706.2639059788385
 20
12.16211648652013
 30
0.0
 10
705.7298709874615
 20
11.63178567512741
 30
0.0
 10
705.43364349223
 20
11.33760429841593
 30
0.0
 10
705.1193184972973
 20
11.06166153206983
 30
0.0
 10
704.7874957248632
 20
10.80840237587496
 30
0.0
 10
704.5622118396144
 20
10.63645849409288
 30
0.0
 10
704.3288846211528
 20
10.47495683411968
 30
0.0
 10
704.0877610139287
 20
10.32537906253416
 30
0.0
 10
703.8584201843031
 20
10.18306851286932
 30
0.0
 10
703.6219885214442
 20
10.0515176849693
 30
0.0
 10
703.3732801921137
 20
9.948894633669495
 30
0.0
 10
703.1463735291106
 20
9.855267415320153
 30
0.0
 10
702.909236310709
 20
9.785734918197155
 30
0.0
 10
702.6699824256781
 20
9.727632420597102
 30
0.0
 10
702.3329032644461
 20
9.645717424006904
 30
0.0
 10
701.9916613254977
 20
9.586450759784002
 30
0.0
 10
701.6497138310182
 20
9.53085298429992
 30
0.0
 10
701.1921257828309
 20
9.456452154043511
 30
0.0
 10
700.7332677346824
 20
9.388648267962497
 30
0.0
 10
700.2734219087556
 20
9.329240492654545
 30
0.0
 10
699.3047647021556
 20
9.204145497817924
 30
0.0
 10
698.3316272178446
 20
9.11637439035457
 30
0.0
 10
697.357572511336
 20
9.044019671108945
 30
0.0
 10
696.1540358640649
 20
8.954590508146453
 30
0.0
 10
694.9490528279468
 20
8.888656344218786
 30
0.0
 10
693.7433289584886
 20
8.839302735144528
 30
0.0
 10
692.2480450937111
 20
8.778060515453692
 30
0.0
 10
690.7516323400562
 20
8.742288850266256
 30
0.0
 10
689.2552548641858
 20
8.71551301804212
 30
0.0
 10
688.004622384349
 20
8.6931469078584
 30
0.0
 10
686.7539899045122
 20
8.677095519627354
 30
0.0
 10
685.5032515913473
 20
8.664183853499926
 30
0.0
 10
683.63864467697
 20
8.64492218763589
 30
0.0
 10
681.7738613736954
 20
8.632716077026126
 30
0.0
 10
679.9091839037617
 20
8.615747466610376
 30
0.0
 10
678.7925364217606
 20
8.605587467049254
 30
0.0
 10
677.6759594953273
 20
8.593769411963327
 30
0.0
 10
676.5593472911095
 20
8.580963579162683
 30
0.0
 10
674.2598712170723
 20
8.554575802488053
 30
0.0
 10
671.9603951430338
 20
8.52413108152574
 30
0.0
 10
669.6609543467683
 20
8.490969971781055
 30
0.0
 10
667.3251774399838
 20
8.457314973172277
 30
0.0
 10
664.9894358109825
 20
8.420802474682601
 30
0.0
 10
662.6536941819697
 20
8.382878865144123
 30
0.0
 10
656.3109967842358
 20
8.27990303607939
 30
0.0
 10
649.9684052198298
 20
8.166343874106616
 30
0.0
 10
643.6257078220959
 20
8.06294471171999
 30
0.0
 10
641.9962978483713
 20
8.03638054615006
 30
0.0
 10
640.3668878746353
 20
8.010486658339525
 30
0.0
 10
638.7374779009101
 20
7.984557492731579
 30
0.0
 10
635.995653778445
 20
7.940954161203052
 30
0.0
 10
633.2538296559921
 20
7.897244996347743
 30
0.0
 10
630.5119702557431
 20
7.854911664782324
 30
0.0
 10
626.9310994801539
 20
7.799666667063168
 30
0.0
 10
623.3501934267684
 20
7.746714724805774
 30
0.0
 10
619.7692873733965
 20
7.695420838035326
 30
0.0
 10
614.4959652361906
 20
7.619891118940647
 30
0.0
 10
609.2226078212142
 20
7.547889177485616
 30
0.0
 10
603.9491798506943
 20
7.480402791385594
 30
0.0
 10
597.808200783029
 20
7.401803905755809
 30
0.0
 10
591.6671158820367
 20
7.329272797639912
 30
0.0
 10
585.5259957032714
 20
7.261927522638417
 30
0.0
 10
580.1185121793487
 20
7.20266085842835
 30
0.0
 10
574.7109933776542
 20
7.147380582938093
 30
0.0
 10
569.3034745759462
 20
7.095381140649981
 30
0.0
 10
564.5849660409115
 20
7.050013920307726
 30
0.0
 10
559.8664575058754
 20
7.00715142208144
 30
0.0
 10
555.1479136930687
 20
6.96749920150098
 30
0.0
 10
551.6654679158829
 20
6.938253924932617
 30
0.0
 10
548.1829868609137
 20
6.910737259406882
 30
0.0
 10
544.7005058059574
 20
6.883890871627064
 30
0.0
 10
510.0150071985164
 20
6.616308938256609
 30
0.0
 10
475.3290147022126
 20
6.412932557784672
 30
0.0
 10
440.6430222058959
 20
6.213930621568575
 30
0.0
 10
406.4063627578977
 20
6.01750396303696
 30
0.0
 10
372.1697033098866
 20
5.825345915434402
 30
0.0
 10
337.9328674730065
 20
5.658305644569036
 30
0.0
 10
308.8454229419864
 20
5.516383150441502
 30
0.0
 10
279.7578372998549
 20
5.39255815556799
 30
0.0
 10
250.6701811021549
 20
5.293533437437845
 30
0.0
 10
201.6721707810487
 20
5.126740111011264
 30
0.0
 10
152.6738782377075
 20
5.030325948336705
 30
0.0
 10
103.6755504166074
 20
5.02203567089107
 30
0.0
  0
ENDBLK
  5
95
330
92
100
AcDbEntity
  8
0
100
AcDbBlockEnd
  0
BLOCK
  5
99
330
97
100
AcDbEntity
  8
0
100
AcDbBlockBegin
  2
block 17
 70
     0
 10
0.0
 20
0.0
 30
0.0
  3
block 17
  1

  0
SPLINE
  5
9B
330
97
100
AcDbEntity
  8
0
 62
   250
370
    25
100
AcDbSpline
210
0.0
220
0.0
230
1.0
 70
     8
 71
     3
 72
    29
 73
    25
 74
     0
 42
0.0000000001
 43
0.0000000001
 12
1.0
 22
0.0
 32
0.0
 13
1.0
 23
0.0
 33
0.0
 40
0.0
 40
0.0
 40
0.0
 40
0.0
 40
1.0
 40
1.0
 40
1.0
 40
2.0
 40
2.0
 40
2.0
 40
3.0
 40
3.0
 40
3.0
 40
4.0
 40
4.0
 40
4.0
 40
5.0
 40
5.0
 40
5.0
 40
6.0
 40
6.0
 40
6.0
 40
7.0
 40
7.0
 40
7.0
 40
8.0
 40
8.0
 40
8.0
 40
8.0
 10
-349.1094989498171
 20
289.7998865739005
 30
0.0
 10
-348.3224517402789
 20
289.8895979613323
 30
0.0
 10
-347.532582308567
 20
289.9500640714764
 30
0.0
 10
-346.7421131546514
 20
289.9999468484564
 30
0.0
 10
-346.1692726083213
 20
290.0360712923078
 30
0.0
 10
-345.5961145620101
 20
290.0666571251516
 30
0.0
 10
-345.0227448490319
 20
290.0929743469507
 30
0.0
 10
-344.5102645795191
 20
290.1164693465637
 30
0.0
 10
-343.9976431988949
 20
290.1366129573547
 30
0.0
 10
-343.4849512627153
 20
290.1547810126136
 30
0.0
 10
-342.3610718363967
 20
290.1946449008615
 30
0.0
 10
-341.2368043545159
 20
290.2251249003784
 30
0.0
 10
-340.1123957615364
 20
290.2479143444475
 30
0.0
 10
-338.2622527358176
 20
290.2853793438555
 30
0.0
 10
-336.4118274878767
 20
290.3019246213607
 30
0.0
 10
-334.5613669621512
 20
290.317729065552
 30
0.0
 10
-330.4934864721813
 20
290.3524776761001
 30
0.0
 10
-326.4255354266558
 20
290.3835221200554
 30
0.0
 10
-322.3576196589148
 20
290.4141432306644
 30
0.0
 10
-270.3125971647027
 20
290.8061498910064
 30
0.0
 10
-218.2670807815946
 20
291.1337393301671
 30
0.0
 10
-166.221211620747
 20
291.3861165483141
 30
0.0
 10
-76.25635334902407
 20
291.8223615412895
 30
0.0
 10
13.70963381156308
 20
292.0338518156507
 30
0.0
 10
103.6755504166074
 20
292.0168479270467
 30
0.0
  0
ENDBLK
  5
9A
330
97
100
AcDbEntity
  8
0
100
AcDbBlockEnd
  0
BLOCK
  5
9E
330
9C
100
AcDbEntity
  8
0
100
AcDbBlockBegin
  2
block 18
 70
     0
 10
0.0
 20
0.0
 30
0.0
  3
block 18
  1

  0
SPLINE
  5
A0
330
9C
100
AcDbEntity
  8
0
 62
   250
370
    25
100
AcDbSpline
210
0.0
220
0.0
230
1.0
 70
     8
 71
     3
 72
    44
 73
    40
 74
     0
 42
0.0000000001
 43
0.0000000001
 12
1.0
 22
0.0
 32
0.0
 13
1.0
 23
0.0
 33
0.0
 40
0.0
 40
0.0
 40
0.0
 40
0.0
 40
1.0
 40
1.0
 40
1.0
 40
2.0
 40
2.0
 40
2.0
 40
3.0
 40
3.0
 40
3.0
 40
4.0
 40
4.0
 40
4.0
 40
5.0
 40
5.0
 40
5.0
 40
6.0
 40
6.0
 40
6.0
 40
7.0
 40
7.0
 40
7.0
 40
8.0
 40
8.0
 40
8.0
 40
9.0
 40
9.0
 40
9.0
 40
10.0
 40
10.0
 40
10.0
 40
11.0
 40
11.0
 40
11.0
 40
12.0
 40
12.0
 40
12.0
 40
13.0
 40
13.0
 40
13.0
 40
13.0
 10
-349.1094989498171
 20
289.7998865739005
 30
0.0
 10
-349.7643956059151
 20
289.2509290827457
 30
0.0
 10
-350.3849317070201
 20
288.6625310366758
 30
0.0
 10
-350.9762930863811
 20
288.0459107688437
 30
0.0
 10
-351.5820125210553
 20
287.4143327234763
 30
0.0
 10
-352.1570755673425
 20
286.7530860674556
 30
0.0
 10
-352.6926980587028
 20
286.0611477452958
 30
0.0
 10
-353.1661611066221
 20
285.449536921817
 30
0.0
 10
-353.6087913772724
 20
284.8139019320707
 30
0.0
 10
-354.0002335931828
 20
284.1464816650483
 30
0.0
 10
-354.3446505320707
 20
283.5591772300725
 30
0.0
 10
-354.6494858049332
 20
282.9472841843767
 30
0.0
 10
-354.8906094121569
 20
282.3114022501929
 30
0.0
 10
-355.1089788530828
 20
281.7354572594731
 30
0.0
 10
-355.2751371837444
 20
281.1398272690739
 30
0.0
 10
-355.4132849592843
 20
280.5387645009874
 30
0.0
 10
-355.5945069008088
 20
279.7503061803821
 30
0.0
 10
-355.7276099542183
 20
278.9525345265745
 30
0.0
 10
-355.848471618938
 20
278.1529637061244
 30
0.0
 10
-356.0399593936328
 20
276.8863856709797
 30
0.0
 10
-356.2008260576992
 20
275.6152920803767
 30
0.0
 10
-356.3453943887114
 20
274.3425051564578
 30
0.0
 10
-356.5253816080189
 20
272.7575451820081
 30
0.0
 10
-356.6801099388614
 20
271.1698688187104
 30
0.0
 10
-356.8248899365279
 20
269.5813457887722
 30
0.0
 10
-357.018000488976
 20
267.4625624895983
 30
0.0
 10
-357.1934721528004
 20
265.3422269682258
 30
0.0
 10
-357.3651338167108
 20
263.2215739468722
 30
0.0
 10
-357.5812807576667
 20
260.5511520454674
 30
0.0
 10
-357.7914304764969
 20
257.8802362552126
 30
0.0
 10
-357.9937485287939
 20
255.2087560204989
 30
0.0
 10
-358.3818040780984
 20
250.0846236031163
 30
0.0
 10
-358.7409671278553
 20
244.9583039635474
 30
0.0
 10
-359.0721196225169
 20
239.8301851573295
 30
0.0
 10
-359.7380229451127
 20
229.5183144902646
 30
0.0
 10
-360.290614047312
 20
219.1991766010856
 30
0.0
 10
-360.7293284846954
 20
208.8751351008618
 30
0.0
 10
-361.5836856931325
 20
188.7687423694803
 30
0.0
 10
-362.0060665196647
 20
168.6439699161864
 30
0.0
 10
-361.9974234642485
 20
148.5194355655662
 30
0.0
  0
ENDBLK
  5
9F
330
9C
100
AcDbEntity
  8
0
100
AcDbBlockEnd
  0
BLOCK
  5
A3
330
A1
100
AcDbEntity
  8
0
100
AcDbBlockBegin
  2
block 19
 70
     0
 10
0.0
 20
0.0
 30
0.0
  3
block 19
  1

  0
SPLINE
  5
A5
330
A1
100
AcDbEntity
  8
0
 62
   250
370
    25
100
AcDbSpline
210
0.0
220
0.0
230
1.0
 70
     8
 71
     3
 72
    32
 73
    28
 74
     0
 42
0.0000000001
 43
0.0000000001
 12
1.0
 22
0.0
 32
0.0
 13
1.0
 23
0.0
 33
0.0
 40
0.0
 40
0.0
 40
0.0
 40
0.0
 40
1.0
 40
1.0
 40
1.0
 40
2.0
 40
2.0
 40
2.0
 40
3.0
 40
3.0
 40
3.0
 40
4.0
 40
4.0
 40
4.0
 40
5.0
 40
5.0
 40
5.0
 40
6.0
 40
6.0
 40
6.0
 40
7.0
 40
7.0
 40
7.0
 40
8.0
 40
8.0
 40
8.0
 40
9.0
 40
9.0
 40
9.0
 40
9.0
 10
-349.1094989498171
 20
7.238961690263818
 30
0.0
 10
-348.8891539533595
 20
7.213596969088482
 30
0.0
 10
-348.6684561791495
 20
7.190913358923773
 30
0.0
 10
-348.4476172938152
 20
7.170028915344535
 30
0.0
 10
-347.8966136915851
 20
7.117958917487266
 30
0.0
 10
-347.3446223116024
 20
7.077318919167062
 30
0.0
 10
-346.7922781538413
 20
7.042076420627018
 30
0.0
 10
-346.1644395528572
 20
7.002036144523361
 30
0.0
 10
-345.5361423407551
 20
6.968980868104819
 30
0.0
 10
-344.9076687397834
 20
6.940723369276842
 30
0.0
 10
-344.456077913723
 20
6.920438647888484
 30
0.0
 10
-344.0043459765639
 20
6.902623370856544
 30
0.0
 10
-343.5525787616336
 20
6.886360315971289
 30
0.0
 10
-342.5883665549487
 20
6.851717539622125
 30
0.0
 10
-341.6238368482828
 20
6.824165596312453
 30
0.0
 10
-340.6592365860485
 20
6.802646152757757
 30
0.0
 10
-338.7040716175654
 20
6.75904282122923
 30
0.0
 10
-336.7485185935456
 20
6.740204488685802
 30
0.0
 10
-334.7929655695194
 20
6.72291837828906
 30
0.0
 10
-331.9689089483906
 20
6.697976990434332
 30
0.0
 10
-329.1448523272624
 20
6.676316435768918
 30
0.0
 10
-326.3207604283489
 20
6.654867547769903
 30
0.0
 10
-274.7512118153596
 20
6.263002008433584
 30
0.0
 10
-223.1811340357091
 20
5.934213133144036
 30
0.0
 10
-171.6106682005222
 20
5.679119532593234
 30
0.0
 10
-79.8493596799812
 20
5.225200384708798
 30
0.0
 10
11.91311300719575
 20
5.004573171624697
 30
0.0
 10
103.6755504166074
 20
5.02203567089107
 30
0.0
  0
ENDBLK
  5
A4
330
A1
100
AcDbEntity
  8
0
100
AcDbBlockEnd
  0
BLOCK
  5
A8
330
A6
100
AcDbEntity
  8
0
100
AcDbBlockBegin
  2
block 20
 70
     0
 10
0.0
 20
0.0
 30
0.0
  3
block 20
  1

  0
SPLINE
  5
AA
330
A6
100
AcDbEntity
  8
0
 62
   250
370
    25
100
AcDbSpline
210
0.0
220
0.0
230
1.0
 70
     8
 71
     3
 72
    47
 73
    43
 74
     0
 42
0.0000000001
 43
0.0000000001
 12
1.0
 22
0.0
 32
0.0
 13
1.0
 23
0.0
 33
0.0
 40
0.0
 40
0.0
 40
0.0
 40
0.0
 40
1.0
 40
1.0
 40
1.0
 40
2.0
 40
2.0
 40
2.0
 40
3.0
 40
3.0
 40
3.0
 40
4.0
 40
4.0
 40
4.0
 40
5.0
 40
5.0
 40
5.0
 40
6.0
 40
6.0
 40
6.0
 40
7.0
 40
7.0
 40
7.0
 40
8.0
 40
8.0
 40
8.0
 40
9.0
 40
9.0
 40
9.0
 40
10.0
 40
10.0
 40
10.0
 40
11.0
 40
11.0
 40
11.0
 40
12.0
 40
12.0
 40
12.0
 40
13.0
 40
13.0
 40
13.0
 40
14.0
 40
14.0
 40
14.0
 40
14.0
 10
-361.9974234642485
 20
148.5194355655662
 30
0.0
 10
-362.0017979086201
 20
138.4734184813339
 30
0.0
 10
-361.8986456880542
 20
128.4273661193171
 30
0.0
 10
-361.6880020803473
 20
118.3835362571935
 30
0.0
 10
-361.4766529170843
 20
108.3084150074914
 30
0.0
 10
-361.1571420889082
 20
98.23555153546646
 30
0.0
 10
-360.7294343180225
 20
88.16727417436441
 30
0.0
 10
-360.2810890474693
 20
77.613045444485
 30
0.0
 10
-359.7138929455124
 20
67.0638614366144
 30
0.0
 10
-359.0277049010148
 20
56.52243853955489
 30
0.0
 10
-358.7031846284599
 20
51.53715957919542
 30
0.0
 10
-358.352064911909
 20
46.55357395210683
 30
0.0
 10
-357.9740988068923
 20
41.5720697138258
 30
0.0
 10
-357.7734740879048
 20
38.92768287882459
 30
0.0
 10
-357.5652646468092
 20
36.28386048822327
 30
0.0
 10
-357.3508815947184
 20
33.64053198651107
 30
0.0
 10
-357.1820774307659
 20
31.55946068375133
 30
0.0
 10
-357.0094279891026
 20
29.47867160320147
 30
0.0
 10
-356.8194924366187
 20
27.39939946702656
 30
0.0
 10
-356.6742185500631
 20
25.8089714772945
 30
0.0
 10
-356.5187846636837
 20
24.2194254319632
 30
0.0
 10
-356.3380918888262
 20
22.63270160874105
 30
0.0
 10
-356.1931707800487
 20
21.36019693919472
 30
0.0
 10
-356.0319866159753
 20
20.08952671399149
 30
0.0
 10
-355.8389818968732
 20
18.82326621084152
 30
0.0
 10
-355.7185082876963
 20
18.03290291022238
 30
0.0
 10
-355.5856521787252
 20
17.24423294286193
 30
0.0
 10
-355.4051710705287
 20
16.46526436398245
 30
0.0
 10
-355.2674466283094
 20
15.87101022191458
 30
0.0
 10
-355.1020291309756
 20
15.28240052405218
 30
0.0
 10
-354.8852119122478
 20
14.71291138094374
 30
0.0
 10
-354.6445469161292
 20
14.08083946266481
 30
0.0
 10
-354.3405583099214
 20
13.47233309896356
 30
0.0
 10
-353.9976935932187
 20
12.88830951202469
 30
0.0
 10
-353.6111549883408
 20
12.22984981704546
 30
0.0
 10
-353.1751922175882
 20
11.60254039855969
 30
0.0
 10
-352.708925836227
 20
10.99862014578132
 30
0.0
 10
-352.1651189005428
 20
10.29426406381245
 30
0.0
 10
-351.5801075210917
 20
9.621763813879728
 30
0.0
 10
-350.9634872532404
 20
8.979708284883644
 30
0.0
 10
-350.3759358738447
 20
8.367921087980887
 30
0.0
 10
-349.7596331059937
 20
7.783791667715228
 30
0.0
 10
-349.1094989498171
 20
7.238961690263818
 30
0.0
  0
ENDBLK
  5
A9
330
A6
100
AcDbEntity
  8
0
100
AcDbBlockEnd
  0
BLOCK
  5
AD
330
AB
100
AcDbEntity
  8
0
100
AcDbBlockBegin
  2
block 21
 70
     0
 10
0.0
 20
0.0
 30
0.0
  3
block 21
  1

  0
SPLINE
  5
AF
330
AB
100
AcDbEntity
  8
0
 62
   250
370
    25
100
AcDbSpline
210
0.0
220
0.0
230
1.0
 70
     8
 71
     3
 72
    47
 73
    43
 74
     0
 42
0.0000000001
 43
0.0000000001
 12
1.0
 22
0.0
 32
0.0
 13
1.0
 23
0.0
 33
0.0
 40
0.0
 40
0.0
 40
0.0
 40
0.0
 40
1.0
 40
1.0
 40
1.0
 40
2.0
 40
2.0
 40
2.0
 40
3.0
 40
3.0
 40
3.0
 40
4.0
 40
4.0
 40
4.0
 40
5.0
 40
5.0
 40
5.0
 40
6.0
 40
6.0
 40
6.0
 40
7.0
 40
7.0
 40
7.0
 40
8.0
 40
8.0
 40
8.0
 40
9.0
 40
9.0
 40
9.0
 40
10.0
 40
10.0
 40
10.0
 40
11.0
 40
11.0
 40
11.0
 40
12.0
 40
12.0
 40
12.0
 40
13.0
 40
13.0
 40
13.0
 40
14.0
 40
14.0
 40
14.0
 40
14.0
 10
-362.0672381853396
 20
148.5194355655662
 30
0.0
 10
-362.0716126297112
 20
138.4726776480317
 30
0.0
 10
-361.9684604091585
 20
128.4258844527062
 30
0.0
 10
-361.757781523667
 20
118.381349035072
 30
0.0
 10
-361.546432360404
 20
108.3054869520548
 30
0.0
 10
-361.2268509766597
 20
98.23191792449938
 30
0.0
 10
-360.7991079280155
 20
88.16293500787968
 30
0.0
 10
-360.3507273796779
 20
77.60793016691409
 30
0.0
 10
-359.7834607221526
 20
67.05797004797657
 30
0.0
 10
-359.0972021221119
 20
56.51577103981803
 30
0.0
 10
-358.7726465717922
 20
51.53013930171225
 30
0.0
 10
-358.4214915774509
 20
46.54620089685874
 30
0.0
 10
-358.0434901946629
 20
41.56434388081213
 30
0.0
 10
-357.8428301978907
 20
38.91974537914388
 30
0.0
 10
-357.6345854790241
 20
36.27574659967294
 30
0.0
 10
-357.4201671491489
 20
33.63224170909047
 30
0.0
 10
-357.2513629852093
 20
31.55099401743542
 30
0.0
 10
-357.0787135435457
 20
29.47006382578704
 30
0.0
 10
-356.8887427132779
 20
27.3906505785014
 30
0.0
 10
-356.7434335489512
 20
25.80011675544256
 30
0.0
 10
-356.588034940349
 20
24.21046487678383
 30
0.0
 10
-356.4073068877014
 20
22.62359994246316
 30
0.0
 10
-356.2623505011522
 20
21.35102471734832
 30
0.0
 10
-356.1011663370724
 20
20.08024865881831
 30
0.0
 10
-355.9081616179831
 20
18.81391760012548
 30
0.0
 10
-355.7876880088126
 20
18.02344846616673
 30
0.0
 10
-355.6548318998416
 20
17.23474322103454
 30
0.0
 10
-355.4743155138607
 20
16.45570408662504
 30
0.0
 10
-355.3365910716286
 20
15.86141466674692
 30
0.0
 10
-355.1711735743077
 20
15.27276969111406
 30
0.0
 10
-354.9543210777956
 20
14.70324527024671
 30
0.0
 10
-354.7136560816774
 20
14.07110279639928
 30
0.0
 10
-354.4096674754693
 20
13.46256115491344
 30
0.0
 10
-354.0668027587794
 20
12.87850229020347
 30
0.0
 10
-353.680264153889
 20
12.22000731745314
 30
0.0
 10
-353.2443013831491
 20
11.59262734342388
 30
0.0
 10
-352.7779997240037
 20
10.98863653507764
 30
0.0
 10
-352.2342280661035
 20
10.28428045312096
 30
0.0
 10
-351.6491814088684
 20
9.611674369848618
 30
0.0
 10
-351.0325611410364
 20
8.969583563081434
 30
0.0
 10
-350.4449744838371
 20
8.35772581063583
 30
0.0
 10
-349.8287069937704
 20
7.773561112585592
 30
0.0
 10
-349.1785375598096
 20
7.228731135121991
 30
0.0
  0
ENDBLK
  5
AE
330
AB
100
AcDbEntity
  8
0
100
AcDbBlockEnd
  0
BLOCK
  5
B2
330
B0
100
AcDbEntity
  8
0
100
AcDbBlockBegin
  2
block 22
 70
     0
 10
0.0
 20
0.0
 30
0.0
  3
block 22
  1

  0
SPLINE
  5
B4
330
B0
100
AcDbEntity
  8
0
 62
   250
370
    25
100
AcDbSpline
210
0.0
220
0.0
230
1.0
 70
     8
 71
     3
 72
    95
 73
    91
 74
     0
 42
0.0000000001
 43
0.0000000001
 12
1.0
 22
0.0
 32
0.0
 13
1.0
 23
0.0
 33
0.0
 40
0.0
 40
0.0
 40
0.0
 40
0.0
 40
1.0
 40
1.0
 40
1.0
 40
2.0
 40
2.0
 40
2.0
 40
3.0
 40
3.0
 40
3.0
 40
4.0
 40
4.0
 40
4.0
 40
5.0
 40
5.0
 40
5.0
 40
6.0
 40
6.0
 40
6.0
 40
7.0
 40
7.0
 40
7.0
 40
8.0
 40
8.0
 40
8.0
 40
9.0
 40
9.0
 40
9.0
 40
10.0
 40
10.0
 40
10.0
 40
11.0
 40
11.0
 40
11.0
 40
12.0
 40
12.0
 40
12.0
 40
13.0
 40
13.0
 40
13.0
 40
14.0
 40
14.0
 40
14.0
 40
15.0
 40
15.0
 40
15.0
 40
16.0
 40
16.0
 40
16.0
 40
17.0
 40
17.0
 40
17.0
 40
18.0
 40
18.0
 40
18.0
 40
19.0
 40
19.0
 40
19.0
 40
20.0
 40
20.0
 40
20.0
 40
21.0
 40
21.0
 40
21.0
 40
22.0
 40
22.0
 40
22.0
 40
23.0
 40
23.0
 40
23.0
 40
24.0
 40
24.0
 40
24.0
 40
25.0
 40
25.0
 40
25.0
 40
26.0
 40
26.0
 40
26.0
 40
27.0
 40
27.0
 40
27.0
 40
28.0
 40
28.0
 40
28.0
 40
29.0
 40
29.0
 40
29.0
 40
30.0
 40
30.0
 40
30.0
 40
30.0
 10
105.3041842792323
 20
433.8705539732741
 30
0.0
 10
2.389841771854296
 20
433.8747520287508
 30
0.0
 10
-100.5244654577523
 20
433.7711059193207
 30
0.0
 10
-203.4385610206924
 20
433.5596509227178
 30
0.0
 10
-257.6616334797773
 20
433.4482437022976
 30
0.0
 10
-311.8846353833197
 20
433.3068856490214
 30
0.0
 10
-366.1075667313061
 20
433.1356120406737
 30
0.0
 10
-393.2190676830837
 20
433.0499575976136
 30
0.0
 10
-420.3305686348485
 20
432.9568595435579
 30
0.0
 10
-447.4420343088479
 20
432.8562473229554
 30
0.0
 10
-450.2346231527137
 20
432.8458756564583
 30
0.0
 10
-453.0272119965721
 20
432.8354334344049
 30
0.0
 10
-455.8198008404308
 20
432.8253439901178
 30
0.0
 10
-457.6448260887832
 20
432.8187470457891
 30
0.0
 10
-459.4698513371357
 20
432.8122912125575
 30
0.0
 10
-461.2948413077168
 20
432.8060470459815
 30
0.0
 10
-464.3843632023489
 20
432.7954284350457
 30
0.0
 10
-467.4738498191972
 20
432.7854095463136
 30
0.0
 10
-470.5633364360583
 20
432.7771545464472
 30
0.0
 10
-472.562845570482
 20
432.7718276020937
 30
0.0
 10
-474.5623194271342
 20
432.7672414910547
 30
0.0
 10
-476.5617932837864
 20
432.7595862133978
 30
0.0
 10
-477.9568177057401
 20
432.7542592690507
 30
0.0
 10
-479.3518421276939
 20
432.7474506580421
 30
0.0
 10
-480.7467607163209
 20
432.7353503804511
 30
0.0
 10
-482.1446779159911
 20
432.7232148251018
 30
0.0
 10
-483.5424540045759
 20
432.7057523253856
 30
0.0
 10
-484.9402300931476
 20
432.68052871468
 30
0.0
 10
-490.5814641688538
 20
432.5787170496578
 30
0.0
 10
-496.222239633467
 20
432.3502934422284
 30
0.0
 10
-501.8446706539261
 20
431.8808167831319
 30
0.0
 10
-507.1403236240952
 20
431.4386098458148
 30
0.0
 10
-512.419748816753
 20
430.78258430084
 30
0.0
 10
-517.6548651212479
 20
429.8692073711233
 30
0.0
 10
-522.5438005979768
 20
429.0161907181983
 30
0.0
 10
-527.3941069086623
 20
427.9387015689076
 30
0.0
 10
-532.1787612759608
 20
426.6210060346036
 30
0.0
 10
-536.5866842604405
 20
425.4070977208348
 30
0.0
 10
-540.9388683569516
 20
423.9892838547989
 30
0.0
 10
-545.212982732472
 20
422.3658005476443
 30
0.0
 10
-549.7030676600726
 20
420.6602964084873
 30
0.0
 10
-554.1070042557424
 20
418.7277797729753
 30
0.0
 10
-558.3989691865411
 20
416.5718136966213
 30
0.0
 10
-562.9054230027837
 20
414.3081092886763
 30
0.0
 10
-567.2884045987859
 20
411.7980248847031
 30
0.0
 10
-571.519021475014
 20
409.0529552067299
 30
0.0
 10
-579.8237630077758
 20
403.6643100158383
 30
0.0
 10
-587.5414117722407
 20
397.370013728442
 30
0.0
 10
-594.473142216032
 20
390.3022168979443
 30
0.0
 10
-597.8440043839142
 20
386.8651736200275
 30
0.0
 10
-601.029023221449
 20
383.2451797895054
 30
0.0
 10
-604.0098190067237
 20
379.4647779060095
 30
0.0
 10
-606.9893095142384
 20
375.6859988002674
 30
0.0
 10
-609.7647533583754
 20
371.7469527526622
 30
0.0
 10
-612.3216513727043
 20
367.6705703183871
 30
0.0
 10
-614.9801141076289
 20
363.4323334422793
 30
0.0
 10
-617.4022862907947
 20
359.0456476796645
 30
0.0
 10
-619.5834407000763
 20
354.5429685856033
 30
0.0
 10
-621.7918648311394
 20
349.9840214368876
 30
0.0
 10
-623.7531681328396
 20
345.3061176234144
 30
0.0
 10
-625.4773694939361
 20
340.5429827002089
 30
0.0
 10
-627.1270641895497
 20
335.9856583292469
 30
0.0
 10
-628.5596947220104
 20
331.3502995150971
 30
0.0
 10
-629.8002024797883
 20
326.665022646184
 30
0.0
 10
-631.129963013905
 20
321.6426313382608
 30
0.0
 10
-632.2389552182432
 20
316.5628783646159
 30
0.0
 10
-633.1783671475494
 20
311.4530334470093
 30
0.0
 10
-634.1975068533386
 20
305.9095893697195
 30
0.0
 10
-635.0170801734556
 20
300.3307616818921
 30
0.0
 10
-635.7303968286227
 20
294.7396926053635
 30
0.0
 10
-636.0746726564124
 20
292.0413307044187
 30
0.0
 10
-636.3942187623596
 20
289.3401465813134
 30
0.0
 10
-636.7040282018103
 20
286.6376219026636
 30
0.0
 10
-636.8649301436614
 20
285.2342719252875
 30
0.0
 10
-637.0232215300051
 20
283.8305691701458
 30
0.0
 10
-637.1790787497125
 20
282.4266194705531
 30
0.0
 10
-637.6914884636694
 20
277.8103459338726
 30
0.0
 10
-638.1775809558277
 20
273.1914265639019
 30
0.0
 10
-638.6371092817612
 20
268.5697908050711
 30
0.0
 10
-639.725358153105
 20
257.6253895926438
 30
0.0
 10
-640.664770082392
 20
246.6659247693543
 30
0.0
 10
-641.4550628474374
 20
235.6957707795598
 30
0.0
 10
-642.2453556124705
 20
224.7256873453085
 30
0.0
 10
-642.8864939354652
 20
213.7449147445786
 30
0.0
 10
-643.3782308719836
 20
202.7574393661795
 30
0.0
 10
-644.1660894703923
 20
185.1527702055653
 30
0.0
 10
-644.5703727972082
 20
167.5308854896862
 30
0.0
 10
-644.5909397413201
 20
149.9085685636461
 30
0.0
 10
-644.5914689079809
 20
149.4455124716934
 30
0.0
 10
-644.5917511301905
 20
148.9824563797536
 30
0.0
 10
-644.5917511301905
 20
148.5194355655662
 30
0.0
  0
ENDBLK
  5
B3
330
B0
100
AcDbEntity
  8
0
100
AcDbBlockEnd
  0
BLOCK
  5
B7
330
B5
100
AcDbEntity
  8
0
100
AcDbBlockBegin
  2
block 23
 70
     0
 10
0.0
 20
0.0
 30
0.0
  3
block 23
  1

  0
SPLINE
  5
B9
330
B5
100
AcDbEntity
  8
0
 62
   250
370
    25
100
AcDbSpline
210
0.0
220
0.0
230
1.0
 70
     8
 71
     3
 72
    68
 73
    64
 74
     0
 42
0.0000000001
 43
0.0000000001
 12
1.0
 22
0.0
 32
0.0
 13
1.0
 23
0.0
 33
0.0
 40
0.0
 40
0.0
 40
0.0
 40
0.0
 40
1.0
 40
1.0
 40
1.0
 40
2.0
 40
2.0
 40
2.0
 40
3.0
 40
3.0
 40
3.0
 40
4.0
 40
4.0
 40
4.0
 40
5.0
 40
5.0
 40
5.0
 40
6.0
 40
6.0
 40
6.0
 40
7.0
 40
7.0
 40
7.0
 40
8.0
 40
8.0
 40
8.0
 40
9.0
 40
9.0
 40
9.0
 40
10.0
 40
10.0
 40
10.0
 40
11.0
 40
11.0
 40
11.0
 40
12.0
 40
12.0
 40
12.0
 40
13.0
 40
13.0
 40
13.0
 40
14.0
 40
14.0
 40
14.0
 40
15.0
 40
15.0
 40
15.0
 40
16.0
 40
16.0
 40
16.0
 40
17.0
 40
17.0
 40
17.0
 40
18.0
 40
18.0
 40
18.0
 40
19.0
 40
19.0
 40
19.0
 40
20.0
 40
20.0
 40
20.0
 40
21.0
 40
21.0
 40
21.0
 40
21.0
 10
105.3041842792323
 20
433.8705539732741
 30
0.0
 10
205.4489743312594
 20
433.8664617511127
 30
0.0
 10
305.5937291055147
 20
433.7608048083794
 30
0.0
 10
405.7383074908869
 20
433.5523837006168
 30
0.0
 10
459.6813096767234
 20
433.4401298135419
 30
0.0
 10
513.6242765847759
 20
433.2980662047224
 30
0.0
 10
567.5671023817171
 20
433.1269689852564
 30
0.0
 10
606.8979081364707
 20
433.0021914872771
 30
0.0
 10
646.228643335681
 20
432.8619976006429
 30
0.0
 10
685.5593432571065
 20
432.7012720476746
 30
0.0
 10
689.1434595882026
 20
432.6866317701324
 30
0.0
 10
692.7275759193114
 20
432.6718151037077
 30
0.0
 10
696.3113394726425
 20
432.6083503825072
 30
0.0
 10
702.1762699336406
 20
432.5044926063979
 30
0.0
 10
708.0402831724283
 20
432.2703892768367
 30
0.0
 10
713.8849641893086
 20
431.7786170625467
 30
0.0
 10
718.9219252192106
 20
431.3548251249408
 30
0.0
 10
723.9445281937809
 20
430.7396512459607
 30
0.0
 10
728.9281492245433
 20
429.8933726485015
 30
0.0
 10
733.673751092464
 20
429.0874871059447
 30
0.0
 10
738.384039905417
 20
428.0720515667491
 30
0.0
 10
743.0355206637502
 20
426.8340132533796
 30
0.0
 10
747.8717158635542
 20
425.5468329963637
 30
0.0
 10
752.6444110643866
 20
424.0190582987724
 30
0.0
 10
757.3249607111378
 20
422.2468438829005
 30
0.0
 10
766.5502052846248
 20
418.7539206058914
 30
0.0
 10
775.417486252763
 20
414.3114959552822
 30
0.0
 10
783.716548063406
 20
408.9803888190205
 30
0.0
 10
792.1226073723255
 20
403.5805958505258
 30
0.0
 10
799.9457366906278
 20
397.2690840078392
 30
0.0
 10
806.9813601883139
 20
390.1753227333144
 30
0.0
 10
810.4161456884888
 20
386.7121386224944
 30
0.0
 10
813.6632886916918
 20
383.0625467368946
 30
0.0
 10
816.701693087141
 20
379.2467612428618
 30
0.0
 10
819.7674024821671
 20
375.3967210271445
 30
0.0
 10
822.6206691028241
 20
371.3774885919632
 30
0.0
 10
825.2448065605206
 20
367.2139347701955
 30
0.0
 10
827.8078781858577
 20
363.1472890024298
 30
0.0
 10
830.1523687036145
 20
358.9429187924448
 30
0.0
 10
832.2717517250043
 20
354.6284113620027
 30
0.0
 10
834.5461805772195
 20
349.9983442144353
 30
0.0
 10
836.5613530447223
 20
345.2414181800097
 30
0.0
 10
838.3243599607451
 20
340.3934402026213
 30
0.0
 10
839.9547929900203
 20
335.9099169415857
 30
0.0
 10
841.3695729672024
 20
331.3485003484609
 30
0.0
 10
842.5885965586576
 20
326.7362132005907
 30
0.0
 10
843.875318204587
 20
321.8678446679731
 30
0.0
 10
844.9439526317877
 20
316.9427494696087
 30
0.0
 10
845.84452372839
 20
311.9883737161597
 30
0.0
 10
846.8656389897052
 20
306.3708463067207
 30
0.0
 10
847.6706778656061
 20
300.7157127867879
 30
0.0
 10
848.3775739653281
 20
295.0499959336841
 30
0.0
 10
848.622472294707
 20
293.0869287431252
 30
0.0
 10
848.8556231242856
 20
291.1225915525711
 30
0.0
 10
849.0827061761704
 20
289.1574429731463
 30
0.0
 10
849.3496178385457
 20
286.8477363437163
 30
0.0
 10
849.6081686677007
 20
284.5369008254212
 30
0.0
 10
849.8604753303048
 20
282.2253950293486
 30
0.0
 10
850.3658647665991
 20
277.5946223262379
 30
0.0
 10
850.8460658699718
 20
272.9611685120518
 30
0.0
 10
851.299949751533
 20
268.3251746979143
 30
0.0
 10
855.1972974664824
 20
228.5167783952956
 30
0.0
 10
857.1555316015712
 20
188.5182701512906
 30
0.0
 10
857.1552846571329
 20
148.5194355655662
 30
0.0
  0
ENDBLK
  5
B8
330
B5
100
AcDbEntity
  8
0
100
AcDbBlockEnd
  0
BLOCK
  5
BC
330
BA
100
AcDbEntity
  8
0
100
AcDbBlockBegin
  2
block 24
 70
     0
 10
0.0
 20
0.0
 30
0.0
  3
block 24
  1

  0
SPLINE
  5
BE
330
BA
100
AcDbEntity
  8
0
 62
   250
370
    25
100
AcDbSpline
210
0.0
220
0.0
230
1.0
 70
     8
 71
     3
 72
    77
 73
    73
 74
     0
 42
0.0000000001
 43
0.0000000001
 12
1.0
 22
0.0
 32
0.0
 13
1.0
 23
0.0
 33
0.0
 40
0.0
 40
0.0
 40
0.0
 40
0.0
 40
1.0
 40
1.0
 40
1.0
 40
2.0
 40
2.0
 40
2.0
 40
3.0
 40
3.0
 40
3.0
 40
4.0
 40
4.0
 40
4.0
 40
5.0
 40
5.0
 40
5.0
 40
6.0
 40
6.0
 40
6.0
 40
7.0
 40
7.0
 40
7.0
 40
8.0
 40
8.0
 40
8.0
 40
9.0
 40
9.0
 40
9.0
 40
10.0
 40
10.0
 40
10.0
 40
11.0
 40
11.0
 40
11.0
 40
12.0
 40
12.0
 40
12.0
 40
13.0
 40
13.0
 40
13.0
 40
14.0
 40
14.0
 40
14.0
 40
15.0
 40
15.0
 40
15.0
 40
16.0
 40
16.0
 40
16.0
 40
17.0
 40
17.0
 40
17.0
 40
18.0
 40
18.0
 40
18.0
 40
19.0
 40
19.0
 40
19.0
 40
20.0
 40
20.0
 40
20.0
 40
21.0
 40
21.0
 40
21.0
 40
22.0
 40
22.0
 40
22.0
 40
23.0
 40
23.0
 40
23.0
 40
24.0
 40
24.0
 40
24.0
 40
24.0
 10
105.3041842792323
 20
-136.8316315140297
 30
0.0
 10
7.560046966277855
 20
-136.8357942916319
 30
0.0
 10
-90.18409034668973
 20
-136.7421670732826
 30
0.0
 10
-187.9280159929906
 20
-136.5518787478212
 30
0.0
 10
-237.8812426875871
 20
-136.4546531962887
 30
0.0
 10
-287.8343988266404
 20
-136.3321687569212
 30
0.0
 10
-337.7874844101384
 20
-136.1829790408717
 30
0.0
 10
-378.7038851393299
 20
-136.0608121014851
 30
0.0
 10
-419.6201800351943
 20
-135.9207240517263
 30
0.0
 10
-460.5364749310464
 20
-135.7706171134928
 30
0.0
 10
-462.7610562840772
 20
-135.7624679471579
 30
0.0
 10
-464.9856729148675
 20
-135.7542835030519
 30
0.0
 10
-467.2102895456696
 20
-135.7475101699946
 30
0.0
 10
-469.796432837311
 20
-135.7396785036664
 30
0.0
 10
-472.3825761289521
 20
-135.7337871150093
 30
0.0
 10
-474.9687546983646
 20
-135.7263082264338
 30
0.0
 10
-475.5938416327304
 20
-135.7245090598361
 30
0.0
 10
-476.2189285670965
 20
-135.7226040599238
 30
0.0
 10
-476.8440155014623
 20
-135.7202404489064
 30
0.0
 10
-479.2999132396392
 20
-135.7108212826347
 30
0.0
 10
-481.7556698667177
 20
-135.6937821166767
 30
0.0
 10
-484.2113206604567
 20
-135.6539535072138
 30
0.0
 10
-489.7634430709346
 20
-135.5639246220476
 30
0.0
 10
-495.3152479814317
 20
-135.3575849083545
 30
0.0
 10
-500.8507898366204
 20
-134.9225040930392
 30
0.0
 10
-506.1429150290729
 20
-134.5065438324643
 30
0.0
 10
-511.4202235550935
 20
-133.8814921916685
 30
0.0
 10
-516.6553045818107
 20
-133.0015233392045
 30
0.0
 10
-521.2985656180491
 20
-132.2210025381655
 30
0.0
 10
-525.9085949881652
 20
-131.2399628565482
 30
0.0
 10
-530.4625326925222
 20
-130.0437287393854
 30
0.0
 10
-535.2885678924954
 20
-128.7760571251872
 30
0.0
 10
-540.0515969823609
 20
-127.2667327432009
 30
0.0
 10
-544.7226921848376
 20
-125.5121219824844
 30
0.0
 10
-549.3170229440904
 20
-123.7863331650156
 30
0.0
 10
-553.8224184270109
 20
-121.8232660240279
 30
0.0
 10
-558.2112561340274
 20
-119.6268716704817
 30
0.0
 10
-562.678763284219
 20
-117.3911425963495
 30
0.0
 10
-567.025479325246
 20
-114.9136549211016
 30
0.0
 10
-571.2233584242223
 20
-112.2052036443004
 30
0.0
 10
-579.4927516242387
 20
-106.8698280317766
 30
0.0
 10
-587.1846123335525
 20
-100.6381852341195
 30
0.0
 10
-594.1029372220055
 20
-93.63928607932918
 30
0.0
 10
-597.6535749425282
 20
-90.04726761686791
 30
0.0
 10
-601.0004834996931
 20
-86.25321332944004
 30
0.0
 10
-604.1223198382366
 20
-82.28277016041793
 30
0.0
 10
-607.2690622875059
 20
-78.28071810381064
 30
0.0
 10
-610.1871341849076
 20
-74.09949022130958
 30
0.0
 10
-612.859708030701
 20
-69.76660317840197
 30
0.0
 10
-615.5300946543086
 20
-65.43731446869033
 30
0.0
 10
-617.9553360040991
 20
-60.95657826523983
 30
0.0
 10
-620.1317631912309
 20
-56.35893151107156
 30
0.0
 10
-622.1534973253044
 20
-52.08799224337245
 30
0.0
 10
-623.9604956294966
 20
-47.71615853541552
 30
0.0
 10
-625.5615775481309
 20
-43.27055899716416
 30
0.0
 10
-627.1969494662027
 20
-38.72985057398592
 30
0.0
 10
-628.617479721079
 20
-34.11220132063854
 30
0.0
 10
-629.8480391456934
 20
-29.4453748471122
 30
0.0
 10
-631.1161694030175
 20
-24.63595560169894
 30
0.0
 10
-632.1825460524894
 20
-19.77432524734271
 30
0.0
 10
-633.0912310378338
 20
-14.8844021163752
 30
0.0
 10
-634.0885337995422
 20
-9.517629282932607
 30
0.0
 10
-634.8959010087417
 20
-4.116778117548428
 30
0.0
 10
-635.6005040529373
 20
1.296490825074697
 30
0.0
 10
-636.1003548782111
 20
5.136617888375331
 30
0.0
 10
-636.5485237598813
 20
8.983024395856894
 30
0.0
 10
-636.979900419583
 20
12.83133590326355
 30
0.0
 10
-637.4878651336254
 20
17.36269571573858
 30
0.0
 10
-637.9725817924877
 20
21.89673663921205
 30
0.0
 10
-638.4316515072966
 20
26.43335284034433
 30
0.0
 10
-642.5357269966735
 20
66.9906247729879
 30
0.0
 10
-644.5909044635487
 20
107.755083085953
 30
0.0
 10
-644.5917511301905
 20
148.5194355655662
 30
0.0
  0
ENDBLK
  5
BD
330
BA
100
AcDbEntity
  8
0
100
AcDbBlockEnd
  0
BLOCK
  5
C1
330
BF
100
AcDbEntity
  8
0
100
AcDbBlockBegin
  2
block 25
 70
     0
 10
0.0
 20
0.0
 30
0.0
  3
block 25
  1

  0
SPLINE
  5
C3
330
BF
100
AcDbEntity
  8
0
 62
   250
370
    25
100
AcDbSpline
210
0.0
220
0.0
230
1.0
 70
     8
 71
     3
 72
    80
 73
    76
 74
     0
 42
0.0000000001
 43
0.0000000001
 12
1.0
 22
0.0
 32
0.0
 13
1.0
 23
0.0
 33
0.0
 40
0.0
 40
0.0
 40
0.0
 40
0.0
 40
1.0
 40
1.0
 40
1.0
 40
2.0
 40
2.0
 40
2.0
 40
3.0
 40
3.0
 40
3.0
 40
4.0
 40
4.0
 40
4.0
 40
5.0
 40
5.0
 40
5.0
 40
6.0
 40
6.0
 40
6.0
 40
7.0
 40
7.0
 40
7.0
 40
8.0
 40
8.0
 40
8.0
 40
9.0
 40
9.0
 40
9.0
 40
10.0
 40
10.0
 40
10.0
 40
11.0
 40
11.0
 40
11.0
 40
12.0
 40
12.0
 40
12.0
 40
13.0
 40
13.0
 40
13.0
 40
14.0
 40
14.0
 40
14.0
 40
15.0
 40
15.0
 40
15.0
 40
16.0
 40
16.0
 40
16.0
 40
17.0
 40
17.0
 40
17.0
 40
18.0
 40
18.0
 40
18.0
 40
19.0
 40
19.0
 40
19.0
 40
20.0
 40
20.0
 40
20.0
 40
21.0
 40
21.0
 40
21.0
 40
22.0
 40
22.0
 40
22.0
 40
23.0
 40
23.0
 40
23.0
 40
24.0
 40
24.0
 40
24.0
 40
25.0
 40
25.0
 40
25.0
 40
25.0
 10
105.3044312236704
 20
-136.8316315140297
 30
0.0
 10
204.2859012944648
 20
-136.8274334586435
 30
0.0
 10
303.2673713652458
 20
-136.7242812406956
 30
0.0
 10
402.2486297693725
 20
-136.5207284713277
 30
0.0
 10
461.8813729745796
 20
-136.3980676430771
 30
0.0
 10
521.5139750686747
 20
-136.2389648718796
 30
0.0
 10
581.1465066072276
 20
-136.0435612688595
 30
0.0
 10
616.1634399315398
 20
-135.9288379402767
 30
0.0
 10
651.1803027002827
 20
-135.8015557233192
 30
0.0
 10
686.1971301912674
 20
-135.6601623958391
 30
0.0
 10
687.5112273923047
 20
-135.6548354516139
 30
0.0
 10
688.8253245933428
 20
-135.6495085073888
 30
0.0
 10
690.1393865165961
 20
-135.6406537855362
 30
0.0
 10
692.1701870394065
 20
-135.6268954527669
 30
0.0
 10
694.2009522844464
 20
-135.6047057314663
 30
0.0
 10
696.2314705850475
 20
-135.5690751773896
 30
0.0
 10
697.5757302855952
 20
-135.545474345028
 30
0.0
 10
698.9198841528025
 20
-135.5159821240215
 30
0.0
 10
700.2638263533563
 20
-135.4778468478295
 30
0.0
 10
702.1632171560675
 20
-135.4239424056156
 30
0.0
 10
704.0621493476735
 20
-135.3527165752346
 30
0.0
 10
705.9600232059706
 20
-135.2603593568355
 30
0.0
 10
708.5685678861313
 20
-135.1334299176423
 30
0.0
 10
711.1751722885443
 20
-134.96656603566
 30
0.0
 10
713.7777550243644
 20
-134.7487963224434
 30
0.0
 10
719.0648707724566
 20
-134.3064482851945
 30
0.0
 10
724.3354059652596
 20
-133.6540916455266
 30
0.0
 10
729.5624083809862
 20
-132.7455477942401
 30
0.0
 10
734.2583391386062
 20
-131.9292906057982
 30
0.0
 10
738.9190979523454
 20
-130.9062703703542
 30
0.0
 10
743.5210839892608
 20
-129.6649512550596
 30
0.0
 10
748.3809505775731
 20
-128.3540643648696
 30
0.0
 10
753.17530633361
 20
-126.7997608180777
 30
0.0
 10
757.8754351467068
 20
-124.9982658926446
 30
0.0
 10
767.0199288881614
 20
-121.4932777043573
 30
0.0
 10
775.8078348575923
 20
-117.052652332579
 30
0.0
 10
784.0329191694143
 20
-111.7375614414313
 30
0.0
 10
792.3881079236013
 20
-106.3384388870884
 30
0.0
 10
800.1625891871399
 20
-100.0369460923273
 30
0.0
 10
807.1549974077292
 20
-92.96103555183788
 30
0.0
 10
810.7520254052997
 20
-89.32100403582052
 30
0.0
 10
814.1420786839649
 20
-85.4760791949428
 30
0.0
 10
817.3009566885966
 20
-81.44979130601129
 30
0.0
 10
820.394147472058
 20
-77.50718230250872
 30
0.0
 10
823.2656527035418
 20
-73.39072441731248
 30
0.0
 10
825.8986096055257
 20
-69.12698181599184
 30
0.0
 10
828.530472896429
 20
-64.864967825701
 30
0.0
 10
830.9239995244989
 20
-60.45581023039647
 30
0.0
 10
833.0729806009676
 20
-55.93104736210966
 30
0.0
 10
835.0650461244069
 20
-51.73666086902955
 30
0.0
 10
836.8469972067884
 20
-47.44293215782611
 30
0.0
 10
838.4251485702295
 20
-43.07600206077306
 30
0.0
 10
840.0470796551854
 20
-38.58792807985839
 30
0.0
 10
841.4537810213964
 20
-34.02252521323727
 30
0.0
 10
842.6651140574306
 20
-29.40674568203039
 30
0.0
 10
843.9784704251401
 20
-24.40220505581972
 30
0.0
 10
845.0622037410011
 20
-19.33843304314442
 30
0.0
 10
845.9715237263332
 20
-14.24481603173618
 30
0.0
 10
846.5439762171138
 20
-11.03820727556004
 30
0.0
 10
847.0472842645493
 20
-7.819745186539707
 30
0.0
 10
847.5041314794081
 20
-4.594650875559398
 30
0.0
 10
847.8310153630248
 20
-2.28699041550214
 30
0.0
 10
848.1341220248064
 20
0.0240567110705732
 30
0.0
 10
848.4211420201752
 20
2.337008837581851
 30
0.0
 10
848.6977550712759
 20
4.566176245323275
 30
0.0
 10
848.9594456226109
 20
6.797142819650172
 30
0.0
 10
849.214362840722
 20
9.028920782847182
 30
0.0
 10
849.443492003694
 20
11.03499153315964
 30
0.0
 10
849.6671531112025
 20
13.04173256123149
 30
0.0
 10
849.885981163221
 20
15.0489674781546
 30
0.0
 10
850.3845972662906
 20
19.62230784444296
 30
0.0
 10
850.8582367031056
 20
24.19836459950085
 30
0.0
 10
851.3062291958801
 20
28.77696135447149
 30
0.0
 10
855.1993082997849
 20
68.56447220785373
 30
0.0
 10
857.1555316015712
 20
108.5418127756114
 30
0.0
 10
857.1552846571329
 20
148.5194002877948
 30
0.0
  0
ENDBLK
  5
C2
330
BF
100
AcDbEntity
  8
0
100
AcDbBlockEnd
  0
BLOCK
  5
C6
330
C4
100
AcDbEntity
  8
0
100
AcDbBlockBegin
  2
block 26
 70
     0
 10
0.0
 20
0.0
 30
0.0
  3
block 26
  1

  0
POLYLINE
  5
C8
330
C4
100
AcDbEntity
  8
0
 62
   250
370
    25
100
AcDb2dPolyline
 66
     1
 10
0.0
 20
0.0
 30
0.0
  0
VERTEX
  5
C9
330
C8
100
AcDbEntity
  8
0
 62
   250
370
    25
100
AcDbVertex
100
AcDb2dVertex
 10
-577.5762096582423
 20
404.8714172308652
 30
0.0
  0
VERTEX
  5
CA
330
C8
100
AcDbEntity
  8
0
 62
   250
370
    25
100
AcDbVertex
100
AcDb2dVertex
 10
-352.7618072242635
 20
286.0711313562376
 30
0.0
  0
SEQEND
  5
CB
330
C8
100
AcDbEntity
  8
0
 62
   250
370
    25
  0
ENDBLK
  5
C7
330
C4
100
AcDbEntity
  8
0
100
AcDbBlockEnd
  0
BLOCK
  5
CE
330
CC
100
AcDbEntity
  8
0
100
AcDbBlockBegin
  2
block 27
 70
     0
 10
0.0
 20
0.0
 30
0.0
  3
block 27
  1

  0
POLYLINE
  5
D0
330
CC
100
AcDbEntity
  8
0
 62
   250
370
    25
100
AcDb2dPolyline
 66
     1
 10
0.0
 20
0.0
 30
0.0
  0
VERTEX
  5
D1
330
D0
100
AcDbEntity
  8
0
 62
   250
370
    25
100
AcDbVertex
100
AcDb2dVertex
 10
705.7725570978827
 20
11.57664651074852
 30
0.0
  0
VERTEX
  5
D2
330
D0
100
AcDbEntity
  8
0
 62
   250
370
    25
100
AcDbVertex
100
AcDb2dVertex
 10
809.1762250750628
 20
-90.85916929857825
 30
0.0
  0
SEQEND
  5
D3
330
D0
100
AcDbEntity
  8
0
 62
   250
370
    25
  0
ENDBLK
  5
CF
330
CC
100
AcDbEntity
  8
0
100
AcDbBlockEnd
  0
BLOCK
  5
D6
330
D4
100
AcDbEntity
  8
0
100
AcDbBlockBegin
  2
block 28
 70
     0
 10
0.0
 20
0.0
 30
0.0
  3
block 28
  1

  0
SPLINE
  5
D8
330
D4
100
AcDbEntity
  8
0
 62
   250
370
    25
100
AcDbSpline
210
0.0
220
0.0
230
1.0
 70
     8
 71
     3
 72
     8
 73
     4
 74
     0
 42
0.0000000001
 43
0.0000000001
 12
1.0
 22
0.0
 32
0.0
 13
1.0
 23
0.0
 33
0.0
 40
0.0
 40
0.0
 40
0.0
 40
0.0
 40
1.0
 40
1.0
 40
1.0
 40
1.0
 10
707.1854320751012
 20
283.7206788941397
 30
0.0
 10
709.3638871770615
 20
287.2568883242446
 30
0.0
 10
810.1057027998054
 20
386.9159640962194
 30
0.0
 10
810.1057027998054
 20
386.9159640962194
 30
0.0
  0
ENDBLK
  5
D7
330
D4
100
AcDbEntity
  8
0
100
AcDbBlockEnd
  0
BLOCK
  5
DB
330
D9
100
AcDbEntity
  8
0
100
AcDbBlockBegin
  2
block 29
 70
     0
 10
0.0
 20
0.0
 30
0.0
  3
block 29
  1

  0
POLYLINE
  5
DD
330
D9
100
AcDbEntity
  8
0
 62
   250
370
    25
100
AcDb2dPolyline
 66
     1
 10
0.0
 20
0.0
 30
0.0
  0
VERTEX
  5
DE
330
DD
100
AcDbEntity
  8
0
 62
   250
370
    25
100
AcDbVertex
100
AcDb2dVertex
 10
-352.7779997240037
 20
10.98863653507764
 30
0.0
  0
VERTEX
  5
DF
330
DD
100
AcDbEntity
  8
0
 62
   250
370
    25
100
AcDbVertex
100
AcDb2dVertex
 10
-571.2233584242223
 20
-112.2052036443004
 30
0.0
  0
SEQEND
  5
E0
330
DD
100
AcDbEntity
  8
0
 62
   250
370
    25
  0
ENDBLK
  5
DC
330
D9
100
AcDbEntity
  8
0
100
AcDbBlockEnd
  0
BLOCK
  5
E3
330
E1
100
AcDbEntity
  8
0
100
AcDbBlockBegin
  2
block 30
 70
     0
 10
0.0
 20
0.0
 30
0.0
  3
block 30
  1

  0
SPLINE
  5
E5
330
E1
100
AcDbEntity
  8
0
 62
   250
370
    25
100
AcDbSpline
210
0.0
220
0.0
230
1.0
 70
     8
 71
     3
 72
    11
 73
     7
 74
     0
 42
0.0000000001
 43
0.0000000001
 12
1.0
 22
0.0
 32
0.0
 13
1.0
 23
0.0
 33
0.0
 40
0.0
 40
0.0
 40
0.0
 40
0.0
 40
1.0
 40
1.0
 40
1.0
 40
2.0
 40
2.0
 40
2.0
 40
2.0
 10
613.4281918486744
 20
125.9348692188986
 30
0.0
 10
600.8266190100994
 20
119.0505886291593
 30
0.0
 10
585.0302206083943
 20
123.6853821615562
 30
0.0
 10
578.14597512252
 20
136.2869194040253
 30
0.0
 10
571.2616943588611
 20
148.8884919242527
 30
0.0
 10
575.8964880083481
 20
164.6848991711554
 30
0.0
 10
588.498060846923
 20
171.5691446570364
 30
0.0
  0
ENDBLK
  5
E4
330
E1
100
AcDbEntity
  8
0
100
AcDbBlockEnd
  0
BLOCK
  5
E8
330
E6
100
AcDbEntity
  8
0
100
AcDbBlockBegin
  2
block 31
 70
     0
 10
0.0
 20
0.0
 30
0.0
  3
block 31
  1

  0
SPLINE
  5
EA
330
E6
100
AcDbEntity
  8
0
 62
   250
370
    25
100
AcDbSpline
210
0.0
220
0.0
230
1.0
 70
     8
 71
     3
 72
    11
 73
     7
 74
     0
 42
0.0000000001
 43
0.0000000001
 12
1.0
 22
0.0
 32
0.0
 13
1.0
 23
0.0
 33
0.0
 40
0.0
 40
0.0
 40
0.0
 40
0.0
 40
1.0
 40
1.0
 40
1.0
 40
2.0
 40
2.0
 40
2.0
 40
2.0
 10
588.498060846923
 20
171.5691446570364
 30
0.0
 10
601.0995984077261
 20
178.4534254206889
 30
0.0
 10
616.8959968094313
 20
173.8186317712019
 30
0.0
 10
623.7802422953191
 20
161.2170589326273
 30
0.0
 10
630.6645230589645
 20
148.6155125335312
 30
0.0
 10
626.0297294094776
 20
132.8191145308724
 30
0.0
 10
613.4281918486744
 20
125.9348692188986
 30
0.0
  0
ENDBLK
  5
E9
330
E6
100
AcDbEntity
  8
0
100
AcDbBlockEnd
  0
BLOCK
  5
ED
330
EB
100
AcDbEntity
  8
0
100
AcDbBlockBegin
  2
block 32
 70
     0
 10
0.0
 20
0.0
 30
0.0
  3
block 32
  1

  0
SPLINE
  5
EF
330
EB
100
AcDbEntity
  8
0
 62
   250
370
    25
100
AcDbSpline
210
0.0
220
0.0
230
1.0
 70
     8
 71
     3
 72
    11
 73
     7
 74
     0
 42
0.0000000001
 43
0.0000000001
 12
1.0
 22
0.0
 32
0.0
 13
1.0
 23
0.0
 33
0.0
 40
0.0
 40
0.0
 40
0.0
 40
0.0
 40
1.0
 40
1.0
 40
1.0
 40
2.0
 40
2.0
 40
2.0
 40
2.0
 10
579.7315345727745
 20
187.6161563490976
 30
0.0
 10
601.1956245023638
 20
199.3420290600904
 30
0.0
 10
628.1013812763749
 20
191.4476398585805
 30
0.0
 10
639.8272539873678
 20
169.9835852067697
 30
0.0
 10
651.5531266983728
 20
148.5194864413129
 30
0.0
 10
643.6587727746416
 20
121.6137303470021
 30
0.0
 10
622.194682845051
 20
109.887857932224
 30
0.0
  0
ENDBLK
  5
EE
330
EB
100
AcDbEntity
  8
0
100
AcDbBlockEnd
  0
BLOCK
  5
F2
330
F0
100
AcDbEntity
  8
0
100
AcDbBlockBegin
  2
block 33
 70
     0
 10
0.0
 20
0.0
 30
0.0
  3
block 33
  1

  0
SPLINE
  5
F4
330
F0
100
AcDbEntity
  8
0
 62
   250
370
    25
100
AcDbSpline
210
0.0
220
0.0
230
1.0
 70
     8
 71
     3
 72
    11
 73
     7
 74
     0
 42
0.0000000001
 43
0.0000000001
 12
1.0
 22
0.0
 32
0.0
 13
1.0
 23
0.0
 33
0.0
 40
0.0
 40
0.0
 40
0.0
 40
0.0
 40
1.0
 40
1.0
 40
1.0
 40
2.0
 40
2.0
 40
2.0
 40
2.0
 10
622.194682845051
 20
109.887857932224
 30
0.0
 10
600.7306281932335
 20
98.16198551743946
 30
0.0
 10
573.8248714192224
 20
106.0563392417569
 30
0.0
 10
562.0989634304578
 20
127.5204286291105
 30
0.0
 10
550.3730907194534
 20
148.9844827387
 30
0.0
 10
558.2674799209685
 20
175.8902836380926
 30
0.0
 10
579.7315345727745
 20
187.6161563490976
 30
0.0
  0
ENDBLK
  5
F3
330
F0
100
AcDbEntity
  8
0
100
AcDbBlockEnd
  0
BLOCK
  5
F7
330
F5
100
AcDbEntity
  8
0
100
AcDbBlockBegin
  2
block 34
 70
     0
 10
0.0
 20
0.0
 30
0.0
  3
block 34
  1

  0
POLYLINE
  5
F9
330
F5
100
AcDbEntity
  8
0
 62
     4
370
    25
100
AcDb2dPolyline
 66
     1
 10
0.0
 20
0.0
 30
0.0
  0
VERTEX
  5
FA
330
F9
100
AcDbEntity
  8
0
 62
     4
370
    25
100
AcDbVertex
100
AcDb2dVertex
 10
666.7162675545688
 20
149.1255633104293
 30
0.0
  0
VERTEX
  5
FB
330
F9
100
AcDbEntity
  8
0
 62
     4
370
    25
100
AcDbVertex
100
AcDb2dVertex
 10
655.4661790564048
 20
149.1255633104293
 30
0.0
  0
SEQEND
  5
FC
330
F9
100
AcDbEntity
  8
0
 62
     4
370
    25
  0
ENDBLK
  5
F8
330
F5
100
AcDbEntity
  8
0
100
AcDbBlockEnd
  0
BLOCK
  5
FF
330
FD
100
AcDbEntity
  8
0
100
AcDbBlockBegin
  2
block 35
 70
     0
 10
0.0
 20
0.0
 30
0.0
  3
block 35
  1

  0
POLYLINE
  5
101
330
FD
100
AcDbEntity
  8
0
  6
AI-Linetype-1
 62
     4
370
    25
100
AcDb2dPolyline
 66
     1
 10
0.0
 20
0.0
 30
0.0
  0
VERTEX
  5
102
330
101
100
AcDbEntity
  8
0
  6
AI-Linetype-1
 62
     4
370
    25
100
AcDbVertex
100
AcDb2dVertex
 10
651.892107808926
 20
149.1255633104293
 30
0.0
  0
VERTEX
  5
103
330
101
100
AcDbEntity
  8
0
  6
AI-Linetype-1
 62
     4
370
    25
100
AcDbVertex
100
AcDb2dVertex
 10
646.5309363421673
 20
149.1255633104293
 30
0.0
  0
SEQEND
  5
105
330
101
100
AcDbEntity
  8
0
  6
AI-Linetype-1
 62
     4
370
    25
  0
ENDBLK
  5
100
330
FD
100
AcDbEntity
  8
0
100
AcDbBlockEnd
  0
BLOCK
  5
108
330
106
100
AcDbEntity
  8
0
100
AcDbBlockBegin
  2
block 36
 70
     0
 10
0.0
 20
0.0
 30
0.0
  3
block 36
  1

  0
POLYLINE
  5
10A
330
106
100
AcDbEntity
  8
0
  6
AI-Linetype-2
 62
     4
370
    25
100
AcDb2dPolyline
 66
     1
 10
0.0
 20
0.0
 30
0.0
  0
VERTEX
  5
10B
330
10A
100
AcDbEntity
  8
0
  6
AI-Linetype-2
 62
     4
370
    25
100
AcDbVertex
100
AcDb2dVertex
 10
644.743879186581
 20
149.1255633104293
 30
0.0
  0
VERTEX
  5
10C
330
10A
100
AcDbEntity
  8
0
  6
AI-Linetype-2
 62
     4
370
    25
100
AcDbVertex
100
AcDb2dVertex
 10
550.0298499405113
 20
149.1255633104293
 30
0.0
  0
SEQEND
  5
10E
330
10A
100
AcDbEntity
  8
0
  6
AI-Linetype-2
 62
     4
370
    25
  0
ENDBLK
  5
109
330
106
100
AcDbEntity
  8
0
100
AcDbBlockEnd
  0
BLOCK
  5
111
330
10F
100
AcDbEntity
  8
0
100
AcDbBlockBegin
  2
block 37
 70
     0
 10
0.0
 20
0.0
 30
0.0
  3
block 37
  1

  0
POLYLINE
  5
113
330
10F
100
AcDbEntity
  8
0
 62
     4
370
    25
100
AcDb2dPolyline
 66
     1
 10
0.0
 20
0.0
 30
0.0
  0
VERTEX
  5
114
330
113
100
AcDbEntity
  8
0
 62
     4
370
    25
100
AcDbVertex
100
AcDb2dVertex
 10
548.2427927849251
 20
149.1255633104293
 30
0.0
  0
VERTEX
  5
115
330
113
100
AcDbEntity
  8
0
 62
     4
370
    25
100
AcDbVertex
100
AcDb2dVertex
 10
536.9927473504546
 20
149.1255633104293
 30
0.0
  0
SEQEND
  5
116
330
113
100
AcDbEntity
  8
0
 62
     4
370
    25
  0
ENDBLK
  5
112
330
10F
100
AcDbEntity
  8
0
100
AcDbBlockEnd
  0
BLOCK
  5
119
330
117
100
AcDbEntity
  8
0
100
AcDbBlockBegin
  2
block 38
 70
     0
 10
0.0
 20
0.0
 30
0.0
  3
block 38
  1

  0
POLYLINE
  5
11B
330
117
100
AcDbEntity
  8
0
 62
     4
370
    25
100
AcDb2dPolyline
 66
     1
 10
0.0
 20
0.0
 30
0.0
  0
VERTEX
  5
11C
330
11B
100
AcDbEntity
  8
0
 62
     4
370
    25
100
AcDbVertex
100
AcDb2dVertex
 10
600.6251251286003
 20
213.9286598959264
 30
0.0
  0
VERTEX
  5
11D
330
11B
100
AcDbEntity
  8
0
 62
     4
370
    25
100
AcDbVertex
100
AcDb2dVertex
 10
600.6251251286003
 20
202.6785713977623
 30
0.0
  0
SEQEND
  5
11E
330
11B
100
AcDbEntity
  8
0
 62
     4
370
    25
  0
ENDBLK
  5
11A
330
117
100
AcDbEntity
  8
0
100
AcDbBlockEnd
  0
BLOCK
  5
121
330
11F
100
AcDbEntity
  8
0
100
AcDbBlockBegin
  2
block 39
 70
     0
 10
0.0
 20
0.0
 30
0.0
  3
block 39
  1

  0
POLYLINE
  5
123
330
11F
100
AcDbEntity
  8
0
  6
AI-Linetype-3
 62
     4
370
    25
100
AcDb2dPolyline
 66
     1
 10
0.0
 20
0.0
 30
0.0
  0
VERTEX
  5
124
330
123
100
AcDbEntity
  8
0
  6
AI-Linetype-3
 62
     4
370
    25
100
AcDbVertex
100
AcDb2dVertex
 10
600.6251251286003
 20
199.1044893843601
 30
0.0
  0
VERTEX
  5
125
330
123
100
AcDbEntity
  8
0
  6
AI-Linetype-3
 62
     4
370
    25
100
AcDbVertex
100
AcDb2dVertex
 10
600.6251251286003
 20
193.7433502153716
 30
0.0
  0
SEQEND
  5
127
330
123
100
AcDbEntity
  8
0
  6
AI-Linetype-3
 62
     4
370
    25
  0
ENDBLK
  5
122
330
11F
100
AcDbEntity
  8
0
100
AcDbBlockEnd
  0
BLOCK
  5
12A
330
128
100
AcDbEntity
  8
0
100
AcDbBlockBegin
  2
block 40
 70
     0
 10
0.0
 20
0.0
 30
0.0
  3
block 40
  1

  0
POLYLINE
  5
12C
330
128
100
AcDbEntity
  8
0
  6
AI-Linetype-4
 62
     4
370
    25
100
AcDb2dPolyline
 66
     1
 10
0.0
 20
0.0
 30
0.0
  0
VERTEX
  5
12D
330
12C
100
AcDbEntity
  8
0
  6
AI-Linetype-4
 62
     4
370
    25
100
AcDbVertex
100
AcDb2dVertex
 10
600.6251251286003
 20
191.9563038257087
 30
0.0
  0
VERTEX
  5
12E
330
12C
100
AcDbEntity
  8
0
  6
AI-Linetype-4
 62
     4
370
    25
100
AcDbVertex
100
AcDb2dVertex
 10
600.6251251286003
 20
97.24244683441324
 30
0.0
  0
SEQEND
  5
130
330
12C
100
AcDbEntity
  8
0
  6
AI-Linetype-4
 62
     4
370
    25
  0
ENDBLK
  5
12B
330
128
100
AcDbEntity
  8
0
100
AcDbBlockEnd
  0
BLOCK
  5
133
330
131
100
AcDbEntity
  8
0
100
AcDbBlockBegin
  2
block 41
 70
     0
 10
0.0
 20
0.0
 30
0.0
  3
block 41
  1

  0
POLYLINE
  5
135
330
131
100
AcDbEntity
  8
0
 62
     4
370
    25
100
AcDb2dPolyline
 66
     1
 10
0.0
 20
0.0
 30
0.0
  0
VERTEX
  5
136
330
135
100
AcDbEntity
  8
0
 62
     4
370
    25
100
AcDbVertex
100
AcDb2dVertex
 10
600.6251251286003
 20
95.45541121067382
 30
0.0
  0
VERTEX
  5
137
330
135
100
AcDbEntity
  8
0
 62
     4
370
    25
100
AcDbVertex
100
AcDb2dVertex
 10
600.6251251286003
 20
84.20532271250977
 30
0.0
  0
SEQEND
  5
138
330
135
100
AcDbEntity
  8
0
 62
     4
370
    25
  0
ENDBLK
  5
134
330
131
100
AcDbEntity
  8
0
100
AcDbBlockEnd
  0
ENDSEC
  0
SECTION
  2
ENTITIES
  0
INSERT
  5
41
330
1F
100
AcDbEntity
  8
0
100
AcDbBlockReference
  2
block 2
 10
0.0
 20
0.0
 30
0.0
  0
INSERT
  5
46
330
1F
100
AcDbEntity
  8
0
100
AcDbBlockReference
  2
block 3
 10
0.0
 20
0.0
 30
0.0
  0
INSERT
  5
4B
330
1F
100
AcDbEntity
  8
0
100
AcDbBlockReference
  2
block 4
 10
0.0
 20
0.0
 30
0.0
  0
INSERT
  5
50
330
1F
100
AcDbEntity
  8
0
100
AcDbBlockReference
  2
block 5
 10
0.0
 20
0.0
 30
0.0
  0
INSERT
  5
58
330
1F
100
AcDbEntity
  8
0
100
AcDbBlockReference
  2
block 6
 10
0.0
 20
0.0
 30
0.0
  0
INSERT
  5
5D
330
1F
100
AcDbEntity
  8
0
100
AcDbBlockReference
  2
block 7
 10
0.0
 20
0.0
 30
0.0
  0
INSERT
  5
65
330
1F
100
AcDbEntity
  8
0
100
AcDbBlockReference
  2
block 8
 10
0.0
 20
0.0
 30
0.0
  0
INSERT
  5
6A
330
1F
100
AcDbEntity
  8
0
100
AcDbBlockReference
  2
block 9
 10
0.0
 20
0.0
 30
0.0
  0
INSERT
  5
72
330
1F
100
AcDbEntity
  8
0
100
AcDbBlockReference
  2
block 10
 10
0.0
 20
0.0
 30
0.0
  0
INSERT
  5
77
330
1F
100
AcDbEntity
  8
0
100
AcDbBlockReference
  2
block 11
 10
0.0
 20
0.0
 30
0.0
  0
INSERT
  5
7F
330
1F
100
AcDbEntity
  8
0
100
AcDbBlockReference
  2
block 12
 10
0.0
 20
0.0
 30
0.0
  0
INSERT
  5
84
330
1F
100
AcDbEntity
  8
0
100
AcDbBlockReference
  2
block 13
 10
0.0
 20
0.0
 30
0.0
  0
INSERT
  5
89
330
1F
100
AcDbEntity
  8
0
100
AcDbBlockReference
  2
block 14
 10
0.0
 20
0.0
 30
0.0
  0
INSERT
  5
8E
330
1F
100
AcDbEntity
  8
0
100
AcDbBlockReference
  2
block 15
 10
0.0
 20
0.0
 30
0.0
  0
INSERT
  5
93
330
1F
100
AcDbEntity
  8
0
100
AcDbBlockReference
  2
block 16
 10
0.0
 20
0.0
 30
0.0
  0
INSERT
  5
98
330
1F
100
AcDbEntity
  8
0
100
AcDbBlockReference
  2
block 17
 10
0.0
 20
0.0
 30
0.0
  0
INSERT
  5
9D
330
1F
100
AcDbEntity
  8
0
100
AcDbBlockReference
  2
block 18
 10
0.0
 20
0.0
 30
0.0
  0
INSERT
  5
A2
330
1F
100
AcDbEntity
  8
0
100
AcDbBlockReference
  2
block 19
 10
0.0
 20
0.0
 30
0.0
  0
INSERT
  5
A7
330
1F
100
AcDbEntity
  8
0
100
AcDbBlockReference
  2
block 20
 10
0.0
 20
0.0
 30
0.0
  0
INSERT
  5
AC
330
1F
100
AcDbEntity
  8
0
100
AcDbBlockReference
  2
block 21
 10
0.0
 20
0.0
 30
0.0
  0
INSERT
  5
B1
330
1F
100
AcDbEntity
  8
0
100
AcDbBlockReference
  2
block 22
 10
0.0
 20
0.0
 30
0.0
  0
INSERT
  5
B6
330
1F
100
AcDbEntity
  8
0
100
AcDbBlockReference
  2
block 23
 10
0.0
 20
0.0
 30
0.0
  0
INSERT
  5
BB
330
1F
100
AcDbEntity
  8
0
100
AcDbBlockReference
  2
block 24
 10
0.0
 20
0.0
 30
0.0
  0
INSERT
  5
C0
330
1F
100
AcDbEntity
  8
0
100
AcDbBlockReference
  2
block 25
 10
0.0
 20
0.0
 30
0.0
  0
INSERT
  5
C5
330
1F
100
AcDbEntity
  8
0
100
AcDbBlockReference
  2
block 26
 10
0.0
 20
0.0
 30
0.0
  0
INSERT
  5
CD
330
1F
100
AcDbEntity
  8
0
100
AcDbBlockReference
  2
block 27
 10
0.0
 20
0.0
 30
0.0
  0
INSERT
  5
D5
330
1F
100
AcDbEntity
  8
0
100
AcDbBlockReference
  2
block 28
 10
0.0
 20
0.0
 30
0.0
  0
INSERT
  5
DA
330
1F
100
AcDbEntity
  8
0
100
AcDbBlockReference
  2
block 29
 10
0.0
 20
0.0
 30
0.0
  0
INSERT
  5
E2
330
1F
100
AcDbEntity
  8
0
100
AcDbBlockReference
  2
block 30
 10
0.0
 20
0.0
 30
0.0
  0
INSERT
  5
E7
330
1F
100
AcDbEntity
  8
0
100
AcDbBlockReference
  2
block 31
 10
0.0
 20
0.0
 30
0.0
  0
INSERT
  5
EC
330
1F
100
AcDbEntity
  8
0
100
AcDbBlockReference
  2
block 32
 10
0.0
 20
0.0
 30
0.0
  0
INSERT
  5
F1
330
1F
100
AcDbEntity
  8
0
100
AcDbBlockReference
  2
block 33
 10
0.0
 20
0.0
 30
0.0
  0
INSERT
  5
F6
330
1F
100
AcDbEntity
  8
0
100
AcDbBlockReference
  2
block 34
 10
0.0
 20
0.0
 30
0.0
  0
INSERT
  5
FE
330
1F
100
AcDbEntity
  8
0
100
AcDbBlockReference
  2
block 35
 10
0.0
 20
0.0
 30
0.0
  0
INSERT
  5
107
330
1F
100
AcDbEntity
  8
0
100
AcDbBlockReference
  2
block 36
 10
0.0
 20
0.0
 30
0.0
  0
INSERT
  5
110
330
1F
100
AcDbEntity
  8
0
100
AcDbBlockReference
  2
block 37
 10
0.0
 20
0.0
 30
0.0
  0
INSERT
  5
118
330
1F
100
AcDbEntity
  8
0
100
AcDbBlockReference
  2
block 38
 10
0.0
 20
0.0
 30
0.0
  0
INSERT
  5
120
330
1F
100
AcDbEntity
  8
0
100
AcDbBlockReference
  2
block 39
 10
0.0
 20
0.0
 30
0.0
  0
INSERT
  5
129
330
1F
100
AcDbEntity
  8
0
100
AcDbBlockReference
  2
block 40
 10
0.0
 20
0.0
 30
0.0
  0
INSERT
  5
132
330
1F
100
AcDbEntity
  8
0
100
AcDbBlockReference
  2
block 41
 10
0.0
 20
0.0
 30
0.0
  0
ENDSEC
  0
SECTION
  2
OBJECTS
  0
DICTIONARY
  5
C
330
0
100
AcDbDictionary
281
     1
  3
ACAD_GROUP
350
D
  3
ACAD_LAYOUT
350
1A
  3
ACAD_MATERIAL
350
3B
  3
ACAD_MLEADERSTYLE
350
15A
  3
ACAD_MLINESTYLE
350
17
  3
ACAD_PLOTSETTINGS
350
19
  3
ACAD_PLOTSTYLENAME
350
E
  3
ACAD_TABLESTYLE
350
159
  3
ACAD_VISUALSTYLE
350
2A
  0
SUN
  5
3F
330
29
100
AcDbSun
 90
        1
290
     0
 63
     7
421
 16777215
 40
1.0
291
     1
 91
  2455826
 92
 54000000
292
     0
 70
     2
 71
   256
280
     1
  0
DICTIONARY
  5
D
102
{ACAD_REACTORS
330
C
102
}
330
C
100
AcDbDictionary
281
     1
  0
DICTIONARY
  5
1A
102
{ACAD_REACTORS
330
C
102
}
330
C
100
AcDbDictionary
281
     1
  3
Layout1
350
1E
  3
Layout2
350
26
  3
Model
350
22
  0
DICTIONARY
  5
3B
102
{ACAD_REACTORS
330
C
102
}
330
C
100
AcDbDictionary
281
     1
  3
ByBlock
350
3D
  3
ByLayer
350
3C
  3
Global
350
3E
  0
DICTIONARY
  5
15A
102
{ACAD_REACTORS
330
C
102
}
330
C
100
AcDbDictionary
281
     1
  0
DICTIONARY
  5
17
102
{ACAD_REACTORS
330
C
102
}
330
C
100
AcDbDictionary
281
     1
  3
Standard
350
18
  0
DICTIONARY
  5
19
102
{ACAD_REACTORS
330
C
102
}
330
C
100
AcDbDictionary
281
     1
  0
ACDBDICTIONARYWDFLT
  5
E
102
{ACAD_REACTORS
330
C
102
}
330
C
100
AcDbDictionary
281
     1
  3
Normal
350
F
100
AcDbDictionaryWithDefault
340
F
  0
DICTIONARY
  5
159
102
{ACAD_REACTORS
330
C
102
}
330
C
100
AcDbDictionary
281
     1
  0
DICTIONARY
  5
2A
102
{ACAD_REACTORS
330
C
102
}
330
C
100
AcDbDictionary
281
     1
  3
2dWireframe
350
2F
  3
3D Hidden
350
31
  3
3dWireframe
350
30
  3
Basic
350
32
  3
Brighten
350
36
  3
ColorChange
350
3A
  3
Conceptual
350
34
  3
Dim
350
35
  3
Facepattern
350
39
  3
Flat
350
2B
  3
FlatWithEdges
350
2C
  3
Gouraud
350
2D
  3
GouraudWithEdges
350
2E
  3
Linepattern
350
38
  3
Realistic
350
33
  3
Thicken
350
37
  0
LAYOUT
  5
1E
102
{ACAD_REACTORS
330
1A
102
}
330
1A
100
AcDbPlotSettings
  1

  2
none_device
  4

  6

 40
0.0
 41
0.0
 42
0.0
 43
0.0
 44
0.0
 45
0.0
 46
0.0
 47
0.0
 48
0.0
 49
0.0
140
0.0
141
0.0
142
1.0
143
1.0
 70
   688
 72
     0
 73
     0
 74
     5
  7

 75
    16
 76
     0
 77
     2
 78
   300
147
1.0
148
0.0
149
0.0
100
AcDbLayout
  1
Layout1
 70
     1
 71
     1
 10
0.0
 20
0.0
 11
12.0
 21
9.0
 12
0.0
 22
0.0
 32
0.0
 14
1.000000000000000E+20
 24
1.000000000000000E+20
 34
1.000000000000000E+20
 15
-1.000000000000000E+20
 25
-1.000000000000000E+20
 35
-1.000000000000000E+20
146
0.0
 13
0.0
 23
0.0
 33
0.0
 16
1.0
 26
0.0
 36
0.0
 17
0.0
 27
1.0
 37
0.0
 76
     0
330
1B
  0
LAYOUT
  5
26
102
{ACAD_REACTORS
330
1A
102
}
330
1A
100
AcDbPlotSettings
  1

  2
none_device
  4

  6

 40
0.0
 41
0.0
 42
0.0
 43
0.0
 44
0.0
 45
0.0
 46
0.0
 47
0.0
 48
0.0
 49
0.0
140
0.0
141
0.0
142
1.0
143
1.0
 70
   688
 72
     0
 73
     0
 74
     5
  7

 75
    16
 76
     0
 77
     2
 78
   300
147
1.0
148
0.0
149
0.0
100
AcDbLayout
  1
Layout2
 70
     1
 71
     2
 10
0.0
 20
0.0
 11
0.0
 21
0.0
 12
0.0
 22
0.0
 32
0.0
 14
0.0
 24
0.0
 34
0.0
 15
0.0
 25
0.0
 35
0.0
146
0.0
 13
0.0
 23
0.0
 33
0.0
 16
1.0
 26
0.0
 36
0.0
 17
0.0
 27
1.0
 37
0.0
 76
     0
330
23
  0
LAYOUT
  5
22
102
{ACAD_REACTORS
330
1A
102
}
330
1A
100
AcDbPlotSettings
  1

  2
none_device
  4

  6

 40
0.0
 41
0.0
 42
0.0
 43
0.0
 44
0.0
 45
0.0
 46
0.0
 47
0.0
 48
0.0
 49
0.0
140
0.0
141
0.0
142
1.0
143
1.0
 70
  1712
 72
     0
 73
     0
 74
     0
  7

 75
     0
 76
     0
 77
     2
 78
   300
147
1.0
148
0.0
149
0.0
100
AcDbLayout
  1
Model
 70
     1
 71
     0
 10
0.0
 20
0.0
 11
12.0
 21
9.0
 12
0.0
 22
0.0
 32
0.0
 14
1.000000000000000E+20
 24
1.000000000000000E+20
 34
1.000000000000000E+20
 15
-1.000000000000000E+20
 25
-1.000000000000000E+20
 35
-1.000000000000000E+20
146
0.0
 13
0.0
 23
0.0
 33
0.0
 16
1.0
 26
0.0
 36
0.0
 17
0.0
 27
1.0
 37
0.0
 76
     0
330
1F
331
29
  0
MATERIAL
  5
3D
102
{ACAD_REACTORS
330
3B
102
}
330
3B
100
AcDbMaterial
  1
ByBlock
 72
     1
 94
      127
  0
MATERIAL
  5
3C
102
{ACAD_REACTORS
330
3B
102
}
330
3B
100
AcDbMaterial
  1
ByLayer
 72
     1
 94
      127
  0
MATERIAL
  5
3E
102
{ACAD_REACTORS
330
3B
102
}
330
3B
100
AcDbMaterial
  1
Global
 72
     1
 94
      127
  0
MLINESTYLE
  5
18
102
{ACAD_REACTORS
330
17
102
}
330
17
100
AcDbMlineStyle
  2
Standard
 70
     0
  3

 62
   256
 51
90.0
 52
90.0
 71
     2
 49
0.5
 62
   256
  6
BYLAYER
 49
-0.5
 62
   256
  6
BYLAYER
  0
ACDBPLACEHOLDER
  5
F
102
{ACAD_REACTORS
330
E
102
}
330
E
  0
VISUALSTYLE
  5
2F
102
{ACAD_REACTORS
330
2A
102
}
102
{ACAD_XDICTIONARY
360
141
102
}
330
2A
100
AcDbVisualStyle
  2
2dWireframe
 70
     4
 71
     0
 72
     2
 73
     0
 90
        0
 40
-0.6
 41
-30.0
 62
     5
 63
     7
421
 16777215
 74
     1
 91
        4
 64
     7
 65
   257
 75
     1
175
     1
 42
1.0
 92
        0
 66
   257
 43
1.0
 76
     1
 77
     6
 78
     2
 67
     7
 79
     5
170
     0
171
     0
290
     0
174
     0
 93
        1
 44
0.0
173
     0
291
     0
 45
0.0
  0
VISUALSTYLE
  5
31
102
{ACAD_REACTORS
330
2A
102
}
102
{ACAD_XDICTIONARY
360
145
102
}
330
2A
100
AcDbVisualStyle
  2
3D Hidden
 70
     6
 71
     1
 72
     2
 73
     2
 90
        0
 40
-0.6
 41
-30.0
 62
     5
 63
     7
421
 16777215
 74
     2
 91
        2
 64
     7
 65
   257
 75
     2
175
     1
 42
40.0
 92
        0
 66
   257
 43
1.0
 76
     1
 77
     6
 78
     2
 67
     7
 79
     3
170
     0
171
     0
290
     0
174
     0
 93
        1
 44
0.0
173
     0
291
     0
 45
0.0
  0
VISUALSTYLE
  5
30
102
{ACAD_REACTORS
330
2A
102
}
102
{ACAD_XDICTIONARY
360
143
102
}
330
2A
100
AcDbVisualStyle
  2
3dWireframe
 70
     5
 71
     0
 72
     2
 73
     0
 90
        0
 40
-0.6
 41
-30.0
 62
     5
 63
     7
421
 16777215
 74
     1
 91
        4
 64
     7
 65
   257
 75
     1
175
     1
 42
1.0
 92
        0
 66
   257
 43
1.0
 76
     1
 77
     6
 78
     2
 67
     7
 79
     5
170
     0
171
     0
290
     0
174
     0
 93
        1
 44
0.0
173
     0
291
     0
 45
0.0
  0
VISUALSTYLE
  5
32
102
{ACAD_REACTORS
330
2A
102
}
102
{ACAD_XDICTIONARY
360
147
102
}
330
2A
100
AcDbVisualStyle
  2
Basic
 70
     7
 71
     1
 72
     0
 73
     1
 90
        0
 40
-0.6
 41
-30.0
 62
     5
 63
     7
421
 16777215
 74
     0
 91
        4
 64
     7
 65
   257
 75
     1
175
     1
 42
1.0
 92
        8
 66
     7
 43
1.0
 76
     1
 77
     6
 78
     2
 67
     7
 79
     5
170
     0
171
     0
290
     0
174
     0
 93
        1
 44
0.0
173
     0
291
     1
 45
0.0
  0
VISUALSTYLE
  5
36
102
{ACAD_REACTORS
330
2A
102
}
102
{ACAD_XDICTIONARY
360
14F
102
}
330
2A
100
AcDbVisualStyle
  2
Brighten
 70
    12
 71
     2
 72
     2
 73
     0
 90
        0
 40
-0.6
 41
-30.0
 62
     5
 63
     7
421
 16777215
 74
     1
 91
        4
 64
     7
 65
   257
 75
     1
175
     1
 42
1.0
 92
        8
 66
     7
 43
1.0
 76
     1
 77
     6
 78
     2
 67
     7
 79
     5
170
     0
171
     0
290
     0
174
     0
 93
        1
 44
50.0
173
     0
291
     1
 45
0.0
  0
VISUALSTYLE
  5
3A
102
{ACAD_REACTORS
330
2A
102
}
102
{ACAD_XDICTIONARY
360
157
102
}
330
2A
100
AcDbVisualStyle
  2
ColorChange
 70
    16
 71
     2
 72
     2
 73
     3
 90
        0
 40
-0.6
 41
-30.0
 62
     5
 63
     8
421
  8421504
 74
     1
 91
        4
 64
     7
 65
   257
 75
     1
175
     1
 42
1.0
 92
        8
 66
     8
424
  8421504
 43
1.0
 76
     1
 77
     6
 78
     2
 67
     7
 79
     5
170
     0
171
     0
290
     0
174
     0
 93
        1
 44
0.0
173
     0
291
     1
 45
0.0
  0
VISUALSTYLE
  5
34
102
{ACAD_REACTORS
330
2A
102
}
102
{ACAD_XDICTIONARY
360
14B
102
}
330
2A
100
AcDbVisualStyle
  2
Conceptual
 70
     9
 71
     3
 72
     2
 73
     0
 90
        0
 40
-0.6
 41
-30.0
 62
     5
 63
     7
421
 16777215
 74
     2
 91
        2
 64
     7
 65
   257
 75
     1
175
     1
 42
40.0
 92
        8
 66
     7
 43
1.0
 76
     1
 77
     6
 78
     2
 67
     7
 79
     3
170
     0
171
     0
290
     0
174
     0
 93
        1
 44
0.0
173
     0
291
     0
 45
0.0
  0
VISUALSTYLE
  5
35
102
{ACAD_REACTORS
330
2A
102
}
102
{ACAD_XDICTIONARY
360
14D
102
}
330
2A
100
AcDbVisualStyle
  2
Dim
 70
    11
 71
     2
 72
     2
 73
     0
 90
        0
 40
-0.6
 41
-30.0
 62
     5
 63
     7
421
 16777215
 74
     1
 91
        4
 64
     7
 65
   257
 75
     1
175
     1
 42
1.0
 92
        8
 66
     7
 43
1.0
 76
     1
 77
     6
 78
     2
 67
     7
 79
     5
170
     0
171
     0
290
     0
174
     0
 93
        1
 44
-50.0
173
     0
291
     1
 45
0.0
  0
VISUALSTYLE
  5
39
102
{ACAD_REACTORS
330
2A
102
}
102
{ACAD_XDICTIONARY
360
155
102
}
330
2A
100
AcDbVisualStyle
  2
Facepattern
 70
    15
 71
     2
 72
     2
 73
     0
 90
        0
 40
-0.6
 41
-30.0
 62
     5
 63
     7
421
 16777215
 74
     1
 91
        4
 64
     7
 65
   257
 75
     1
175
     1
 42
1.0
 92
        8
 66
     7
 43
1.0
 76
     1
 77
     6
 78
     2
 67
     7
 79
     5
170
     0
171
     0
290
     0
174
     0
 93
        1
 44
0.0
173
     0
291
     1
 45
0.0
  0
VISUALSTYLE
  5
2B
102
{ACAD_REACTORS
330
2A
102
}
102
{ACAD_XDICTIONARY
360
139
102
}
330
2A
100
AcDbVisualStyle
  2
Flat
 70
     0
 71
     2
 72
     1
 73
     1
 90
        2
 40
-0.6
 41
30.0
 62
     5
 63
     7
421
 16777215
 74
     0
 91
        4
 64
     7
 65
   257
 75
     1
175
     1
 42
1.0
 92
        8
 66
     7
 43
1.0
 76
     1
 77
     6
 78
     2
 67
     7
 79
     5
170
     0
171
     0
290
     0
174
     0
 93
       13
 44
0.0
173
     0
291
     1
 45
0.0
  0
VISUALSTYLE
  5
2C
102
{ACAD_REACTORS
330
2A
102
}
102
{ACAD_XDICTIONARY
360
13B
102
}
330
2A
100
AcDbVisualStyle
  2
FlatWithEdges
 70
     1
 71
     2
 72
     1
 73
     1
 90
        2
 40
-0.6
 41
30.0
 62
     5
 63
     7
421
 16777215
 74
     1
 91
        4
 64
     7
 65
   257
 75
     1
175
     1
 42
1.0
 92
        0
 66
   257
 43
1.0
 76
     1
 77
     6
 78
     2
 67
     7
 79
     5
170
     0
171
     0
290
     0
174
     0
 93
       13
 44
0.0
173
     0
291
     1
 45
0.0
  0
VISUALSTYLE
  5
2D
102
{ACAD_REACTORS
330
2A
102
}
102
{ACAD_XDICTIONARY
360
13D
102
}
330
2A
100
AcDbVisualStyle
  2
Gouraud
 70
     2
 71
     2
 72
     2
 73
     1
 90
        2
 40
-0.6
 41
30.0
 62
     5
 63
     7
421
 16777215
 74
     0
 91
        4
 64
     7
 65
   257
 75
     1
175
     1
 42
1.0
 92
        0
 66
     7
 43
1.0
 76
     1
 77
     6
 78
     2
 67
     7
 79
     5
170
     0
171
     0
290
     0
174
     0
 93
       13
 44
0.0
173
     0
291
     1
 45
0.0
  0
VISUALSTYLE
  5
2E
102
{ACAD_REACTORS
330
2A
102
}
102
{ACAD_XDICTIONARY
360
13F
102
}
330
2A
100
AcDbVisualStyle
  2
GouraudWithEdges
 70
     3
 71
     2
 72
     2
 73
     1
 90
        2
 40
-0.6
 41
30.0
 62
     5
 63
     7
421
 16777215
 74
     1
 91
        4
 64
     7
 65
   257
 75
     1
175
     1
 42
1.0
 92
        0
 66
   257
 43
1.0
 76
     1
 77
     6
 78
     2
 67
     7
 79
     5
170
     0
171
     0
290
     0
174
     0
 93
       13
 44
0.0
173
     0
291
     1
 45
0.0
  0
VISUALSTYLE
  5
38
102
{ACAD_REACTORS
330
2A
102
}
102
{ACAD_XDICTIONARY
360
153
102
}
330
2A
100
AcDbVisualStyle
  2
Linepattern
 70
    14
 71
     2
 72
     2
 73
     0
 90
        0
 40
-0.6
 41
-30.0
 62
     5
 63
     7
421
 16777215
 74
     1
 91
        4
 64
     7
 65
   257
 75
     7
175
     7
 42
1.0
 92
        8
 66
     7
 43
1.0
 76
     1
 77
     6
 78
     2
 67
     7
 79
     5
170
     0
171
     0
290
     0
174
     0
 93
        1
 44
0.0
173
     0
291
     1
 45
0.0
  0
VISUALSTYLE
  5
33
102
{ACAD_REACTORS
330
2A
102
}
102
{ACAD_XDICTIONARY
360
149
102
}
330
2A
100
AcDbVisualStyle
  2
Realistic
 70
     8
 71
     2
 72
     2
 73
     0
 90
        0
 40
-0.6
 41
-30.0
 62
     5
 63
     7
421
 16777215
 74
     1
 91
        0
 64
     7
 65
   257
 75
     1
175
     1
 42
1.0
 92
        8
 66
     8
424
  7895160
 43
1.0
 76
     1
 77
     6
 78
     2
 67
     7
 79
     5
170
     0
171
     0
290
     0
174
     0
 93
       13
 44
0.0
173
     0
291
     0
 45
0.0
  0
VISUALSTYLE
  5
37
102
{ACAD_REACTORS
330
2A
102
}
102
{ACAD_XDICTIONARY
360
151
102
}
330
2A
100
AcDbVisualStyle
  2
Thicken
 70
    13
 71
     2
 72
     2
 73
     0
 90
        0
 40
-0.6
 41
-30.0
 62
     5
 63
     7
421
 16777215
 74
     1
 91
        4
 64
     7
 65
   257
 75
     1
175
     1
 42
1.0
 92
       12
 66
     7
 43
1.0
 76
     1
 77
     6
 78
     2
 67
     7
 79
     5
170
     0
171
     0
290
     0
174
     0
 93
        1
 44
0.0
173
     0
291
     1
 45
0.0
  0
DICTIONARY
  5
141
330
2F
100
AcDbDictionary
280
     1
281
     1
  3
ACAD_XREC_ROUNDTRIP
360
142
  0
DICTIONARY
  5
145
330
31
100
AcDbDictionary
280
     1
281
     1
  3
ACAD_XREC_ROUNDTRIP
360
146
  0
DICTIONARY
  5
143
330
30
100
AcDbDictionary
280
     1
281
     1
  3
ACAD_XREC_ROUNDTRIP
360
144
  0
DICTIONARY
  5
147
330
32
100
AcDbDictionary
280
     1
281
     1
  3
ACAD_XREC_ROUNDTRIP
360
148
  0
DICTIONARY
  5
14F
330
36
100
AcDbDictionary
280
     1
281
     1
  3
ACAD_XREC_ROUNDTRIP
360
150
  0
DICTIONARY
  5
157
330
3A
100
AcDbDictionary
280
     1
281
     1
  3
ACAD_XREC_ROUNDTRIP
360
158
  0
DICTIONARY
  5
14B
330
34
100
AcDbDictionary
280
     1
281
     1
  3
ACAD_XREC_ROUNDTRIP
360
14C
  0
DICTIONARY
  5
14D
330
35
100
AcDbDictionary
280
     1
281
     1
  3
ACAD_XREC_ROUNDTRIP
360
14E
  0
DICTIONARY
  5
155
330
39
100
AcDbDictionary
280
     1
281
     1
  3
ACAD_XREC_ROUNDTRIP
360
156
  0
DICTIONARY
  5
139
330
2B
100
AcDbDictionary
280
     1
281
     1
  3
ACAD_XREC_ROUNDTRIP
360
13A
  0
DICTIONARY
  5
13B
330
2C
100
AcDbDictionary
280
     1
281
     1
  3
ACAD_XREC_ROUNDTRIP
360
13C
  0
DICTIONARY
  5
13D
330
2D
100
AcDbDictionary
280
     1
281
     1
  3
ACAD_XREC_ROUNDTRIP
360
13E
  0
DICTIONARY
  5
13F
330
2E
100
AcDbDictionary
280
     1
281
     1
  3
ACAD_XREC_ROUNDTRIP
360
140
  0
DICTIONARY
  5
153
330
38
100
AcDbDictionary
280
     1
281
     1
  3
ACAD_XREC_ROUNDTRIP
360
154
  0
DICTIONARY
  5
149
330
33
100
AcDbDictionary
280
     1
281
     1
  3
ACAD_XREC_ROUNDTRIP
360
14A
  0
DICTIONARY
  5
151
330
37
100
AcDbDictionary
280
     1
281
     1
  3
ACAD_XREC_ROUNDTRIP
360
152
  0
XRECORD
  5
142
102
{ACAD_REACTORS
330
141
102
}
330
141
100
AcDbXrecord
280
     1
102
RTVSPropertyOp0
 70
     1
102
RTVSPropertyOp1
 70
     1
102
RTVSPropertyOp2
 70
     1
102
RTVSPropertyOp3
 70
     1
102
RTVSPropertyOp4
 70
     1
102
RTVSPropertyOp5
 70
     1
102
RTVSPropertyOp6
 70
     1
102
RTVSPropertyOp7
 70
     1
102
RTVSPropertyOp8
 70
     1
102
RTVSPropertyOp9
 70
     1
102
RTVSPropertyOp10
 70
     1
102
RTVSPropertyOp11
 70
     1
102
RTVSPropertyOp12
 70
     1
102
RTVSPropertyOp13
 70
     1
102
RTVSPropertyOp14
 70
     1
102
RTVSPropertyOp15
 70
     1
102
RTVSPropertyOp16
 70
     1
102
RTVSPropertyOp17
 70
     1
102
RTVSPropertyOp18
 70
     1
102
RTVSPropertyOp19
 70
     1
102
RTVSPropertyOp20
 70
     1
102
RTVSPropertyOp21
 70
     1
102
RTVSPropertyOp22
 70
     1
102
RTVSPropertyOp23
 70
     1
102
RTVSPropertyOp24
 70
     1
102
RTVSPropertyOp25
 70
     1
102
RTVSPropertyOp26
 70
     1
102
RTVSPropertyOp27
 70
     1
102
RTVSPropertyOp28
 70
     1
102
RTVSPropertyOp29
 70
     1
102
RTVSPropertyOp30
 70
     1
102
RTVSPropertyOp31
 70
     1
102
RTVSPropertyOp32
 70
     1
  0
XRECORD
  5
146
102
{ACAD_REACTORS
330
145
102
}
330
145
100
AcDbXrecord
280
     1
102
RTVSPropertyOp0
 70
     1
102
RTVSPropertyOp1
 70
     1
102
RTVSPropertyOp2
 70
     1
102
RTVSPropertyOp3
 70
     1
102
RTVSPropertyOp4
 70
     1
102
RTVSPropertyOp5
 70
     1
102
RTVSPropertyOp6
 70
     1
102
RTVSPropertyOp7
 70
     1
102
RTVSPropertyOp8
 70
     1
102
RTVSPropertyOp9
 70
     1
102
RTVSPropertyOp10
 70
     1
102
RTVSPropertyOp11
 70
     1
102
RTVSPropertyOp12
 70
     1
102
RTVSPropertyOp13
 70
     1
102
RTVSPropertyOp14
 70
     1
102
RTVSPropertyOp15
 70
     1
102
RTVSPropertyOp16
 70
     1
102
RTVSPropertyOp17
 70
     1
102
RTVSPropertyOp18
 70
     1
102
RTVSPropertyOp19
 70
     1
102
RTVSPropertyOp20
 70
     1
102
RTVSPropertyOp21
 70
     1
102
RTVSPropertyOp22
 70
     1
102
RTVSPropertyOp23
 70
     1
102
RTVSPropertyOp24
 70
     1
102
RTVSPropertyOp25
 70
     1
102
RTVSPropertyOp26
 70
     1
102
RTVSPropertyOp27
 70
     1
102
RTVSPropertyOp28
 70
     1
102
RTVSPropertyOp29
 70
     1
102
RTVSPropertyOp30
 70
     1
102
RTVSPropertyOp31
 70
     1
102
RTVSPropertyOp32
 70
     1
  0
XRECORD
  5
144
102
{ACAD_REACTORS
330
143
102
}
330
143
100
AcDbXrecord
280
     1
102
RTVSPropertyOp0
 70
     1
102
RTVSPropertyOp1
 70
     1
102
RTVSPropertyOp2
 70
     1
102
RTVSPropertyOp3
 70
     1
102
RTVSPropertyOp4
 70
     1
102
RTVSPropertyOp5
 70
     1
102
RTVSPropertyOp6
 70
     1
102
RTVSPropertyOp7
 70
     1
102
RTVSPropertyOp8
 70
     1
102
RTVSPropertyOp9
 70
     1
102
RTVSPropertyOp10
 70
     1
102
RTVSPropertyOp11
 70
     1
102
RTVSPropertyOp12
 70
     1
102
RTVSPropertyOp13
 70
     1
102
RTVSPropertyOp14
 70
     1
102
RTVSPropertyOp15
 70
     1
102
RTVSPropertyOp16
 70
     1
102
RTVSPropertyOp17
 70
     1
102
RTVSPropertyOp18
 70
     1
102
RTVSPropertyOp19
 70
     1
102
RTVSPropertyOp20
 70
     1
102
RTVSPropertyOp21
 70
     1
102
RTVSPropertyOp22
 70
     1
102
RTVSPropertyOp23
 70
     1
102
RTVSPropertyOp24
 70
     1
102
RTVSPropertyOp25
 70
     1
102
RTVSPropertyOp26
 70
     1
102
RTVSPropertyOp27
 70
     1
102
RTVSPropertyOp28
 70
     1
102
RTVSPropertyOp29
 70
     1
102
RTVSPropertyOp30
 70
     1
102
RTVSPropertyOp31
 70
     1
102
RTVSPropertyOp32
 70
     1
  0
XRECORD
  5
148
102
{ACAD_REACTORS
330
147
102
}
330
147
100
AcDbXrecord
280
     1
102
RTVSPropertyOp0
 70
     1
102
RTVSPropertyOp1
 70
     1
102
RTVSPropertyOp2
 70
     1
102
RTVSPropertyOp3
 70
     1
102
RTVSPropertyOp4
 70
     1
102
RTVSPropertyOp5
 70
     1
102
RTVSPropertyOp6
 70
     1
102
RTVSPropertyOp7
 70
     1
102
RTVSPropertyOp8
 70
     1
102
RTVSPropertyOp9
 70
     1
102
RTVSPropertyOp10
 70
     1
102
RTVSPropertyOp11
 70
     1
102
RTVSPropertyOp12
 70
     1
102
RTVSPropertyOp13
 70
     1
102
RTVSPropertyOp14
 70
     1
102
RTVSPropertyOp15
 70
     1
102
RTVSPropertyOp16
 70
     1
102
RTVSPropertyOp17
 70
     1
102
RTVSPropertyOp18
 70
     1
102
RTVSPropertyOp19
 70
     1
102
RTVSPropertyOp20
 70
     1
102
RTVSPropertyOp21
 70
     1
102
RTVSPropertyOp22
 70
     1
102
RTVSPropertyOp23
 70
     1
102
RTVSPropertyOp24
 70
     1
102
RTVSPropertyOp25
 70
     1
102
RTVSPropertyOp26
 70
     1
102
RTVSPropertyOp27
 70
     1
102
RTVSPropertyOp28
 70
     1
102
RTVSPropertyOp29
 70
     1
102
RTVSPropertyOp30
 70
     1
102
RTVSPropertyOp31
 70
     1
102
RTVSPropertyOp32
 70
     1
  0
XRECORD
  5
150
102
{ACAD_REACTORS
330
14F
102
}
330
14F
100
AcDbXrecord
280
     1
102
RTVSPropertyOp0
 70
     1
102
RTVSPropertyOp1
 70
     1
102
RTVSPropertyOp2
 70
     1
102
RTVSPropertyOp3
 70
     1
102
RTVSPropertyOp4
 70
     1
102
RTVSPropertyOp5
 70
     1
102
RTVSPropertyOp6
 70
     1
102
RTVSPropertyOp7
 70
     1
102
RTVSPropertyOp8
 70
     1
102
RTVSPropertyOp9
 70
     1
102
RTVSPropertyOp10
 70
     1
102
RTVSPropertyOp11
 70
     1
102
RTVSPropertyOp12
 70
     1
102
RTVSPropertyOp13
 70
     1
102
RTVSPropertyOp14
 70
     1
102
RTVSPropertyOp15
 70
     1
102
RTVSPropertyOp16
 70
     1
102
RTVSPropertyOp17
 70
     1
102
RTVSPropertyOp18
 70
     1
102
RTVSPropertyOp19
 70
     1
102
RTVSPropertyOp20
 70
     1
102
RTVSPropertyOp21
 70
     1
102
RTVSPropertyOp22
 70
     1
102
RTVSPropertyOp23
 70
     1
102
RTVSPropertyOp24
 70
     1
102
RTVSPropertyOp25
 70
     1
102
RTVSPropertyOp26
 70
     1
102
RTVSPropertyOp27
 70
     1
102
RTVSPropertyOp28
 70
     1
102
RTVSPropertyOp29
 70
     1
102
RTVSPropertyOp30
 70
     1
102
RTVSPropertyOp31
 70
     1
102
RTVSPropertyOp32
 70
     1
  0
XRECORD
  5
158
102
{ACAD_REACTORS
330
157
102
}
330
157
100
AcDbXrecord
280
     1
102
RTVSPropertyOp0
 70
     1
102
RTVSPropertyOp1
 70
     1
102
RTVSPropertyOp2
 70
     1
102
RTVSPropertyOp3
 70
     1
102
RTVSPropertyOp4
 70
     1
102
RTVSPropertyOp5
 70
     1
102
RTVSPropertyOp6
 70
     1
102
RTVSPropertyOp7
 70
     1
102
RTVSPropertyOp8
 70
     1
102
RTVSPropertyOp9
 70
     1
102
RTVSPropertyOp10
 70
     1
102
RTVSPropertyOp11
 70
     1
102
RTVSPropertyOp12
 70
     1
102
RTVSPropertyOp13
 70
     1
102
RTVSPropertyOp14
 70
     1
102
RTVSPropertyOp15
 70
     1
102
RTVSPropertyOp16
 70
     1
102
RTVSPropertyOp17
 70
     1
102
RTVSPropertyOp18
 70
     1
102
RTVSPropertyOp19
 70
     1
102
RTVSPropertyOp20
 70
     1
102
RTVSPropertyOp21
 70
     1
102
RTVSPropertyOp22
 70
     1
102
RTVSPropertyOp23
 70
     1
102
RTVSPropertyOp24
 70
     1
102
RTVSPropertyOp25
 70
     1
102
RTVSPropertyOp26
 70
     1
102
RTVSPropertyOp27
 70
     1
102
RTVSPropertyOp28
 70
     1
102
RTVSPropertyOp29
 70
     1
102
RTVSPropertyOp30
 70
     1
102
RTVSPropertyOp31
 70
     1
102
RTVSPropertyOp32
 70
     1
  0
XRECORD
  5
14C
102
{ACAD_REACTORS
330
14B
102
}
330
14B
100
AcDbXrecord
280
     1
102
RTVSPropertyOp0
 70
     1
102
RTVSPropertyOp1
 70
     1
102
RTVSPropertyOp2
 70
     1
102
RTVSPropertyOp3
 70
     1
102
RTVSPropertyOp4
 70
     1
102
RTVSPropertyOp5
 70
     1
102
RTVSPropertyOp6
 70
     1
102
RTVSPropertyOp7
 70
     1
102
RTVSPropertyOp8
 70
     1
102
RTVSPropertyOp9
 70
     1
102
RTVSPropertyOp10
 70
     1
102
RTVSPropertyOp11
 70
     1
102
RTVSPropertyOp12
 70
     1
102
RTVSPropertyOp13
 70
     1
102
RTVSPropertyOp14
 70
     1
102
RTVSPropertyOp15
 70
     1
102
RTVSPropertyOp16
 70
     1
102
RTVSPropertyOp17
 70
     1
102
RTVSPropertyOp18
 70
     1
102
RTVSPropertyOp19
 70
     1
102
RTVSPropertyOp20
 70
     1
102
RTVSPropertyOp21
 70
     1
102
RTVSPropertyOp22
 70
     1
102
RTVSPropertyOp23
 70
     1
102
RTVSPropertyOp24
 70
     1
102
RTVSPropertyOp25
 70
     1
102
RTVSPropertyOp26
 70
     1
102
RTVSPropertyOp27
 70
     1
102
RTVSPropertyOp28
 70
     1
102
RTVSPropertyOp29
 70
     1
102
RTVSPropertyOp30
 70
     1
102
RTVSPropertyOp31
 70
     1
102
RTVSPropertyOp32
 70
     1
  0
XRECORD
  5
14E
102
{ACAD_REACTORS
330
14D
102
}
330
14D
100
AcDbXrecord
280
     1
102
RTVSPropertyOp0
 70
     1
102
RTVSPropertyOp1
 70
     1
102
RTVSPropertyOp2
 70
     1
102
RTVSPropertyOp3
 70
     1
102
RTVSPropertyOp4
 70
     1
102
RTVSPropertyOp5
 70
     1
102
RTVSPropertyOp6
 70
     1
102
RTVSPropertyOp7
 70
     1
102
RTVSPropertyOp8
 70
     1
102
RTVSPropertyOp9
 70
     1
102
RTVSPropertyOp10
 70
     1
102
RTVSPropertyOp11
 70
     1
102
RTVSPropertyOp12
 70
     1
102
RTVSPropertyOp13
 70
     1
102
RTVSPropertyOp14
 70
     1
102
RTVSPropertyOp15
 70
     1
102
RTVSPropertyOp16
 70
     1
102
RTVSPropertyOp17
 70
     1
102
RTVSPropertyOp18
 70
     1
102
RTVSPropertyOp19
 70
     1
102
RTVSPropertyOp20
 70
     1
102
RTVSPropertyOp21
 70
     1
102
RTVSPropertyOp22
 70
     1
102
RTVSPropertyOp23
 70
     1
102
RTVSPropertyOp24
 70
     1
102
RTVSPropertyOp25
 70
     1
102
RTVSPropertyOp26
 70
     1
102
RTVSPropertyOp27
 70
     1
102
RTVSPropertyOp28
 70
     1
102
RTVSPropertyOp29
 70
     1
102
RTVSPropertyOp30
 70
     1
102
RTVSPropertyOp31
 70
     1
102
RTVSPropertyOp32
 70
     1
  0
XRECORD
  5
156
102
{ACAD_REACTORS
330
155
102
}
330
155
100
AcDbXrecord
280
     1
102
RTVSPropertyOp0
 70
     1
102
RTVSPropertyOp1
 70
     1
102
RTVSPropertyOp2
 70
     1
102
RTVSPropertyOp3
 70
     1
102
RTVSPropertyOp4
 70
     1
102
RTVSPropertyOp5
 70
     1
102
RTVSPropertyOp6
 70
     1
102
RTVSPropertyOp7
 70
     1
102
RTVSPropertyOp8
 70
     1
102
RTVSPropertyOp9
 70
     1
102
RTVSPropertyOp10
 70
     1
102
RTVSPropertyOp11
 70
     1
102
RTVSPropertyOp12
 70
     1
102
RTVSPropertyOp13
 70
     1
102
RTVSPropertyOp14
 70
     1
102
RTVSPropertyOp15
 70
     1
102
RTVSPropertyOp16
 70
     1
102
RTVSPropertyOp17
 70
     1
102
RTVSPropertyOp18
 70
     1
102
RTVSPropertyOp19
 70
     1
102
RTVSPropertyOp20
 70
     1
102
RTVSPropertyOp21
 70
     1
102
RTVSPropertyOp22
 70
     1
102
RTVSPropertyOp23
 70
     1
102
RTVSPropertyOp24
 70
     1
102
RTVSPropertyOp25
 70
     1
102
RTVSPropertyOp26
 70
     1
102
RTVSPropertyOp27
 70
     1
102
RTVSPropertyOp28
 70
     1
102
RTVSPropertyOp29
 70
     1
102
RTVSPropertyOp30
 70
     1
102
RTVSPropertyOp31
 70
     1
102
RTVSPropertyOp32
 70
     1
  0
XRECORD
  5
13A
102
{ACAD_REACTORS
330
139
102
}
330
139
100
AcDbXrecord
280
     1
102
RTVSPropertyOp0
 70
     1
102
RTVSPropertyOp1
 70
     1
102
RTVSPropertyOp2
 70
     1
102
RTVSPropertyOp3
 70
     1
102
RTVSPropertyOp4
 70
     1
102
RTVSPropertyOp5
 70
     1
102
RTVSPropertyOp6
 70
     1
102
RTVSPropertyOp7
 70
     1
102
RTVSPropertyOp8
 70
     1
102
RTVSPropertyOp9
 70
     1
102
RTVSPropertyOp10
 70
     1
102
RTVSPropertyOp11
 70
     1
102
RTVSPropertyOp12
 70
     1
102
RTVSPropertyOp13
 70
     1
102
RTVSPropertyOp14
 70
     1
102
RTVSPropertyOp15
 70
     1
102
RTVSPropertyOp16
 70
     1
102
RTVSPropertyOp17
 70
     1
102
RTVSPropertyOp18
 70
     1
102
RTVSPropertyOp19
 70
     1
102
RTVSPropertyOp20
 70
     1
102
RTVSPropertyOp21
 70
     1
102
RTVSPropertyOp22
 70
     1
102
RTVSPropertyOp23
 70
     1
102
RTVSPropertyOp24
 70
     1
102
RTVSPropertyOp25
 70
     1
102
RTVSPropertyOp26
 70
     1
102
RTVSPropertyOp27
 70
     1
102
RTVSPropertyOp28
 70
     1
102
RTVSPropertyOp29
 70
     1
102
RTVSPropertyOp30
 70
     1
102
RTVSPropertyOp31
 70
     1
102
RTVSPropertyOp32
 70
     1
  0
XRECORD
  5
13C
102
{ACAD_REACTORS
330
13B
102
}
330
13B
100
AcDbXrecord
280
     1
102
RTVSPropertyOp0
 70
     1
102
RTVSPropertyOp1
 70
     1
102
RTVSPropertyOp2
 70
     1
102
RTVSPropertyOp3
 70
     1
102
RTVSPropertyOp4
 70
     1
102
RTVSPropertyOp5
 70
     1
102
RTVSPropertyOp6
 70
     1
102
RTVSPropertyOp7
 70
     1
102
RTVSPropertyOp8
 70
     1
102
RTVSPropertyOp9
 70
     1
102
RTVSPropertyOp10
 70
     1
102
RTVSPropertyOp11
 70
     1
102
RTVSPropertyOp12
 70
     1
102
RTVSPropertyOp13
 70
     1
102
RTVSPropertyOp14
 70
     1
102
RTVSPropertyOp15
 70
     1
102
RTVSPropertyOp16
 70
     1
102
RTVSPropertyOp17
 70
     1
102
RTVSPropertyOp18
 70
     1
102
RTVSPropertyOp19
 70
     1
102
RTVSPropertyOp20
 70
     1
102
RTVSPropertyOp21
 70
     1
102
RTVSPropertyOp22
 70
     1
102
RTVSPropertyOp23
 70
     1
102
RTVSPropertyOp24
 70
     1
102
RTVSPropertyOp25
 70
     1
102
RTVSPropertyOp26
 70
     1
102
RTVSPropertyOp27
 70
     1
102
RTVSPropertyOp28
 70
     1
102
RTVSPropertyOp29
 70
     1
102
RTVSPropertyOp30
 70
     1
102
RTVSPropertyOp31
 70
     1
102
RTVSPropertyOp32
 70
     1
  0
XRECORD
  5
13E
102
{ACAD_REACTORS
330
13D
102
}
330
13D
100
AcDbXrecord
280
     1
102
RTVSPropertyOp0
 70
     1
102
RTVSPropertyOp1
 70
     1
102
RTVSPropertyOp2
 70
     1
102
RTVSPropertyOp3
 70
     1
102
RTVSPropertyOp4
 70
     1
102
RTVSPropertyOp5
 70
     1
102
RTVSPropertyOp6
 70
     1
102
RTVSPropertyOp7
 70
     1
102
RTVSPropertyOp8
 70
     1
102
RTVSPropertyOp9
 70
     1
102
RTVSPropertyOp10
 70
     1
102
RTVSPropertyOp11
 70
     1
102
RTVSPropertyOp12
 70
     1
102
RTVSPropertyOp13
 70
     1
102
RTVSPropertyOp14
 70
     1
102
RTVSPropertyOp15
 70
     1
102
RTVSPropertyOp16
 70
     1
102
RTVSPropertyOp17
 70
     1
102
RTVSPropertyOp18
 70
     1
102
RTVSPropertyOp19
 70
     1
102
RTVSPropertyOp20
 70
     1
102
RTVSPropertyOp21
 70
     1
102
RTVSPropertyOp22
 70
     1
102
RTVSPropertyOp23
 70
     1
102
RTVSPropertyOp24
 70
     1
102
RTVSPropertyOp25
 70
     1
102
RTVSPropertyOp26
 70
     1
102
RTVSPropertyOp27
 70
     1
102
RTVSPropertyOp28
 70
     1
102
RTVSPropertyOp29
 70
     1
102
RTVSPropertyOp30
 70
     1
102
RTVSPropertyOp31
 70
     1
102
RTVSPropertyOp32
 70
     1
  0
XRECORD
  5
140
102
{ACAD_REACTORS
330
13F
102
}
330
13F
100
AcDbXrecord
280
     1
102
RTVSPropertyOp0
 70
     1
102
RTVSPropertyOp1
 70
     1
102
RTVSPropertyOp2
 70
     1
102
RTVSPropertyOp3
 70
     1
102
RTVSPropertyOp4
 70
     1
102
RTVSPropertyOp5
 70
     1
102
RTVSPropertyOp6
 70
     1
102
RTVSPropertyOp7
 70
     1
102
RTVSPropertyOp8
 70
     1
102
RTVSPropertyOp9
 70
     1
102
RTVSPropertyOp10
 70
     1
102
RTVSPropertyOp11
 70
     1
102
RTVSPropertyOp12
 70
     1
102
RTVSPropertyOp13
 70
     1
102
RTVSPropertyOp14
 70
     1
102
RTVSPropertyOp15
 70
     1
102
RTVSPropertyOp16
 70
     1
102
RTVSPropertyOp17
 70
     1
102
RTVSPropertyOp18
 70
     1
102
RTVSPropertyOp19
 70
     1
102
RTVSPropertyOp20
 70
     1
102
RTVSPropertyOp21
 70
     1
102
RTVSPropertyOp22
 70
     1
102
RTVSPropertyOp23
 70
     1
102
RTVSPropertyOp24
 70
     1
102
RTVSPropertyOp25
 70
     1
102
RTVSPropertyOp26
 70
     1
102
RTVSPropertyOp27
 70
     1
102
RTVSPropertyOp28
 70
     1
102
RTVSPropertyOp29
 70
     1
102
RTVSPropertyOp30
 70
     1
102
RTVSPropertyOp31
 70
     1
102
RTVSPropertyOp32
 70
     1
  0
XRECORD
  5
154
102
{ACAD_REACTORS
330
153
102
}
330
153
100
AcDbXrecord
280
     1
102
RTVSPropertyOp0
 70
     1
102
RTVSPropertyOp1
 70
     1
102
RTVSPropertyOp2
 70
     1
102
RTVSPropertyOp3
 70
     1
102
RTVSPropertyOp4
 70
     1
102
RTVSPropertyOp5
 70
     1
102
RTVSPropertyOp6
 70
     1
102
RTVSPropertyOp7
 70
     1
102
RTVSPropertyOp8
 70
     1
102
RTVSPropertyOp9
 70
     1
102
RTVSPropertyOp10
 70
     1
102
RTVSPropertyOp11
 70
     1
102
RTVSPropertyOp12
 70
     1
102
RTVSPropertyOp13
 70
     1
102
RTVSPropertyOp14
 70
     1
102
RTVSPropertyOp15
 70
     1
102
RTVSPropertyOp16
 70
     1
102
RTVSPropertyOp17
 70
     1
102
RTVSPropertyOp18
 70
     1
102
RTVSPropertyOp19
 70
     1
102
RTVSPropertyOp20
 70
     1
102
RTVSPropertyOp21
 70
     1
102
RTVSPropertyOp22
 70
     1
102
RTVSPropertyOp23
 70
     1
102
RTVSPropertyOp24
 70
     1
102
RTVSPropertyOp25
 70
     1
102
RTVSPropertyOp26
 70
     1
102
RTVSPropertyOp27
 70
     1
102
RTVSPropertyOp28
 70
     1
102
RTVSPropertyOp29
 70
     1
102
RTVSPropertyOp30
 70
     1
102
RTVSPropertyOp31
 70
     1
102
RTVSPropertyOp32
 70
     1
  0
XRECORD
  5
14A
102
{ACAD_REACTORS
330
149
102
}
330
149
100
AcDbXrecord
280
     1
102
RTVSPropertyOp0
 70
     1
102
RTVSPropertyOp1
 70
     1
102
RTVSPropertyOp2
 70
     1
102
RTVSPropertyOp3
 70
     1
102
RTVSPropertyOp4
 70
     1
102
RTVSPropertyOp5
 70
     1
102
RTVSPropertyOp6
 70
     1
102
RTVSPropertyOp7
 70
     1
102
RTVSPropertyOp8
 70
     1
102
RTVSPropertyOp9
 70
     1
102
RTVSPropertyOp10
 70
     1
102
RTVSPropertyOp11
 70
     1
102
RTVSPropertyOp12
 70
     1
102
RTVSPropertyOp13
 70
     1
102
RTVSPropertyOp14
 70
     1
102
RTVSPropertyOp15
 70
     1
102
RTVSPropertyOp16
 70
     1
102
RTVSPropertyOp17
 70
     1
102
RTVSPropertyOp18
 70
     1
102
RTVSPropertyOp19
 70
     1
102
RTVSPropertyOp20
 70
     1
102
RTVSPropertyOp21
 70
     1
102
RTVSPropertyOp22
 70
     1
102
RTVSPropertyOp23
 70
     1
102
RTVSPropertyOp24
 70
     1
102
RTVSPropertyOp25
 70
     1
102
RTVSPropertyOp26
 70
     1
102
RTVSPropertyOp27
 70
     1
102
RTVSPropertyOp28
 70
     1
102
RTVSPropertyOp29
 70
     1
102
RTVSPropertyOp30
 70
     1
102
RTVSPropertyOp31
 70
     1
102
RTVSPropertyOp32
 70
     1
  0
XRECORD
  5
152
102
{ACAD_REACTORS
330
151
102
}
330
151
100
AcDbXrecord
280
     1
102
RTVSPropertyOp0
 70
     1
102
RTVSPropertyOp1
 70
     1
102
RTVSPropertyOp2
 70
     1
102
RTVSPropertyOp3
 70
     1
102
RTVSPropertyOp4
 70
     1
102
RTVSPropertyOp5
 70
     1
102
RTVSPropertyOp6
 70
     1
102
RTVSPropertyOp7
 70
     1
102
RTVSPropertyOp8
 70
     1
102
RTVSPropertyOp9
 70
     1
102
RTVSPropertyOp10
 70
     1
102
RTVSPropertyOp11
 70
     1
102
RTVSPropertyOp12
 70
     1
102
RTVSPropertyOp13
 70
     1
102
RTVSPropertyOp14
 70
     1
102
RTVSPropertyOp15
 70
     1
102
RTVSPropertyOp16
 70
     1
102
RTVSPropertyOp17
 70
     1
102
RTVSPropertyOp18
 70
     1
102
RTVSPropertyOp19
 70
     1
102
RTVSPropertyOp20
 70
     1
102
RTVSPropertyOp21
 70
     1
102
RTVSPropertyOp22
 70
     1
102
RTVSPropertyOp23
 70
     1
102
RTVSPropertyOp24
 70
     1
102
RTVSPropertyOp25
 70
     1
102
RTVSPropertyOp26
 70
     1
102
RTVSPropertyOp27
 70
     1
102
RTVSPropertyOp28
 70
     1
102
RTVSPropertyOp29
 70
     1
102
RTVSPropertyOp30
 70
     1
102
RTVSPropertyOp31
 70
     1
102
RTVSPropertyOp32
 70
     1
  0
ENDSEC
  0
EOF
