  0
SECTION
  2
HEADER
999
Generated by IsoDraw 4.03
  0
ENDSEC
  0
SECTION
  2
TABLES
  0
TABLE
  2
LTYPE
 70
7
  0
LTYPE
  2
DURCHGEHEND
 70
64
  3

 72
65
 73
0
 40
0
  0
LTYPE
  2
GESTRICHELT
 70
64
  3
10-5
 72
65
 73
2
 40
15
 49
10.000000
 49
-5.000000
  0
LTYPE
  2
STRICHPUNKTIERT
 70
64
  3
20-5-2-5
 72
65
 73
4
 40
32
 49
20.000000
 49
-5.000000
 49
2.000000
 49
-5.000000
  0
LTYPE
  2
PUNKTIERT
 70
64
  3
0-0
 72
65
 73
2
 40
0.25
 49
0.0
49
-0.250000
  0
LTYPE
  2
STARTPFEIL
 70
64
  3

 72
65
 73
0
 40
0
  0
LTYPE
  2
ENDPFEIL
 70
64
  3

 72
65
 73
0
 40
0
  0
LTYPE
  2
PFEIL
 70
64
  3

 72
65
 73
0
 40
0
  0
ENDTAB
  0
TABLE
  2
LAYER
 70
1
  0
LAYER
  2
STANDARDEBENE
 70
64
 62
7
  6
DURCHGEHEND
  0
ENDTAB
  0
ENDSEC
  0
SECTION
  2
BLOCKS
  0
ENDSEC
  0
SECTION
  2
ENTITIES
  0
POLYLINE
  8
STANDARDEBENE
 66
1
 10
0.000000
 20
0.000000
 30
0.000000
 62
5
 70
12
  0
VERTEX
  8
STANDARDEBENE
 10
85.901108
 20
465.659149
 30
0.000000
 70
48
  0
VERTEX
  8
STANDARDEBENE
 10
85.901108
 20
465.659149
 30
0.000000
 70
40
  0
VERTEX
  8
STANDARDEBENE
 10
103.281776
 20
465.659149
 30
0.000000
 70
40
  0
VERTEX
  8
STANDARDEBENE
 10
149.861984
 20
465.659149
 30
0.000000
 70
40
  0
VERTEX
  8
STANDARDEBENE
 10
217.298996
 20
465.659149
 30
0.000000
 70
40
  0
VERTEX
  8
STANDARDEBENE
 10
297.250092
 20
465.659149
 30
0.000000
 70
40
  0
VERTEX
  8
STANDARDEBENE
 10
381.372528
 20
465.659180
 30
0.000000
 70
40
  0
VERTEX
  8
STANDARDEBENE
 10
461.323639
 20
465.659180
 30
0.000000
 70
40
  0
VERTEX
  8
STANDARDEBENE
 10
528.760620
 20
465.659180
 30
0.000000
 70
40
  0
VERTEX
  8
STANDARDEBENE
 10
575.340881
 20
465.659210
 30
0.000000
 70
40
  0
VERTEX
  8
STANDARDEBENE
 10
592.721558
 20
465.659210
 30
0.000000
 70
40
  0
VERTEX
  8
STANDARDEBENE
 10
85.901108
 20
465.659149
 30
0.000000
 70
48
  0
VERTEX
  8
STANDARDEBENE
 10
592.721497
 20
465.659149
 30
0.000000
 70
48
  0
VERTEX
  8
STANDARDEBENE
 10
592.721497
 20
465.659149
 30
0.000000
 70
48
  0
SEQEND
  8
STANDARDEBENE
  0
POLYLINE
  8
STANDARDEBENE
 66
1
 10
0.000000
 20
0.000000
 30
0.000000
 62
5
 70
12
  0
VERTEX
  8
STANDARDEBENE
 10
86.667267
 20
465.659149
 30
0.000000
 70
48
  0
VERTEX
  8
STANDARDEBENE
 10
86.667267
 20
465.659149
 30
0.000000
 70
40
  0
VERTEX
  8
STANDARDEBENE
 10
85.181656
 20
465.637024
 30
0.000000
 70
40
  0
VERTEX
  8
STANDARDEBENE
 10
83.650002
 20
465.613647
 30
0.000000
 70
40
  0
VERTEX
  8
STANDARDEBENE
 10
82.127510
 20
465.653442
 30
0.000000
 70
40
  0
VERTEX
  8
STANDARDEBENE
 10
80.669388
 20
465.820923
 30
0.000000
 70
40
  0
VERTEX
  8
STANDARDEBENE
 10
79.330856
 20
466.180511
 30
0.000000
 70
40
  0
VERTEX
  8
STANDARDEBENE
 10
78.167122
 20
466.796722
 30
0.000000
 70
40
  0
VERTEX
  8
STANDARDEBENE
 10
77.233406
 20
467.734009
 30
0.000000
 70
40
  0
VERTEX
  8
STANDARDEBENE
 10
76.584923
 20
469.056824
 30
0.000000
 70
40
  0
VERTEX
  8
STANDARDEBENE
 10
76.276871
 20
470.829620
 30
0.000000
 70
40
  0
VERTEX
  8
STANDARDEBENE
 10
82.334732
 20
465.659149
 30
0.000000
 70
48
  0
VERTEX
  8
STANDARDEBENE
 10
76.635147
 20
464.771698
 30
0.000000
 70
48
  0
VERTEX
  8
STANDARDEBENE
 10
76.276871
 20
470.829559
 30
0.000000
 70
48
  0
VERTEX
  8
STANDARDEBENE
 10
76.276871
 20
470.829559
 30
0.000000
 70
40
  0
VERTEX
  8
STANDARDEBENE
 10
75.536438
 20
483.320465
 30
0.000000
 70
40
  0
VERTEX
  8
STANDARDEBENE
 10
74.903214
 20
493.978149
 30
0.000000
 70
40
  0
VERTEX
  8
STANDARDEBENE
 10
74.361488
 20
503.287384
 30
0.000000
 70
40
  0
VERTEX
  8
STANDARDEBENE
 10
73.895576
 20
511.732910
 30
0.000000
 70
40
  0
VERTEX
  8
STANDARDEBENE
 10
73.489777
 20
519.799500
 30
0.000000
 70
40
  0
VERTEX
  8
STANDARDEBENE
 10
73.128395
 20
527.971863
 30
0.000000
 70
40
  0
VERTEX
  8
STANDARDEBENE
 10
72.795723
 20
536.734863
 30
0.000000
 70
40
  0
VERTEX
  8
STANDARDEBENE
 10
72.476074
 20
546.573059
 30
0.000000
 70
40
  0
VERTEX
  8
STANDARDEBENE
 10
72.153740
 20
557.971436
 30
0.000000
 70
40
  0
VERTEX
  8
STANDARDEBENE
 10
73.879066
 20
511.536804
 30
0.000000
 70
48
  0
VERTEX
  8
STANDARDEBENE
 10
73.140465
 20
520.951538
 30
0.000000
 70
48
  0
VERTEX
  8
STANDARDEBENE
 10
72.153778
 20
557.971191
 30
0.000000
 70
48
  0
VERTEX
  8
STANDARDEBENE
 10
72.153778
 20
557.971191
 30
0.000000
 70
40
  0
VERTEX
  8
STANDARDEBENE
 10
72.095856
 20
559.046692
 30
0.000000
 70
40
  0
VERTEX
  8
STANDARDEBENE
 10
72.047638
 20
560.132935
 30
0.000000
 70
40
  0
VERTEX
  8
STANDARDEBENE
 10
72.015579
 20
561.205627
 30
0.000000
 70
40
  0
VERTEX
  8
STANDARDEBENE
 10
72.006104
 20
562.240295
 30
0.000000
 70
40
  0
VERTEX
  8
STANDARDEBENE
 10
72.025673
 20
563.212585
 30
0.000000
 70
40
  0
VERTEX
  8
STANDARDEBENE
 10
72.080711
 20
564.098206
 30
0.000000
 70
40
  0
VERTEX
  8
STANDARDEBENE
 10
72.177673
 20
564.872803
 30
0.000000
 70
40
  0
VERTEX
  8
STANDARDEBENE
 10
72.322990
 20
565.511963
 30
0.000000
 70
40
  0
VERTEX
  8
STANDARDEBENE
 10
72.523117
 20
565.991333
 30
0.000000
 70
40
  0
VERTEX
  8
STANDARDEBENE
 10
71.971886
 20
561.157227
 30
0.000000
 70
48
  0
VERTEX
  8
STANDARDEBENE
 10
71.834091
 20
564.817261
 30
0.000000
 70
48
  0
VERTEX
  8
STANDARDEBENE
 10
72.523102
 20
565.991333
 30
0.000000
 70
48
  0
VERTEX
  8
STANDARDEBENE
 10
72.523102
 20
565.991333
 30
0.000000
 70
40
  0
VERTEX
  8
STANDARDEBENE
 10
72.775940
 20
566.377991
 30
0.000000
 70
40
  0
VERTEX
  8
STANDARDEBENE
 10
73.050606
 20
566.715393
 30
0.000000
 70
40
  0
VERTEX
  8
STANDARDEBENE
 10
73.348900
 20
567.004578
 30
0.000000
 70
40
  0
VERTEX
  8
STANDARDEBENE
 10
73.672653
 20
567.246521
 30
0.000000
 70
40
  0
VERTEX
  8
STANDARDEBENE
 10
74.023666
 20
567.442261
 30
0.000000
 70
40
  0
VERTEX
  8
STANDARDEBENE
 10
74.403763
 20
567.592773
 30
0.000000
 70
40
  0
VERTEX
  8
STANDARDEBENE
 10
74.814751
 20
567.699036
 30
0.000000
 70
40
  0
VERTEX
  8
STANDARDEBENE
 10
75.258453
 20
567.762024
 30
0.000000
 70
40
  0
VERTEX
  8
STANDARDEBENE
 10
75.736679
 20
567.782837
 30
0.000000
 70
40
  0
VERTEX
  8
STANDARDEBENE
 10
73.250710
 20
567.226074
 30
0.000000
 70
48
  0
VERTEX
  8
STANDARDEBENE
 10
74.248398
 20
567.782837
 30
0.000000
 70
48
  0
VERTEX
  8
STANDARDEBENE
 10
75.736694
 20
567.782837
 30
0.000000
 70
48
  0
VERTEX
  8
STANDARDEBENE
 10
75.736694
 20
567.782837
 30
0.000000
 70
40
  0
VERTEX
  8
STANDARDEBENE
 10
93.414520
 20
567.782837
 30
0.000000
 70
40
  0
VERTEX
  8
STANDARDEBENE
 10
140.791107
 20
567.782837
 30
0.000000
 70
40
  0
VERTEX
  8
STANDARDEBENE
 10
209.381073
 20
567.782837
 30
0.000000
 70
40
  0
VERTEX
  8
STANDARDEBENE
 10
290.699097
 20
567.782837
 30
0.000000
 70
40
  0
VERTEX
  8
STANDARDEBENE
 10
376.259766
 20
567.782837
 30
0.000000
 70
40
  0
VERTEX
  8
STANDARDEBENE
 10
457.577789
 20
567.782837
 30
0.000000
 70
40
  0
VERTEX
  8
STANDARDEBENE
 10
526.167786
 20
567.782837
 30
0.000000
 70
40
  0
VERTEX
  8
STANDARDEBENE
 10
573.544312
 20
567.782837
 30
0.000000
 70
40
  0
VERTEX
  8
STANDARDEBENE
 10
591.222168
 20
567.782837
 30
0.000000
 70
40
  0
VERTEX
  8
STANDARDEBENE
 10
75.736694
 20
567.782837
 30
0.000000
 70
48
  0
VERTEX
  8
STANDARDEBENE
 10
591.222168
 20
567.782837
 30
0.000000
 70
48
  0
VERTEX
  8
STANDARDEBENE
 10
591.222168
 20
567.782837
 30
0.000000
 70
48
  0
VERTEX
  8
STANDARDEBENE
 10
591.222168
 20
567.782837
 30
0.000000
 70
40
  0
VERTEX
  8
STANDARDEBENE
 10
591.273987
 20
562.634583
 30
0.000000
 70
40
  0
VERTEX
  8
STANDARDEBENE
 10
591.412781
 20
548.837219
 30
0.000000
 70
40
  0
VERTEX
  8
STANDARDEBENE
 10
591.613770
 20
528.861938
 30
0.000000
 70
40
  0
VERTEX
  8
STANDARDEBENE
 10
591.851990
 20
505.179871
 30
0.000000
 70
40
  0
VERTEX
  8
STANDARDEBENE
 10
592.102722
 20
480.262268
 30
0.000000
 70
40
  0
VERTEX
  8
STANDARDEBENE
 10
592.340942
 20
456.580231
 30
0.000000
 70
40
  0
VERTEX
  8
STANDARDEBENE
 10
592.541931
 20
436.604919
 30
0.000000
 70
40
  0
VERTEX
  8
STANDARDEBENE
 10
592.680725
 20
422.807556
 30
0.000000
 70
40
  0
VERTEX
  8
STANDARDEBENE
 10
592.732544
 20
417.659302
 30
0.000000
 70
40
  0
VERTEX
  8
STANDARDEBENE
 10
591.222168
 20
567.782837
 30
0.000000
 70
48
  0
VERTEX
  8
STANDARDEBENE
 10
592.732544
 20
417.659302
 30
0.000000
 70
48
  0
VERTEX
  8
STANDARDEBENE
 10
592.732544
 20
417.659302
 30
0.000000
 70
48
  0
VERTEX
  8
STANDARDEBENE
 10
592.732544
 20
417.659302
 30
0.000000
 70
40
  0
VERTEX
  8
STANDARDEBENE
 10
591.454102
 20
417.659302
 30
0.000000
 70
40
  0
VERTEX
  8
STANDARDEBENE
 10
588.027954
 20
417.659302
 30
0.000000
 70
40
  0
VERTEX
  8
STANDARDEBENE
 10
583.067688
 20
417.659302
 30
0.000000
 70
40
  0
VERTEX
  8
STANDARDEBENE
 10
577.186951
 20
417.659302
 30
0.000000
 70
40
  0
VERTEX
  8
STANDARDEBENE
 10
570.999451
 20
417.659302
 30
0.000000
 70
40
  0
VERTEX
  8
STANDARDEBENE
 10
565.118713
 20
417.659302
 30
0.000000
 70
40
  0
VERTEX
  8
STANDARDEBENE
 10
560.158447
 20
417.659302
 30
0.000000
 70
40
  0
VERTEX
  8
STANDARDEBENE
 10
556.732300
 20
417.659302
 30
0.000000
 70
40
  0
VERTEX
  8
STANDARDEBENE
 10
555.453857
 20
417.659302
 30
0.000000
 70
40
  0
VERTEX
  8
STANDARDEBENE
 10
592.732544
 20
417.659302
 30
0.000000
 70
48
  0
VERTEX
  8
STANDARDEBENE
 10
555.453857
 20
417.659302
 30
0.000000
 70
48
  0
VERTEX
  8
STANDARDEBENE
 10
555.453857
 20
417.659302
 30
0.000000
 70
48
  0
VERTEX
  8
STANDARDEBENE
 10
555.453857
 20
417.659302
 30
0.000000
 70
40
  0
VERTEX
  8
STANDARDEBENE
 10
550.518250
 20
419.163055
 30
0.000000
 70
40
  0
VERTEX
  8
STANDARDEBENE
 10
537.290833
 20
423.193085
 30
0.000000
 70
40
  0
VERTEX
  8
STANDARDEBENE
 10
518.140686
 20
429.027618
 30
0.000000
 70
40
  0
VERTEX
  8
STANDARDEBENE
 10
495.436890
 20
435.944855
 30
0.000000
 70
40
  0
VERTEX
  8
STANDARDEBENE
 10
471.548523
 20
443.222992
 30
0.000000
 70
40
  0
VERTEX
  8
STANDARDEBENE
 10
448.844757
 20
450.140228
 30
0.000000
 70
40
  0
VERTEX
  8
STANDARDEBENE
 10
429.694580
 20
455.974792
 30
0.000000
 70
40
  0
VERTEX
  8
STANDARDEBENE
 10
416.467163
 20
460.004852
 30
0.000000
 70
40
  0
VERTEX
  8
STANDARDEBENE
 10
411.531555
 20
461.508606
 30
0.000000
 70
40
  0
VERTEX
  8
STANDARDEBENE
 10
555.453857
 20
417.659302
 30
0.000000
 70
48
  0
VERTEX
  8
STANDARDEBENE
 10
411.531555
 20
461.508514
 30
0.000000
 70
48
  0
VERTEX
  8
STANDARDEBENE
 10
411.531555
 20
461.508514
 30
0.000000
 70
48
  0
SEQEND
  8
STANDARDEBENE
  0
POLYLINE
  8
STANDARDEBENE
 66
1
 10
0.000000
 20
0.000000
 30
0.000000
 62
6
 70
12
  0
VERTEX
  8
STANDARDEBENE
 10
555.955444
 20
424.714874
 30
0.000000
 70
48
  0
VERTEX
  8
STANDARDEBENE
 10
555.955444
 20
424.714874
 30
0.000000
 70
40
  0
VERTEX
  8
STANDARDEBENE
 10
555.955444
 20
426.028442
 30
0.000000
 70
40
  0
VERTEX
  8
STANDARDEBENE
 10
555.955444
 20
429.548859
 30
0.000000
 70
40
  0
VERTEX
  8
STANDARDEBENE
 10
555.955444
 20
434.645538
 30
0.000000
 70
40
  0
VERTEX
  8
STANDARDEBENE
 10
555.955444
 20
440.688019
 30
0.000000
 70
40
  0
VERTEX
  8
STANDARDEBENE
 10
555.955444
 20
447.045746
 30
0.000000
 70
40
  0
VERTEX
  8
STANDARDEBENE
 10
555.955444
 20
453.088196
 30
0.000000
 70
40
  0
VERTEX
  8
STANDARDEBENE
 10
555.955444
 20
458.184906
 30
0.000000
 70
40
  0
VERTEX
  8
STANDARDEBENE
 10
555.955444
 20
461.705292
 30
0.000000
 70
40
  0
VERTEX
  8
STANDARDEBENE
 10
555.955444
 20
463.018890
 30
0.000000
 70
40
  0
VERTEX
  8
STANDARDEBENE
 10
555.955444
 20
424.714874
 30
0.000000
 70
48
  0
VERTEX
  8
STANDARDEBENE
 10
555.955444
 20
463.018860
 30
0.000000
 70
48
  0
VERTEX
  8
STANDARDEBENE
 10
555.955444
 20
463.018860
 30
0.000000
 70
48
  0
SEQEND
  8
STANDARDEBENE
  0
POLYLINE
  8
STANDARDEBENE
 66
1
 10
0.000000
 20
0.000000
 30
0.000000
 62
5
 70
12
  0
VERTEX
  8
STANDARDEBENE
 10
411.531555
 20
465.659149
 30
0.000000
 70
48
  0
VERTEX
  8
STANDARDEBENE
 10
411.531555
 20
465.659149
 30
0.000000
 70
40
  0
VERTEX
  8
STANDARDEBENE
 10
411.531555
 20
461.997467
 30
0.000000
 70
40
  0
VERTEX
  8
STANDARDEBENE
 10
411.531555
 20
458.708313
 30
0.000000
 70
40
  0
VERTEX
  8
STANDARDEBENE
 10
411.531555
 20
455.704834
 30
0.000000
 70
40
  0
VERTEX
  8
STANDARDEBENE
 10
411.531525
 20
452.900177
 30
0.000000
 70
40
  0
VERTEX
  8
STANDARDEBENE
 10
411.531525
 20
450.207550
 30
0.000000
 70
40
  0
VERTEX
  8
STANDARDEBENE
 10
411.531494
 20
447.540100
 30
0.000000
 70
40
  0
VERTEX
  8
STANDARDEBENE
 10
411.531494
 20
444.810974
 30
0.000000
 70
40
  0
VERTEX
  8
STANDARDEBENE
 10
411.531464
 20
441.933380
 30
0.000000
 70
40
  0
VERTEX
  8
STANDARDEBENE
 10
411.531433
 20
438.820435
 30
0.000000
 70
40
  0
VERTEX
  8
STANDARDEBENE
 10
411.531555
 20
454.028534
 30
0.000000
 70
48
  0
VERTEX
  8
STANDARDEBENE
 10
411.531555
 20
448.599060
 30
0.000000
 70
48
  0
VERTEX
  8
STANDARDEBENE
 10
411.531555
 20
438.820465
 30
0.000000
 70
48
  0
VERTEX
  8
STANDARDEBENE
 10
411.531555
 20
438.820465
 30
0.000000
 70
40
  0
VERTEX
  8
STANDARDEBENE
 10
411.503082
 20
437.972534
 30
0.000000
 70
40
  0
VERTEX
  8
STANDARDEBENE
 10
411.410645
 20
437.130585
 30
0.000000
 70
40
  0
VERTEX
  8
STANDARDEBENE
 10
411.243896
 20
436.317322
 30
0.000000
 70
40
  0
VERTEX
  8
STANDARDEBENE
 10
410.992310
 20
435.555542
 30
0.000000
 70
40
  0
VERTEX
  8
STANDARDEBENE
 10
410.645508
 20
434.867920
 30
0.000000
 70
40
  0
VERTEX
  8
STANDARDEBENE
 10
410.193054
 20
434.277191
 30
0.000000
 70
40
  0
VERTEX
  8
STANDARDEBENE
 10
409.624512
 20
433.806091
 30
0.000000
 70
40
  0
VERTEX
  8
STANDARDEBENE
 10
408.929413
 20
433.477386
 30
0.000000
 70
40
  0
VERTEX
  8
STANDARDEBENE
 10
408.097351
 20
433.313751
 30
0.000000
 70
40
  0
VERTEX
  8
STANDARDEBENE
 10
411.531555
 20
436.290405
 30
0.000000
 70
48
  0
VERTEX
  8
STANDARDEBENE
 10
410.809448
 20
433.534302
 30
0.000000
 70
48
  0
VERTEX
  8
STANDARDEBENE
 10
408.097473
 20
433.313843
 30
0.000000
 70
48
  0
VERTEX
  8
STANDARDEBENE
 10
408.097473
 20
433.313843
 30
0.000000
 70
40
  0
VERTEX
  8
STANDARDEBENE
 10
401.880035
 20
433.313843
 30
0.000000
 70
40
  0
VERTEX
  8
STANDARDEBENE
 10
396.300781
 20
433.313843
 30
0.000000
 70
40
  0
VERTEX
  8
STANDARDEBENE
 10
391.384613
 20
433.313843
 30
0.000000
 70
40
  0
VERTEX
  8
STANDARDEBENE
 10
387.156464
 20
433.313843
 30
0.000000
 70
40
  0
VERTEX
  8
STANDARDEBENE
 10
383.641205
 20
433.313843
 30
0.000000
 70
40
  0
VERTEX
  8
STANDARDEBENE
 10
380.863739
 20
433.313843
 30
0.000000
 70
40
  0
VERTEX
  8
STANDARDEBENE
 10
378.849030
 20
433.313843
 30
0.000000
 70
40
  0
VERTEX
  8
STANDARDEBENE
 10
377.621918
 20
433.313843
 30
0.000000
 70
40
  0
VERTEX
  8
STANDARDEBENE
 10
377.207336
 20
433.313843
 30
0.000000
 70
40
  0
VERTEX
  8
STANDARDEBENE
 10
388.512787
 20
433.313843
 30
0.000000
 70
48
  0
VERTEX
  8
STANDARDEBENE
 10
377.207367
 20
433.313843
 30
0.000000
 70
48
  0
VERTEX
  8
STANDARDEBENE
 10
377.207367
 20
433.313843
 30
0.000000
 70
48
  0
VERTEX
  8
STANDARDEBENE
 10
377.207367
 20
433.313843
 30
0.000000
 70
40
  0
VERTEX
  8
STANDARDEBENE
 10
375.779663
 20
433.606659
 30
0.000000
 70
40
  0
VERTEX
  8
STANDARDEBENE
 10
374.618256
 20
434.523804
 30
0.000000
 70
40
  0
VERTEX
  8
STANDARDEBENE
 10
373.654236
 20
435.891693
 30
0.000000
 70
40
  0
VERTEX
  8
STANDARDEBENE
 10
372.818726
 20
437.536804
 30
0.000000
 70
40
  0
VERTEX
  8
STANDARDEBENE
 10
372.042755
 20
439.285645
 30
0.000000
 70
40
  0
VERTEX
  8
STANDARDEBENE
 10
371.257446
 20
440.964661
 30
0.000000
 70
40
  0
VERTEX
  8
STANDARDEBENE
 10
370.393860
 20
442.400330
 30
0.000000
 70
40
  0
VERTEX
  8
STANDARDEBENE
 10
369.383087
 20
443.419098
 30
0.000000
 70
40
  0
VERTEX
  8
STANDARDEBENE
 10
368.156250
 20
443.847443
 30
0.000000
 70
40
  0
VERTEX
  8
STANDARDEBENE
 10
372.455872
 20
433.082336
 30
0.000000
 70
48
  0
VERTEX
  8
STANDARDEBENE
 10
372.229889
 20
443.621582
 30
0.000000
 70
48
  0
VERTEX
  8
STANDARDEBENE
 10
368.156372
 20
443.847565
 30
0.000000
 70
48
  0
VERTEX
  8
STANDARDEBENE
 10
368.156372
 20
443.847565
 30
0.000000
 70
40
  0
VERTEX
  8
STANDARDEBENE
 10
366.158875
 20
443.847565
 30
0.000000
 70
40
  0
VERTEX
  8
STANDARDEBENE
 10
360.805603
 20
443.847565
 30
0.000000
 70
40
  0
VERTEX
  8
STANDARDEBENE
 10
353.055328
 20
443.847565
 30
0.000000
 70
40
  0
VERTEX
  8
STANDARDEBENE
 10
343.866852
 20
443.847565
 30
0.000000
 70
40
  0
VERTEX
  8
STANDARDEBENE
 10
334.199005
 20
443.847534
 30
0.000000
 70
40
  0
VERTEX
  8
STANDARDEBENE
 10
325.010529
 20
443.847534
 30
0.000000
 70
40
  0
VERTEX
  8
STANDARDEBENE
 10
317.260254
 20
443.847534
 30
0.000000
 70
40
  0
VERTEX
  8
STANDARDEBENE
 10
311.906982
 20
443.847504
 30
0.000000
 70
40
  0
VERTEX
  8
STANDARDEBENE
 10
309.909485
 20
443.847504
 30
0.000000
 70
40
  0
VERTEX
  8
STANDARDEBENE
 10
368.156372
 20
443.847565
 30
0.000000
 70
48
  0
VERTEX
  8
STANDARDEBENE
 10
309.909485
 20
443.847565
 30
0.000000
 70
48
  0
VERTEX
  8
STANDARDEBENE
 10
309.909485
 20
443.847565
 30
0.000000
 70
48
  0
VERTEX
  8
STANDARDEBENE
 10
309.909485
 20
443.847565
 30
0.000000
 70
40
  0
VERTEX
  8
STANDARDEBENE
 10
305.384644
 20
444.179993
 30
0.000000
 70
40
  0
VERTEX
  8
STANDARDEBENE
 10
301.017029
 20
445.145721
 30
0.000000
 70
40
  0
VERTEX
  8
STANDARDEBENE
 10
296.820160
 20
446.697357
 30
0.000000
 70
40
  0
VERTEX
  8
STANDARDEBENE
 10
292.807587
 20
448.787537
 30
0.000000
 70
40
  0
VERTEX
  8
STANDARDEBENE
 10
288.992798
 20
451.368927
 30
0.000000
 70
40
  0
VERTEX
  8
STANDARDEBENE
 10
285.389374
 20
454.394135
 30
0.000000
 70
40
  0
VERTEX
  8
STANDARDEBENE
 10
282.010742
 20
457.815796
 30
0.000000
 70
40
  0
VERTEX
  8
STANDARDEBENE
 10
278.870483
 20
461.586578
 30
0.000000
 70
40
  0
VERTEX
  8
STANDARDEBENE
 10
275.982117
 20
465.659088
 30
0.000000
 70
40
  0
VERTEX
  8
STANDARDEBENE
 10
296.112579
 20
443.847565
 30
0.000000
 70
48
  0
VERTEX
  8
STANDARDEBENE
 10
284.255920
 20
453.036346
 30
0.000000
 70
48
  0
VERTEX
  8
STANDARDEBENE
 10
275.982178
 20
465.659149
 30
0.000000
 70
48
  0
SEQEND
  8
STANDARDEBENE
  0
POLYLINE
  8
STANDARDEBENE
 66
1
 10
0.000000
 20
0.000000
 30
0.000000
 62
6
 70
12
  0
VERTEX
  8
STANDARDEBENE
 10
369.969910
 20
444.757050
 30
0.000000
 70
48
  0
VERTEX
  8
STANDARDEBENE
 10
369.969910
 20
444.757050
 30
0.000000
 70
40
  0
VERTEX
  8
STANDARDEBENE
 10
369.969910
 20
445.473846
 30
0.000000
 70
40
  0
VERTEX
  8
STANDARDEBENE
 10
369.969910
 20
447.394897
 30
0.000000
 70
40
  0
VERTEX
  8
STANDARDEBENE
 10
369.969910
 20
450.176117
 30
0.000000
 70
40
  0
VERTEX
  8
STANDARDEBENE
 10
369.969940
 20
453.473450
 30
0.000000
 70
40
  0
VERTEX
  8
STANDARDEBENE
 10
369.969940
 20
456.942780
 30
0.000000
 70
40
  0
VERTEX
  8
STANDARDEBENE
 10
369.969971
 20
460.240112
 30
0.000000
 70
40
  0
VERTEX
  8
STANDARDEBENE
 10
369.969971
 20
463.021332
 30
0.000000
 70
40
  0
VERTEX
  8
STANDARDEBENE
 10
369.970001
 20
464.942383
 30
0.000000
 70
40
  0
VERTEX
  8
STANDARDEBENE
 10
369.970032
 20
465.659210
 30
0.000000
 70
40
  0
VERTEX
  8
STANDARDEBENE
 10
369.969910
 20
444.757050
 30
0.000000
 70
48
  0
VERTEX
  8
STANDARDEBENE
 10
369.969910
 20
465.659149
 30
0.000000
 70
48
  0
VERTEX
  8
STANDARDEBENE
 10
369.969910
 20
465.659149
 30
0.000000
 70
48
  0
SEQEND
  8
STANDARDEBENE
  0
POLYLINE
  8
STANDARDEBENE
 66
1
 10
0.000000
 20
0.000000
 30
0.000000
 62
6
 70
12
  0
VERTEX
  8
STANDARDEBENE
 10
341.097229
 20
480.227783
 30
0.000000
 70
48
  0
VERTEX
  8
STANDARDEBENE
 10
341.097229
 20
480.227783
 30
0.000000
 70
40
  0
VERTEX
  8
STANDARDEBENE
 10
341.097229
 20
478.388885
 30
0.000000
 70
40
  0
VERTEX
  8
STANDARDEBENE
 10
341.097229
 20
473.460663
 30
0.000000
 70
40
  0
VERTEX
  8
STANDARDEBENE
 10
341.097229
 20
466.325745
 30
0.000000
 70
40
  0
VERTEX
  8
STANDARDEBENE
 10
341.097229
 20
457.866821
 30
0.000000
 70
40
  0
VERTEX
  8
STANDARDEBENE
 10
341.097229
 20
448.966583
 30
0.000000
 70
40
  0
VERTEX
  8
STANDARDEBENE
 10
341.097229
 20
440.507660
 30
0.000000
 70
40
  0
VERTEX
  8
STANDARDEBENE
 10
341.097229
 20
433.372742
 30
0.000000
 70
40
  0
VERTEX
  8
STANDARDEBENE
 10
341.097229
 20
428.444519
 30
0.000000
 70
40
  0
VERTEX
  8
STANDARDEBENE
 10
341.097229
 20
426.605652
 30
0.000000
 70
40
  0
VERTEX
  8
STANDARDEBENE
 10
341.097229
 20
480.227783
 30
0.000000
 70
48
  0
VERTEX
  8
STANDARDEBENE
 10
341.097229
 20
426.605560
 30
0.000000
 70
48
  0
VERTEX
  8
STANDARDEBENE
 10
341.097229
 20
426.605560
 30
0.000000
 70
48
  0
SEQEND
  8
STANDARDEBENE
  0
POLYLINE
  8
STANDARDEBENE
 66
1
 10
0.000000
 20
0.000000
 30
0.000000
 62
5
 70
12
  0
VERTEX
  8
STANDARDEBENE
 10
1.019456
 20
-229.561127
 30
0.000000
 70
48
  0
VERTEX
  8
STANDARDEBENE
 10
1.019456
 20
-229.561127
 30
0.000000
 70
40
  0
VERTEX
  8
STANDARDEBENE
 10
1.503376
 20
-229.561127
 30
0.000000
 70
40
  0
VERTEX
  8
STANDARDEBENE
 10
2.800282
 20
-229.561127
 30
0.000000
 70
40
  0
VERTEX
  8
STANDARDEBENE
 10
4.677892
 20
-229.561127
 30
0.000000
 70
40
  0
VERTEX
  8
STANDARDEBENE
 10
6.903924
 20
-229.561142
 30
0.000000
 70
40
  0
VERTEX
  8
STANDARDEBENE
 10
9.246098
 20
-229.561142
 30
0.000000
 70
40
  0
VERTEX
  8
STANDARDEBENE
 10
11.472131
 20
-229.561157
 30
0.000000
 70
40
  0
VERTEX
  8
STANDARDEBENE
 10
13.349740
 20
-229.561157
 30
0.000000
 70
40
  0
VERTEX
  8
STANDARDEBENE
 10
14.646646
 20
-229.561172
 30
0.000000
 70
40
  0
VERTEX
  8
STANDARDEBENE
 10
15.130567
 20
-229.561188
 30
0.000000
 70
40
  0
VERTEX
  8
STANDARDEBENE
 10
1.019456
 20
-229.561127
 30
0.000000
 70
48
  0
VERTEX
  8
STANDARDEBENE
 10
15.130567
 20
-229.561127
 30
0.000000
 70
48
  0
VERTEX
  8
STANDARDEBENE
 10
15.130567
 20
-229.561127
 30
0.000000
 70
48
  0
SEQEND
  8
STANDARDEBENE
  0
POLYLINE
  8
STANDARDEBENE
 66
1
 10
0.000000
 20
0.000000
 30
0.000000
 62
5
 70
12
  0
VERTEX
  8
STANDARDEBENE
 10
25.008345
 20
-229.561127
 30
0.000000
 70
48
  0
VERTEX
  8
STANDARDEBENE
 10
25.008345
 20
-229.561127
 30
0.000000
 70
40
  0
VERTEX
  8
STANDARDEBENE
 10
25.492266
 20
-229.561127
 30
0.000000
 70
40
  0
VERTEX
  8
STANDARDEBENE
 10
26.789171
 20
-229.561127
 30
0.000000
 70
40
  0
VERTEX
  8
STANDARDEBENE
 10
28.666780
 20
-229.561127
 30
0.000000
 70
40
  0
VERTEX
  8
STANDARDEBENE
 10
30.892815
 20
-229.561142
 30
0.000000
 70
40
  0
VERTEX
  8
STANDARDEBENE
 10
33.234985
 20
-229.561142
 30
0.000000
 70
40
  0
VERTEX
  8
STANDARDEBENE
 10
35.461021
 20
-229.561157
 30
0.000000
 70
40
  0
VERTEX
  8
STANDARDEBENE
 10
37.338631
 20
-229.561157
 30
0.000000
 70
40
  0
VERTEX
  8
STANDARDEBENE
 10
38.635536
 20
-229.561172
 30
0.000000
 70
40
  0
VERTEX
  8
STANDARDEBENE
 10
39.119457
 20
-229.561188
 30
0.000000
 70
40
  0
VERTEX
  8
STANDARDEBENE
 10
25.008345
 20
-229.561127
 30
0.000000
 70
48
  0
VERTEX
  8
STANDARDEBENE
 10
39.119457
 20
-229.561127
 30
0.000000
 70
48
  0
VERTEX
  8
STANDARDEBENE
 10
39.119457
 20
-229.561127
 30
0.000000
 70
48
  0
SEQEND
  8
STANDARDEBENE
  0
POLYLINE
  8
STANDARDEBENE
 66
1
 10
0.000000
 20
0.000000
 30
0.000000
 62
5
 70
12
  0
VERTEX
  8
STANDARDEBENE
 10
48.997234
 20
-229.561127
 30
0.000000
 70
48
  0
VERTEX
  8
STANDARDEBENE
 10
48.997234
 20
-229.561127
 30
0.000000
 70
40
  0
VERTEX
  8
STANDARDEBENE
 10
49.481155
 20
-229.561127
 30
0.000000
 70
40
  0
VERTEX
  8
STANDARDEBENE
 10
50.778061
 20
-229.561127
 30
0.000000
 70
40
  0
VERTEX
  8
STANDARDEBENE
 10
52.655670
 20
-229.561127
 30
0.000000
 70
40
  0
VERTEX
  8
STANDARDEBENE
 10
54.881702
 20
-229.561142
 30
0.000000
 70
40
  0
VERTEX
  8
STANDARDEBENE
 10
57.223877
 20
-229.561142
 30
0.000000
 70
40
  0
VERTEX
  8
STANDARDEBENE
 10
59.449905
 20
-229.561157
 30
0.000000
 70
40
  0
VERTEX
  8
STANDARDEBENE
 10
61.327518
 20
-229.561157
 30
0.000000
 70
40
  0
VERTEX
  8
STANDARDEBENE
 10
62.624420
 20
-229.561172
 30
0.000000
 70
40
  0
VERTEX
  8
STANDARDEBENE
 10
63.108341
 20
-229.561188
 30
0.000000
 70
40
  0
VERTEX
  8
STANDARDEBENE
 10
48.997234
 20
-229.561127
 30
0.000000
 70
48
  0
VERTEX
  8
STANDARDEBENE
 10
63.108345
 20
-229.561127
 30
0.000000
 70
48
  0
VERTEX
  8
STANDARDEBENE
 10
63.108345
 20
-229.561127
 30
0.000000
 70
48
  0
SEQEND
  8
STANDARDEBENE
  0
POLYLINE
  8
STANDARDEBENE
 66
1
 10
0.000000
 20
0.000000
 30
0.000000
 62
5
 70
12
  0
VERTEX
  8
STANDARDEBENE
 10
72.986122
 20
-229.561127
 30
0.000000
 70
48
  0
VERTEX
  8
STANDARDEBENE
 10
72.986122
 20
-229.561127
 30
0.000000
 70
40
  0
VERTEX
  8
STANDARDEBENE
 10
73.470039
 20
-229.561127
 30
0.000000
 70
40
  0
VERTEX
  8
STANDARDEBENE
 10
74.766945
 20
-229.561127
 30
0.000000
 70
40
  0
VERTEX
  8
STANDARDEBENE
 10
76.644554
 20
-229.561127
 30
0.000000
 70
40
  0
VERTEX
  8
STANDARDEBENE
 10
78.870590
 20
-229.561142
 30
0.000000
 70
40
  0
VERTEX
  8
STANDARDEBENE
 10
81.212761
 20
-229.561142
 30
0.000000
 70
40
  0
VERTEX
  8
STANDARDEBENE
 10
83.438789
 20
-229.561157
 30
0.000000
 70
40
  0
VERTEX
  8
STANDARDEBENE
 10
85.316399
 20
-229.561157
 30
0.000000
 70
40
  0
VERTEX
  8
STANDARDEBENE
 10
86.613304
 20
-229.561172
 30
0.000000
 70
40
  0
VERTEX
  8
STANDARDEBENE
 10
87.097221
 20
-229.561188
 30
0.000000
 70
40
  0
VERTEX
  8
STANDARDEBENE
 10
72.986122
 20
-229.561127
 30
0.000000
 70
48
  0
VERTEX
  8
STANDARDEBENE
 10
87.097237
 20
-229.561127
 30
0.000000
 70
48
  0
VERTEX
  8
STANDARDEBENE
 10
87.097237
 20
-229.561127
 30
0.000000
 70
48
  0
SEQEND
  8
STANDARDEBENE
  0
POLYLINE
  8
STANDARDEBENE
 66
1
 10
0.000000
 20
0.000000
 30
0.000000
 62
5
 70
12
  0
VERTEX
  8
STANDARDEBENE
 10
96.975014
 20
-229.561127
 30
0.000000
 70
48
  0
VERTEX
  8
STANDARDEBENE
 10
96.975014
 20
-229.561127
 30
0.000000
 70
40
  0
VERTEX
  8
STANDARDEBENE
 10
97.458931
 20
-229.561127
 30
0.000000
 70
40
  0
VERTEX
  8
STANDARDEBENE
 10
98.755836
 20
-229.561127
 30
0.000000
 70
40
  0
VERTEX
  8
STANDARDEBENE
 10
100.633446
 20
-229.561127
 30
0.000000
 70
40
  0
VERTEX
  8
STANDARDEBENE
 10
102.859474
 20
-229.561142
 30
0.000000
 70
40
  0
VERTEX
  8
STANDARDEBENE
 10
105.201645
 20
-229.561142
 30
0.000000
 70
40
  0
VERTEX
  8
STANDARDEBENE
 10
107.427666
 20
-229.561157
 30
0.000000
 70
40
  0
VERTEX
  8
STANDARDEBENE
 10
109.305275
 20
-229.561157
 30
0.000000
 70
40
  0
VERTEX
  8
STANDARDEBENE
 10
110.602173
 20
-229.561172
 30
0.000000
 70
40
  0
VERTEX
  8
STANDARDEBENE
 10
111.086082
 20
-229.561188
 30
0.000000
 70
40
  0
VERTEX
  8
STANDARDEBENE
 10
96.975014
 20
-229.561127
 30
0.000000
 70
48
  0
VERTEX
  8
STANDARDEBENE
 10
111.086121
 20
-229.561127
 30
0.000000
 70
48
  0
VERTEX
  8
STANDARDEBENE
 10
111.086121
 20
-229.561127
 30
0.000000
 70
48
  0
SEQEND
  8
STANDARDEBENE
  0
POLYLINE
  8
STANDARDEBENE
 66
1
 10
0.000000
 20
0.000000
 30
0.000000
 62
5
 70
12
  0
VERTEX
  8
STANDARDEBENE
 10
120.963898
 20
-229.561127
 30
0.000000
 70
48
  0
VERTEX
  8
STANDARDEBENE
 10
120.963898
 20
-229.561127
 30
0.000000
 70
40
  0
VERTEX
  8
STANDARDEBENE
 10
121.447815
 20
-229.561127
 30
0.000000
 70
40
  0
VERTEX
  8
STANDARDEBENE
 10
122.744720
 20
-229.561127
 30
0.000000
 70
40
  0
VERTEX
  8
STANDARDEBENE
 10
124.622337
 20
-229.561127
 30
0.000000
 70
40
  0
VERTEX
  8
STANDARDEBENE
 10
126.848366
 20
-229.561142
 30
0.000000
 70
40
  0
VERTEX
  8
STANDARDEBENE
 10
129.190536
 20
-229.561142
 30
0.000000
 70
40
  0
VERTEX
  8
STANDARDEBENE
 10
131.416580
 20
-229.561157
 30
0.000000
 70
40
  0
VERTEX
  8
STANDARDEBENE
 10
133.294189
 20
-229.561157
 30
0.000000
 70
40
  0
VERTEX
  8
STANDARDEBENE
 10
134.591095
 20
-229.561172
 30
0.000000
 70
40
  0
VERTEX
  8
STANDARDEBENE
 10
135.075012
 20
-229.561188
 30
0.000000
 70
40
  0
VERTEX
  8
STANDARDEBENE
 10
120.963898
 20
-229.561127
 30
0.000000
 70
48
  0
VERTEX
  8
STANDARDEBENE
 10
135.075012
 20
-229.561127
 30
0.000000
 70
48
  0
VERTEX
  8
STANDARDEBENE
 10
135.075012
 20
-229.561127
 30
0.000000
 70
48
  0
SEQEND
  8
STANDARDEBENE
  0
POLYLINE
  8
STANDARDEBENE
 66
1
 10
0.000000
 20
0.000000
 30
0.000000
 62
5
 70
12
  0
VERTEX
  8
STANDARDEBENE
 10
144.952789
 20
-229.561127
 30
0.000000
 70
48
  0
VERTEX
  8
STANDARDEBENE
 10
144.952789
 20
-229.561127
 30
0.000000
 70
40
  0
VERTEX
  8
STANDARDEBENE
 10
145.436707
 20
-229.561127
 30
0.000000
 70
40
  0
VERTEX
  8
STANDARDEBENE
 10
146.733612
 20
-229.561127
 30
0.000000
 70
40
  0
VERTEX
  8
STANDARDEBENE
 10
148.611221
 20
-229.561127
 30
0.000000
 70
40
  0
VERTEX
  8
STANDARDEBENE
 10
150.837265
 20
-229.561142
 30
0.000000
 70
40
  0
VERTEX
  8
STANDARDEBENE
 10
153.179428
 20
-229.561142
 30
0.000000
 70
40
  0
VERTEX
  8
STANDARDEBENE
 10
155.405472
 20
-229.561157
 30
0.000000
 70
40
  0
VERTEX
  8
STANDARDEBENE
 10
157.283081
 20
-229.561157
 30
0.000000
 70
40
  0
VERTEX
  8
STANDARDEBENE
 10
158.579987
 20
-229.561172
 30
0.000000
 70
40
  0
VERTEX
  8
STANDARDEBENE
 10
159.063904
 20
-229.561188
 30
0.000000
 70
40
  0
VERTEX
  8
STANDARDEBENE
 10
144.952789
 20
-229.561127
 30
0.000000
 70
48
  0
VERTEX
  8
STANDARDEBENE
 10
159.063904
 20
-229.561127
 30
0.000000
 70
48
  0
VERTEX
  8
STANDARDEBENE
 10
159.063904
 20
-229.561127
 30
0.000000
 70
48
  0
SEQEND
  8
STANDARDEBENE
  0
POLYLINE
  8
STANDARDEBENE
 66
1
 10
0.000000
 20
0.000000
 30
0.000000
 62
5
 70
12
  0
VERTEX
  8
STANDARDEBENE
 10
168.941681
 20
-229.561127
 30
0.000000
 70
48
  0
VERTEX
  8
STANDARDEBENE
 10
168.941681
 20
-229.561127
 30
0.000000
 70
40
  0
VERTEX
  8
STANDARDEBENE
 10
169.425598
 20
-229.561127
 30
0.000000
 70
40
  0
VERTEX
  8
STANDARDEBENE
 10
170.722504
 20
-229.561127
 30
0.000000
 70
40
  0
VERTEX
  8
STANDARDEBENE
 10
172.600113
 20
-229.561127
 30
0.000000
 70
40
  0
VERTEX
  8
STANDARDEBENE
 10
174.826157
 20
-229.561142
 30
0.000000
 70
40
  0
VERTEX
  8
STANDARDEBENE
 10
177.168320
 20
-229.561142
 30
0.000000
 70
40
  0
VERTEX
  8
STANDARDEBENE
 10
179.394363
 20
-229.561157
 30
0.000000
 70
40
  0
VERTEX
  8
STANDARDEBENE
 10
181.271973
 20
-229.561157
 30
0.000000
 70
40
  0
VERTEX
  8
STANDARDEBENE
 10
182.568878
 20
-229.561172
 30
0.000000
 70
40
  0
VERTEX
  8
STANDARDEBENE
 10
183.052795
 20
-229.561188
 30
0.000000
 70
40
  0
VERTEX
  8
STANDARDEBENE
 10
168.941681
 20
-229.561127
 30
0.000000
 70
48
  0
VERTEX
  8
STANDARDEBENE
 10
183.052795
 20
-229.561127
 30
0.000000
 70
48
  0
VERTEX
  8
STANDARDEBENE
 10
183.052795
 20
-229.561127
 30
0.000000
 70
48
  0
SEQEND
  8
STANDARDEBENE
  0
POLYLINE
  8
STANDARDEBENE
 66
1
 10
0.000000
 20
0.000000
 30
0.000000
 62
5
 70
12
  0
VERTEX
  8
STANDARDEBENE
 10
192.930573
 20
-229.561127
 30
0.000000
 70
48
  0
VERTEX
  8
STANDARDEBENE
 10
192.930573
 20
-229.561127
 30
0.000000
 70
40
  0
VERTEX
  8
STANDARDEBENE
 10
193.414490
 20
-229.561127
 30
0.000000
 70
40
  0
VERTEX
  8
STANDARDEBENE
 10
194.711395
 20
-229.561127
 30
0.000000
 70
40
  0
VERTEX
  8
STANDARDEBENE
 10
196.588989
 20
-229.561127
 30
0.000000
 70
40
  0
VERTEX
  8
STANDARDEBENE
 10
198.815018
 20
-229.561142
 30
0.000000
 70
40
  0
VERTEX
  8
STANDARDEBENE
 10
201.157181
 20
-229.561142
 30
0.000000
 70
40
  0
VERTEX
  8
STANDARDEBENE
 10
203.383194
 20
-229.561157
 30
0.000000
 70
40
  0
VERTEX
  8
STANDARDEBENE
 10
205.260788
 20
-229.561157
 30
0.000000
 70
40
  0
VERTEX
  8
STANDARDEBENE
 10
206.557663
 20
-229.561172
 30
0.000000
 70
40
  0
VERTEX
  8
STANDARDEBENE
 10
207.041565
 20
-229.561188
 30
0.000000
 70
40
  0
VERTEX
  8
STANDARDEBENE
 10
192.930573
 20
-229.561127
 30
0.000000
 70
48
  0
VERTEX
  8
STANDARDEBENE
 10
207.041672
 20
-229.561127
 30
0.000000
 70
48
  0
VERTEX
  8
STANDARDEBENE
 10
207.041672
 20
-229.561127
 30
0.000000
 70
48
  0
SEQEND
  8
STANDARDEBENE
  0
POLYLINE
  8
STANDARDEBENE
 66
1
 10
0.000000
 20
0.000000
 30
0.000000
 62
5
 70
12
  0
VERTEX
  8
STANDARDEBENE
 10
216.919464
 20
-229.561127
 30
0.000000
 70
48
  0
VERTEX
  8
STANDARDEBENE
 10
216.919464
 20
-229.561127
 30
0.000000
 70
40
  0
VERTEX
  8
STANDARDEBENE
 10
217.403381
 20
-229.561127
 30
0.000000
 70
40
  0
VERTEX
  8
STANDARDEBENE
 10
218.700287
 20
-229.561127
 30
0.000000
 70
40
  0
VERTEX
  8
STANDARDEBENE
 10
220.577881
 20
-229.561127
 30
0.000000
 70
40
  0
VERTEX
  8
STANDARDEBENE
 10
222.803909
 20
-229.561142
 30
0.000000
 70
40
  0
VERTEX
  8
STANDARDEBENE
 10
225.146072
 20
-229.561142
 30
0.000000
 70
40
  0
VERTEX
  8
STANDARDEBENE
 10
227.372086
 20
-229.561157
 30
0.000000
 70
40
  0
VERTEX
  8
STANDARDEBENE
 10
229.249680
 20
-229.561157
 30
0.000000
 70
40
  0
VERTEX
  8
STANDARDEBENE
 10
230.546555
 20
-229.561172
 30
0.000000
 70
40
  0
VERTEX
  8
STANDARDEBENE
 10
231.030457
 20
-229.561188
 30
0.000000
 70
40
  0
VERTEX
  8
STANDARDEBENE
 10
216.919464
 20
-229.561127
 30
0.000000
 70
48
  0
VERTEX
  8
STANDARDEBENE
 10
231.030563
 20
-229.561127
 30
0.000000
 70
48
  0
VERTEX
  8
STANDARDEBENE
 10
231.030563
 20
-229.561127
 30
0.000000
 70
48
  0
SEQEND
  8
STANDARDEBENE
  0
POLYLINE
  8
STANDARDEBENE
 66
1
 10
0.000000
 20
0.000000
 30
0.000000
 62
5
 70
12
  0
VERTEX
  8
STANDARDEBENE
 10
240.908340
 20
-229.561127
 30
0.000000
 70
48
  0
VERTEX
  8
STANDARDEBENE
 10
240.908340
 20
-229.561127
 30
0.000000
 70
40
  0
VERTEX
  8
STANDARDEBENE
 10
241.392258
 20
-229.561127
 30
0.000000
 70
40
  0
VERTEX
  8
STANDARDEBENE
 10
242.689163
 20
-229.561127
 30
0.000000
 70
40
  0
VERTEX
  8
STANDARDEBENE
 10
244.566772
 20
-229.561127
 30
0.000000
 70
40
  0
VERTEX
  8
STANDARDEBENE
 10
246.792801
 20
-229.561142
 30
0.000000
 70
40
  0
VERTEX
  8
STANDARDEBENE
 10
249.134979
 20
-229.561142
 30
0.000000
 70
40
  0
VERTEX
  8
STANDARDEBENE
 10
251.361008
 20
-229.561157
 30
0.000000
 70
40
  0
VERTEX
  8
STANDARDEBENE
 10
253.238617
 20
-229.561157
 30
0.000000
 70
40
  0
VERTEX
  8
STANDARDEBENE
 10
254.535507
 20
-229.561172
 30
0.000000
 70
40
  0
VERTEX
  8
STANDARDEBENE
 10
255.019424
 20
-229.561188
 30
0.000000
 70
40
  0
VERTEX
  8
STANDARDEBENE
 10
240.908340
 20
-229.561127
 30
0.000000
 70
48
  0
VERTEX
  8
STANDARDEBENE
 10
255.019455
 20
-229.561127
 30
0.000000
 70
48
  0
VERTEX
  8
STANDARDEBENE
 10
255.019455
 20
-229.561127
 30
0.000000
 70
48
  0
SEQEND
  8
STANDARDEBENE
  0
POLYLINE
  8
STANDARDEBENE
 66
1
 10
0.000000
 20
0.000000
 30
0.000000
 62
5
 70
12
  0
VERTEX
  8
STANDARDEBENE
 10
264.897247
 20
-229.561127
 30
0.000000
 70
48
  0
VERTEX
  8
STANDARDEBENE
 10
264.897247
 20
-229.561127
 30
0.000000
 70
40
  0
VERTEX
  8
STANDARDEBENE
 10
265.381165
 20
-229.561127
 30
0.000000
 70
40
  0
VERTEX
  8
STANDARDEBENE
 10
266.678070
 20
-229.561127
 30
0.000000
 70
40
  0
VERTEX
  8
STANDARDEBENE
 10
268.555664
 20
-229.561127
 30
0.000000
 70
40
  0
VERTEX
  8
STANDARDEBENE
 10
270.781708
 20
-229.561142
 30
0.000000
 70
40
  0
VERTEX
  8
STANDARDEBENE
 10
273.123840
 20
-229.561142
 30
0.000000
 70
40
  0
VERTEX
  8
STANDARDEBENE
 10
275.349884
 20
-229.561157
 30
0.000000
 70
40
  0
VERTEX
  8
STANDARDEBENE
 10
277.227478
 20
-229.561157
 30
0.000000
 70
40
  0
VERTEX
  8
STANDARDEBENE
 10
278.524353
 20
-229.561172
 30
0.000000
 70
40
  0
VERTEX
  8
STANDARDEBENE
 10
279.008270
 20
-229.561188
 30
0.000000
 70
40
  0
VERTEX
  8
STANDARDEBENE
 10
264.897247
 20
-229.561127
 30
0.000000
 70
48
  0
VERTEX
  8
STANDARDEBENE
 10
279.008331
 20
-229.561127
 30
0.000000
 70
48
  0
VERTEX
  8
STANDARDEBENE
 10
279.008331
 20
-229.561127
 30
0.000000
 70
48
  0
SEQEND
  8
STANDARDEBENE
  0
POLYLINE
  8
STANDARDEBENE
 66
1
 10
0.000000
 20
0.000000
 30
0.000000
 62
5
 70
12
  0
VERTEX
  8
STANDARDEBENE
 10
288.886108
 20
-229.561127
 30
0.000000
 70
48
  0
VERTEX
  8
STANDARDEBENE
 10
288.886108
 20
-229.561127
 30
0.000000
 70
40
  0
VERTEX
  8
STANDARDEBENE
 10
289.370026
 20
-229.561127
 30
0.000000
 70
40
  0
VERTEX
  8
STANDARDEBENE
 10
290.666931
 20
-229.561127
 30
0.000000
 70
40
  0
VERTEX
  8
STANDARDEBENE
 10
292.544525
 20
-229.561127
 30
0.000000
 70
40
  0
VERTEX
  8
STANDARDEBENE
 10
294.770569
 20
-229.561142
 30
0.000000
 70
40
  0
VERTEX
  8
STANDARDEBENE
 10
297.112732
 20
-229.561142
 30
0.000000
 70
40
  0
VERTEX
  8
STANDARDEBENE
 10
299.338745
 20
-229.561157
 30
0.000000
 70
40
  0
VERTEX
  8
STANDARDEBENE
 10
301.216339
 20
-229.561157
 30
0.000000
 70
40
  0
VERTEX
  8
STANDARDEBENE
 10
302.513245
 20
-229.561172
 30
0.000000
 70
40
  0
VERTEX
  8
STANDARDEBENE
 10
302.997131
 20
-229.561188
 30
0.000000
 70
40
  0
VERTEX
  8
STANDARDEBENE
 10
288.886108
 20
-229.561127
 30
0.000000
 70
48
  0
VERTEX
  8
STANDARDEBENE
 10
302.997223
 20
-229.561127
 30
0.000000
 70
48
  0
VERTEX
  8
STANDARDEBENE
 10
302.997223
 20
-229.561127
 30
0.000000
 70
48
  0
SEQEND
  8
STANDARDEBENE
  0
POLYLINE
  8
STANDARDEBENE
 66
1
 10
0.000000
 20
0.000000
 30
0.000000
 62
5
 70
12
  0
VERTEX
  8
STANDARDEBENE
 10
312.875000
 20
-229.561127
 30
0.000000
 70
48
  0
VERTEX
  8
STANDARDEBENE
 10
312.875000
 20
-229.561127
 30
0.000000
 70
40
  0
VERTEX
  8
STANDARDEBENE
 10
313.358917
 20
-229.561127
 30
0.000000
 70
40
  0
VERTEX
  8
STANDARDEBENE
 10
314.655823
 20
-229.561127
 30
0.000000
 70
40
  0
VERTEX
  8
STANDARDEBENE
 10
316.533417
 20
-229.561127
 30
0.000000
 70
40
  0
VERTEX
  8
STANDARDEBENE
 10
318.759460
 20
-229.561142
 30
0.000000
 70
40
  0
VERTEX
  8
STANDARDEBENE
 10
321.101624
 20
-229.561142
 30
0.000000
 70
40
  0
VERTEX
  8
STANDARDEBENE
 10
323.327637
 20
-229.561157
 30
0.000000
 70
40
  0
VERTEX
  8
STANDARDEBENE
 10
325.205231
 20
-229.561157
 30
0.000000
 70
40
  0
VERTEX
  8
STANDARDEBENE
 10
326.502136
 20
-229.561172
 30
0.000000
 70
40
  0
VERTEX
  8
STANDARDEBENE
 10
326.986023
 20
-229.561188
 30
0.000000
 70
40
  0
VERTEX
  8
STANDARDEBENE
 10
312.875000
 20
-229.561127
 30
0.000000
 70
48
  0
VERTEX
  8
STANDARDEBENE
 10
326.986115
 20
-229.561127
 30
0.000000
 70
48
  0
VERTEX
  8
STANDARDEBENE
 10
326.986115
 20
-229.561127
 30
0.000000
 70
48
  0
SEQEND
  8
STANDARDEBENE
  0
POLYLINE
  8
STANDARDEBENE
 66
1
 10
0.000000
 20
0.000000
 30
0.000000
 62
5
 70
12
  0
VERTEX
  8
STANDARDEBENE
 10
336.863892
 20
-229.561127
 30
0.000000
 70
48
  0
VERTEX
  8
STANDARDEBENE
 10
336.863892
 20
-229.561127
 30
0.000000
 70
40
  0
VERTEX
  8
STANDARDEBENE
 10
337.347809
 20
-229.561127
 30
0.000000
 70
40
  0
VERTEX
  8
STANDARDEBENE
 10
338.644714
 20
-229.561127
 30
0.000000
 70
40
  0
VERTEX
  8
STANDARDEBENE
 10
340.522308
 20
-229.561127
 30
0.000000
 70
40
  0
VERTEX
  8
STANDARDEBENE
 10
342.748352
 20
-229.561142
 30
0.000000
 70
40
  0
VERTEX
  8
STANDARDEBENE
 10
345.090515
 20
-229.561142
 30
0.000000
 70
40
  0
VERTEX
  8
STANDARDEBENE
 10
347.316528
 20
-229.561157
 30
0.000000
 70
40
  0
VERTEX
  8
STANDARDEBENE
 10
349.194122
 20
-229.561157
 30
0.000000
 70
40
  0
VERTEX
  8
STANDARDEBENE
 10
350.491028
 20
-229.561172
 30
0.000000
 70
40
  0
VERTEX
  8
STANDARDEBENE
 10
350.974915
 20
-229.561188
 30
0.000000
 70
40
  0
VERTEX
  8
STANDARDEBENE
 10
336.863892
 20
-229.561127
 30
0.000000
 70
48
  0
VERTEX
  8
STANDARDEBENE
 10
350.975006
 20
-229.561127
 30
0.000000
 70
48
  0
VERTEX
  8
STANDARDEBENE
 10
350.975006
 20
-229.561127
 30
0.000000
 70
48
  0
SEQEND
  8
STANDARDEBENE
  0
POLYLINE
  8
STANDARDEBENE
 66
1
 10
0.000000
 20
0.000000
 30
0.000000
 62
5
 70
12
  0
VERTEX
  8
STANDARDEBENE
 10
360.852783
 20
-229.561127
 30
0.000000
 70
48
  0
VERTEX
  8
STANDARDEBENE
 10
360.852783
 20
-229.561127
 30
0.000000
 70
40
  0
VERTEX
  8
STANDARDEBENE
 10
361.336700
 20
-229.561127
 30
0.000000
 70
40
  0
VERTEX
  8
STANDARDEBENE
 10
362.633606
 20
-229.561127
 30
0.000000
 70
40
  0
VERTEX
  8
STANDARDEBENE
 10
364.511200
 20
-229.561127
 30
0.000000
 70
40
  0
VERTEX
  8
STANDARDEBENE
 10
366.737244
 20
-229.561142
 30
0.000000
 70
40
  0
VERTEX
  8
STANDARDEBENE
 10
369.079407
 20
-229.561142
 30
0.000000
 70
40
  0
VERTEX
  8
STANDARDEBENE
 10
371.305420
 20
-229.561157
 30
0.000000
 70
40
  0
VERTEX
  8
STANDARDEBENE
 10
373.183014
 20
-229.561157
 30
0.000000
 70
40
  0
VERTEX
  8
STANDARDEBENE
 10
374.479919
 20
-229.561172
 30
0.000000
 70
40
  0
VERTEX
  8
STANDARDEBENE
 10
374.963806
 20
-229.561188
 30
0.000000
 70
40
  0
VERTEX
  8
STANDARDEBENE
 10
360.852783
 20
-229.561127
 30
0.000000
 70
48
  0
VERTEX
  8
STANDARDEBENE
 10
374.963898
 20
-229.561127
 30
0.000000
 70
48
  0
VERTEX
  8
STANDARDEBENE
 10
374.963898
 20
-229.561127
 30
0.000000
 70
48
  0
SEQEND
  8
STANDARDEBENE
  0
POLYLINE
  8
STANDARDEBENE
 66
1
 10
0.000000
 20
0.000000
 30
0.000000
 62
5
 70
12
  0
VERTEX
  8
STANDARDEBENE
 10
384.841675
 20
-229.561127
 30
0.000000
 70
48
  0
VERTEX
  8
STANDARDEBENE
 10
384.841675
 20
-229.561127
 30
0.000000
 70
40
  0
VERTEX
  8
STANDARDEBENE
 10
385.325592
 20
-229.561127
 30
0.000000
 70
40
  0
VERTEX
  8
STANDARDEBENE
 10
386.622498
 20
-229.561127
 30
0.000000
 70
40
  0
VERTEX
  8
STANDARDEBENE
 10
388.500092
 20
-229.561127
 30
0.000000
 70
40
  0
VERTEX
  8
STANDARDEBENE
 10
390.726135
 20
-229.561142
 30
0.000000
 70
40
  0
VERTEX
  8
STANDARDEBENE
 10
393.068298
 20
-229.561142
 30
0.000000
 70
40
  0
VERTEX
  8
STANDARDEBENE
 10
395.294312
 20
-229.561157
 30
0.000000
 70
40
  0
VERTEX
  8
STANDARDEBENE
 10
397.171906
 20
-229.561157
 30
0.000000
 70
40
  0
VERTEX
  8
STANDARDEBENE
 10
398.468811
 20
-229.561172
 30
0.000000
 70
40
  0
VERTEX
  8
STANDARDEBENE
 10
398.952698
 20
-229.561188
 30
0.000000
 70
40
  0
VERTEX
  8
STANDARDEBENE
 10
384.841675
 20
-229.561127
 30
0.000000
 70
48
  0
VERTEX
  8
STANDARDEBENE
 10
398.952789
 20
-229.561127
 30
0.000000
 70
48
  0
VERTEX
  8
STANDARDEBENE
 10
398.952789
 20
-229.561127
 30
0.000000
 70
48
  0
SEQEND
  8
STANDARDEBENE
  0
POLYLINE
  8
STANDARDEBENE
 66
1
 10
0.000000
 20
0.000000
 30
0.000000
 62
5
 70
12
  0
VERTEX
  8
STANDARDEBENE
 10
408.830566
 20
-229.561127
 30
0.000000
 70
48
  0
VERTEX
  8
STANDARDEBENE
 10
408.830566
 20
-229.561127
 30
0.000000
 70
40
  0
VERTEX
  8
STANDARDEBENE
 10
409.314484
 20
-229.561127
 30
0.000000
 70
40
  0
VERTEX
  8
STANDARDEBENE
 10
410.611389
 20
-229.561127
 30
0.000000
 70
40
  0
VERTEX
  8
STANDARDEBENE
 10
412.488983
 20
-229.561127
 30
0.000000
 70
40
  0
VERTEX
  8
STANDARDEBENE
 10
414.715027
 20
-229.561142
 30
0.000000
 70
40
  0
VERTEX
  8
STANDARDEBENE
 10
417.057190
 20
-229.561142
 30
0.000000
 70
40
  0
VERTEX
  8
STANDARDEBENE
 10
419.283203
 20
-229.561157
 30
0.000000
 70
40
  0
VERTEX
  8
STANDARDEBENE
 10
421.160797
 20
-229.561157
 30
0.000000
 70
40
  0
VERTEX
  8
STANDARDEBENE
 10
422.457703
 20
-229.561172
 30
0.000000
 70
40
  0
VERTEX
  8
STANDARDEBENE
 10
422.941589
 20
-229.561188
 30
0.000000
 70
40
  0
VERTEX
  8
STANDARDEBENE
 10
408.830566
 20
-229.561127
 30
0.000000
 70
48
  0
VERTEX
  8
STANDARDEBENE
 10
422.941681
 20
-229.561127
 30
0.000000
 70
48
  0
VERTEX
  8
STANDARDEBENE
 10
422.941681
 20
-229.561127
 30
0.000000
 70
48
  0
SEQEND
  8
STANDARDEBENE
  0
POLYLINE
  8
STANDARDEBENE
 66
1
 10
0.000000
 20
0.000000
 30
0.000000
 62
5
 70
12
  0
VERTEX
  8
STANDARDEBENE
 10
432.819458
 20
-229.561127
 30
0.000000
 70
48
  0
VERTEX
  8
STANDARDEBENE
 10
432.819458
 20
-229.561127
 30
0.000000
 70
40
  0
VERTEX
  8
STANDARDEBENE
 10
433.303375
 20
-229.561127
 30
0.000000
 70
40
  0
VERTEX
  8
STANDARDEBENE
 10
434.600281
 20
-229.561127
 30
0.000000
 70
40
  0
VERTEX
  8
STANDARDEBENE
 10
436.477875
 20
-229.561127
 30
0.000000
 70
40
  0
VERTEX
  8
STANDARDEBENE
 10
438.703918
 20
-229.561142
 30
0.000000
 70
40
  0
VERTEX
  8
STANDARDEBENE
 10
441.046082
 20
-229.561142
 30
0.000000
 70
40
  0
VERTEX
  8
STANDARDEBENE
 10
443.272095
 20
-229.561157
 30
0.000000
 70
40
  0
VERTEX
  8
STANDARDEBENE
 10
445.149689
 20
-229.561157
 30
0.000000
 70
40
  0
VERTEX
  8
STANDARDEBENE
 10
446.446594
 20
-229.561172
 30
0.000000
 70
40
  0
VERTEX
  8
STANDARDEBENE
 10
446.930481
 20
-229.561188
 30
0.000000
 70
40
  0
VERTEX
  8
STANDARDEBENE
 10
432.819458
 20
-229.561127
 30
0.000000
 70
48
  0
VERTEX
  8
STANDARDEBENE
 10
446.930573
 20
-229.561127
 30
0.000000
 70
48
  0
VERTEX
  8
STANDARDEBENE
 10
446.930573
 20
-229.561127
 30
0.000000
 70
48
  0
SEQEND
  8
STANDARDEBENE
  0
POLYLINE
  8
STANDARDEBENE
 66
1
 10
0.000000
 20
0.000000
 30
0.000000
 62
5
 70
12
  0
VERTEX
  8
STANDARDEBENE
 10
456.808350
 20
-229.561127
 30
0.000000
 70
48
  0
VERTEX
  8
STANDARDEBENE
 10
456.808350
 20
-229.561127
 30
0.000000
 70
40
  0
VERTEX
  8
STANDARDEBENE
 10
457.292267
 20
-229.561127
 30
0.000000
 70
40
  0
VERTEX
  8
STANDARDEBENE
 10
458.589172
 20
-229.561127
 30
0.000000
 70
40
  0
VERTEX
  8
STANDARDEBENE
 10
460.466766
 20
-229.561127
 30
0.000000
 70
40
  0
VERTEX
  8
STANDARDEBENE
 10
462.692810
 20
-229.561142
 30
0.000000
 70
40
  0
VERTEX
  8
STANDARDEBENE
 10
465.034973
 20
-229.561142
 30
0.000000
 70
40
  0
VERTEX
  8
STANDARDEBENE
 10
467.260986
 20
-229.561157
 30
0.000000
 70
40
  0
VERTEX
  8
STANDARDEBENE
 10
469.138580
 20
-229.561157
 30
0.000000
 70
40
  0
VERTEX
  8
STANDARDEBENE
 10
470.435486
 20
-229.561172
 30
0.000000
 70
40
  0
VERTEX
  8
STANDARDEBENE
 10
470.919373
 20
-229.561188
 30
0.000000
 70
40
  0
VERTEX
  8
STANDARDEBENE
 10
456.808350
 20
-229.561127
 30
0.000000
 70
48
  0
VERTEX
  8
STANDARDEBENE
 10
470.919464
 20
-229.561127
 30
0.000000
 70
48
  0
VERTEX
  8
STANDARDEBENE
 10
470.919464
 20
-229.561127
 30
0.000000
 70
48
  0
SEQEND
  8
STANDARDEBENE
  0
POLYLINE
  8
STANDARDEBENE
 66
1
 10
0.000000
 20
0.000000
 30
0.000000
 62
5
 70
12
  0
VERTEX
  8
STANDARDEBENE
 10
480.797241
 20
-229.561127
 30
0.000000
 70
48
  0
VERTEX
  8
STANDARDEBENE
 10
480.797241
 20
-229.561127
 30
0.000000
 70
40
  0
VERTEX
  8
STANDARDEBENE
 10
481.281158
 20
-229.561127
 30
0.000000
 70
40
  0
VERTEX
  8
STANDARDEBENE
 10
482.578064
 20
-229.561127
 30
0.000000
 70
40
  0
VERTEX
  8
STANDARDEBENE
 10
484.455658
 20
-229.561127
 30
0.000000
 70
40
  0
VERTEX
  8
STANDARDEBENE
 10
486.681702
 20
-229.561142
 30
0.000000
 70
40
  0
VERTEX
  8
STANDARDEBENE
 10
489.023865
 20
-229.561142
 30
0.000000
 70
40
  0
VERTEX
  8
STANDARDEBENE
 10
491.249878
 20
-229.561157
 30
0.000000
 70
40
  0
VERTEX
  8
STANDARDEBENE
 10
493.127472
 20
-229.561157
 30
0.000000
 70
40
  0
VERTEX
  8
STANDARDEBENE
 10
494.424377
 20
-229.561172
 30
0.000000
 70
40
  0
VERTEX
  8
STANDARDEBENE
 10
494.908264
 20
-229.561188
 30
0.000000
 70
40
  0
VERTEX
  8
STANDARDEBENE
 10
480.797241
 20
-229.561127
 30
0.000000
 70
48
  0
VERTEX
  8
STANDARDEBENE
 10
494.908356
 20
-229.561127
 30
0.000000
 70
48
  0
VERTEX
  8
STANDARDEBENE
 10
494.908356
 20
-229.561127
 30
0.000000
 70
48
  0
SEQEND
  8
STANDARDEBENE
  0
POLYLINE
  8
STANDARDEBENE
 66
1
 10
0.000000
 20
0.000000
 30
0.000000
 62
5
 70
12
  0
VERTEX
  8
STANDARDEBENE
 10
504.786133
 20
-229.561127
 30
0.000000
 70
48
  0
VERTEX
  8
STANDARDEBENE
 10
504.786133
 20
-229.561127
 30
0.000000
 70
40
  0
VERTEX
  8
STANDARDEBENE
 10
505.270050
 20
-229.561127
 30
0.000000
 70
40
  0
VERTEX
  8
STANDARDEBENE
 10
506.566956
 20
-229.561127
 30
0.000000
 70
40
  0
VERTEX
  8
STANDARDEBENE
 10
508.444550
 20
-229.561127
 30
0.000000
 70
40
  0
VERTEX
  8
STANDARDEBENE
 10
510.670593
 20
-229.561142
 30
0.000000
 70
40
  0
VERTEX
  8
STANDARDEBENE
 10
513.012756
 20
-229.561142
 30
0.000000
 70
40
  0
VERTEX
  8
STANDARDEBENE
 10
515.238770
 20
-229.561157
 30
0.000000
 70
40
  0
VERTEX
  8
STANDARDEBENE
 10
517.116394
 20
-229.561157
 30
0.000000
 70
40
  0
VERTEX
  8
STANDARDEBENE
 10
518.413269
 20
-229.561172
 30
0.000000
 70
40
  0
VERTEX
  8
STANDARDEBENE
 10
518.897217
 20
-229.561188
 30
0.000000
 70
40
  0
VERTEX
  8
STANDARDEBENE
 10
504.786133
 20
-229.561127
 30
0.000000
 70
48
  0
VERTEX
  8
STANDARDEBENE
 10
518.897217
 20
-229.561127
 30
0.000000
 70
48
  0
VERTEX
  8
STANDARDEBENE
 10
518.897217
 20
-229.561127
 30
0.000000
 70
48
  0
SEQEND
  8
STANDARDEBENE
  0
POLYLINE
  8
STANDARDEBENE
 66
1
 10
0.000000
 20
0.000000
 30
0.000000
 62
5
 70
12
  0
VERTEX
  8
STANDARDEBENE
 10
528.775024
 20
-229.561127
 30
0.000000
 70
48
  0
VERTEX
  8
STANDARDEBENE
 10
528.775024
 20
-229.561127
 30
0.000000
 70
40
  0
VERTEX
  8
STANDARDEBENE
 10
529.258972
 20
-229.561127
 30
0.000000
 70
40
  0
VERTEX
  8
STANDARDEBENE
 10
530.555847
 20
-229.561127
 30
0.000000
 70
40
  0
VERTEX
  8
STANDARDEBENE
 10
532.433472
 20
-229.561127
 30
0.000000
 70
40
  0
VERTEX
  8
STANDARDEBENE
 10
534.659485
 20
-229.561142
 30
0.000000
 70
40
  0
VERTEX
  8
STANDARDEBENE
 10
537.001648
 20
-229.561142
 30
0.000000
 70
40
  0
VERTEX
  8
STANDARDEBENE
 10
539.227661
 20
-229.561157
 30
0.000000
 70
40
  0
VERTEX
  8
STANDARDEBENE
 10
541.105286
 20
-229.561157
 30
0.000000
 70
40
  0
VERTEX
  8
STANDARDEBENE
 10
542.402161
 20
-229.561172
 30
0.000000
 70
40
  0
VERTEX
  8
STANDARDEBENE
 10
542.886108
 20
-229.561188
 30
0.000000
 70
40
  0
VERTEX
  8
STANDARDEBENE
 10
528.775024
 20
-229.561127
 30
0.000000
 70
48
  0
VERTEX
  8
STANDARDEBENE
 10
542.886108
 20
-229.561127
 30
0.000000
 70
48
  0
VERTEX
  8
STANDARDEBENE
 10
542.886108
 20
-229.561127
 30
0.000000
 70
48
  0
SEQEND
  8
STANDARDEBENE
  0
POLYLINE
  8
STANDARDEBENE
 66
1
 10
0.000000
 20
0.000000
 30
0.000000
 62
5
 70
12
  0
VERTEX
  8
STANDARDEBENE
 10
552.763916
 20
-229.561127
 30
0.000000
 70
48
  0
VERTEX
  8
STANDARDEBENE
 10
552.763916
 20
-229.561127
 30
0.000000
 70
40
  0
VERTEX
  8
STANDARDEBENE
 10
553.247864
 20
-229.561127
 30
0.000000
 70
40
  0
VERTEX
  8
STANDARDEBENE
 10
554.544739
 20
-229.561127
 30
0.000000
 70
40
  0
VERTEX
  8
STANDARDEBENE
 10
556.422363
 20
-229.561127
 30
0.000000
 70
40
  0
VERTEX
  8
STANDARDEBENE
 10
558.648376
 20
-229.561142
 30
0.000000
 70
40
  0
VERTEX
  8
STANDARDEBENE
 10
560.990540
 20
-229.561142
 30
0.000000
 70
40
  0
VERTEX
  8
STANDARDEBENE
 10
563.216553
 20
-229.561157
 30
0.000000
 70
40
  0
VERTEX
  8
STANDARDEBENE
 10
565.094177
 20
-229.561157
 30
0.000000
 70
40
  0
VERTEX
  8
STANDARDEBENE
 10
566.391052
 20
-229.561172
 30
0.000000
 70
40
  0
VERTEX
  8
STANDARDEBENE
 10
566.875000
 20
-229.561188
 30
0.000000
 70
40
  0
VERTEX
  8
STANDARDEBENE
 10
552.763916
 20
-229.561127
 30
0.000000
 70
48
  0
VERTEX
  8
STANDARDEBENE
 10
566.875000
 20
-229.561127
 30
0.000000
 70
48
  0
VERTEX
  8
STANDARDEBENE
 10
566.875000
 20
-229.561127
 30
0.000000
 70
48
  0
SEQEND
  8
STANDARDEBENE
  0
POLYLINE
  8
STANDARDEBENE
 66
1
 10
0.000000
 20
0.000000
 30
0.000000
 62
5
 70
12
  0
VERTEX
  8
STANDARDEBENE
 10
576.752808
 20
-229.561127
 30
0.000000
 70
48
  0
VERTEX
  8
STANDARDEBENE
 10
576.752808
 20
-229.561127
 30
0.000000
 70
40
  0
VERTEX
  8
STANDARDEBENE
 10
577.236755
 20
-229.561127
 30
0.000000
 70
40
  0
VERTEX
  8
STANDARDEBENE
 10
578.533630
 20
-229.561127
 30
0.000000
 70
40
  0
VERTEX
  8
STANDARDEBENE
 10
580.411255
 20
-229.561127
 30
0.000000
 70
40
  0
VERTEX
  8
STANDARDEBENE
 10
582.637268
 20
-229.561142
 30
0.000000
 70
40
  0
VERTEX
  8
STANDARDEBENE
 10
584.979431
 20
-229.561142
 30
0.000000
 70
40
  0
VERTEX
  8
STANDARDEBENE
 10
587.205444
 20
-229.561157
 30
0.000000
 70
40
  0
VERTEX
  8
STANDARDEBENE
 10
589.083069
 20
-229.561157
 30
0.000000
 70
40
  0
VERTEX
  8
STANDARDEBENE
 10
590.379944
 20
-229.561172
 30
0.000000
 70
40
  0
VERTEX
  8
STANDARDEBENE
 10
590.863892
 20
-229.561188
 30
0.000000
 70
40
  0
VERTEX
  8
STANDARDEBENE
 10
576.752808
 20
-229.561127
 30
0.000000
 70
48
  0
VERTEX
  8
STANDARDEBENE
 10
590.863892
 20
-229.561127
 30
0.000000
 70
48
  0
VERTEX
  8
STANDARDEBENE
 10
590.863892
 20
-229.561127
 30
0.000000
 70
48
  0
SEQEND
  8
STANDARDEBENE
  0
POLYLINE
  8
STANDARDEBENE
 66
1
 10
0.000000
 20
0.000000
 30
0.000000
 62
5
 70
12
  0
VERTEX
  8
STANDARDEBENE
 10
592.275024
 20
-219.683350
 30
0.000000
 70
48
  0
VERTEX
  8
STANDARDEBENE
 10
592.275024
 20
-219.683350
 30
0.000000
 70
40
  0
VERTEX
  8
STANDARDEBENE
 10
592.275024
 20
-220.070480
 30
0.000000
 70
40
  0
VERTEX
  8
STANDARDEBENE
 10
592.275024
 20
-221.108002
 30
0.000000
 70
40
  0
VERTEX
  8
STANDARDEBENE
 10
592.275024
 20
-222.610092
 30
0.000000
 70
40
  0
VERTEX
  8
STANDARDEBENE
 10
592.275024
 20
-224.390915
 30
0.000000
 70
40
  0
VERTEX
  8
STANDARDEBENE
 10
592.275024
 20
-226.264664
 30
0.000000
 70
40
  0
VERTEX
  8
STANDARDEBENE
 10
592.275024
 20
-228.045486
 30
0.000000
 70
40
  0
VERTEX
  8
STANDARDEBENE
 10
592.275024
 20
-229.547577
 30
0.000000
 70
40
  0
VERTEX
  8
STANDARDEBENE
 10
592.275024
 20
-230.585098
 30
0.000000
 70
40
  0
VERTEX
  8
STANDARDEBENE
 10
592.275024
 20
-230.972229
 30
0.000000
 70
40
  0
VERTEX
  8
STANDARDEBENE
 10
592.275024
 20
-219.683350
 30
0.000000
 70
48
  0
VERTEX
  8
STANDARDEBENE
 10
592.275024
 20
-230.972229
 30
0.000000
 70
48
  0
VERTEX
  8
STANDARDEBENE
 10
592.275024
 20
-230.972229
 30
0.000000
 70
48
  0
SEQEND
  8
STANDARDEBENE
  0
POLYLINE
  8
STANDARDEBENE
 66
1
 10
0.000000
 20
0.000000
 30
0.000000
 62
5
 70
12
  0
VERTEX
  8
STANDARDEBENE
 10
592.275024
 20
-199.927780
 30
0.000000
 70
48
  0
VERTEX
  8
STANDARDEBENE
 10
592.275024
 20
-199.927780
 30
0.000000
 70
40
  0
VERTEX
  8
STANDARDEBENE
 10
592.275024
 20
-200.314911
 30
0.000000
 70
40
  0
VERTEX
  8
STANDARDEBENE
 10
592.275024
 20
-201.352448
 30
0.000000
 70
40
  0
VERTEX
  8
STANDARDEBENE
 10
592.275024
 20
-202.854538
 30
0.000000
 70
40
  0
VERTEX
  8
STANDARDEBENE
 10
592.275024
 20
-204.635376
 30
0.000000
 70
40
  0
VERTEX
  8
STANDARDEBENE
 10
592.275024
 20
-206.509125
 30
0.000000
 70
40
  0
VERTEX
  8
STANDARDEBENE
 10
592.275024
 20
-208.289963
 30
0.000000
 70
40
  0
VERTEX
  8
STANDARDEBENE
 10
592.275024
 20
-209.792053
 30
0.000000
 70
40
  0
VERTEX
  8
STANDARDEBENE
 10
592.275024
 20
-210.829605
 30
0.000000
 70
40
  0
VERTEX
  8
STANDARDEBENE
 10
592.275024
 20
-211.216751
 30
0.000000
 70
40
  0
VERTEX
  8
STANDARDEBENE
 10
592.275024
 20
-199.927780
 30
0.000000
 70
48
  0
VERTEX
  8
STANDARDEBENE
 10
592.275024
 20
-211.216675
 30
0.000000
 70
48
  0
VERTEX
  8
STANDARDEBENE
 10
592.275024
 20
-211.216675
 30
0.000000
 70
48
  0
SEQEND
  8
STANDARDEBENE
  0
POLYLINE
  8
STANDARDEBENE
 66
1
 10
0.000000
 20
0.000000
 30
0.000000
 62
5
 70
12
  0
VERTEX
  8
STANDARDEBENE
 10
592.275024
 20
-180.172226
 30
0.000000
 70
48
  0
VERTEX
  8
STANDARDEBENE
 10
592.275024
 20
-180.172226
 30
0.000000
 70
40
  0
VERTEX
  8
STANDARDEBENE
 10
592.275024
 20
-180.559357
 30
0.000000
 70
40
  0
VERTEX
  8
STANDARDEBENE
 10
592.275024
 20
-181.596893
 30
0.000000
 70
40
  0
VERTEX
  8
STANDARDEBENE
 10
592.275024
 20
-183.098984
 30
0.000000
 70
40
  0
VERTEX
  8
STANDARDEBENE
 10
592.275024
 20
-184.879822
 30
0.000000
 70
40
  0
VERTEX
  8
STANDARDEBENE
 10
592.275024
 20
-186.753571
 30
0.000000
 70
40
  0
VERTEX
  8
STANDARDEBENE
 10
592.275024
 20
-188.534409
 30
0.000000
 70
40
  0
VERTEX
  8
STANDARDEBENE
 10
592.275024
 20
-190.036499
 30
0.000000
 70
40
  0
VERTEX
  8
STANDARDEBENE
 10
592.275024
 20
-191.074051
 30
0.000000
 70
40
  0
VERTEX
  8
STANDARDEBENE
 10
592.275024
 20
-191.461197
 30
0.000000
 70
40
  0
VERTEX
  8
STANDARDEBENE
 10
592.275024
 20
-180.172226
 30
0.000000
 70
48
  0
VERTEX
  8
STANDARDEBENE
 10
592.275024
 20
-191.461121
 30
0.000000
 70
48
  0
VERTEX
  8
STANDARDEBENE
 10
592.275024
 20
-191.461121
 30
0.000000
 70
48
  0
SEQEND
  8
STANDARDEBENE
  0
POLYLINE
  8
STANDARDEBENE
 66
1
 10
0.000000
 20
0.000000
 30
0.000000
 62
5
 70
12
  0
VERTEX
  8
STANDARDEBENE
 10
592.275024
 20
-160.416672
 30
0.000000
 70
48
  0
VERTEX
  8
STANDARDEBENE
 10
592.275024
 20
-160.416672
 30
0.000000
 70
40
  0
VERTEX
  8
STANDARDEBENE
 10
592.275024
 20
-160.803802
 30
0.000000
 70
40
  0
VERTEX
  8
STANDARDEBENE
 10
592.275024
 20
-161.841339
 30
0.000000
 70
40
  0
VERTEX
  8
STANDARDEBENE
 10
592.275024
 20
-163.343430
 30
0.000000
 70
40
  0
VERTEX
  8
STANDARDEBENE
 10
592.275024
 20
-165.124268
 30
0.000000
 70
40
  0
VERTEX
  8
STANDARDEBENE
 10
592.275024
 20
-166.998016
 30
0.000000
 70
40
  0
VERTEX
  8
STANDARDEBENE
 10
592.275024
 20
-168.778854
 30
0.000000
 70
40
  0
VERTEX
  8
STANDARDEBENE
 10
592.275024
 20
-170.280945
 30
0.000000
 70
40
  0
VERTEX
  8
STANDARDEBENE
 10
592.275024
 20
-171.318497
 30
0.000000
 70
40
  0
VERTEX
  8
STANDARDEBENE
 10
592.275024
 20
-171.705643
 30
0.000000
 70
40
  0
VERTEX
  8
STANDARDEBENE
 10
592.275024
 20
-160.416672
 30
0.000000
 70
48
  0
VERTEX
  8
STANDARDEBENE
 10
592.275024
 20
-171.705566
 30
0.000000
 70
48
  0
VERTEX
  8
STANDARDEBENE
 10
592.275024
 20
-171.705566
 30
0.000000
 70
48
  0
SEQEND
  8
STANDARDEBENE
  0
POLYLINE
  8
STANDARDEBENE
 66
1
 10
0.000000
 20
0.000000
 30
0.000000
 62
5
 70
12
  0
VERTEX
  8
STANDARDEBENE
 10
592.275024
 20
-140.661118
 30
0.000000
 70
48
  0
VERTEX
  8
STANDARDEBENE
 10
592.275024
 20
-140.661118
 30
0.000000
 70
40
  0
VERTEX
  8
STANDARDEBENE
 10
592.275024
 20
-141.048248
 30
0.000000
 70
40
  0
VERTEX
  8
STANDARDEBENE
 10
592.275024
 20
-142.085785
 30
0.000000
 70
40
  0
VERTEX
  8
STANDARDEBENE
 10
592.275024
 20
-143.587875
 30
0.000000
 70
40
  0
VERTEX
  8
STANDARDEBENE
 10
592.275024
 20
-145.368713
 30
0.000000
 70
40
  0
VERTEX
  8
STANDARDEBENE
 10
592.275024
 20
-147.242462
 30
0.000000
 70
40
  0
VERTEX
  8
STANDARDEBENE
 10
592.275024
 20
-149.023300
 30
0.000000
 70
40
  0
VERTEX
  8
STANDARDEBENE
 10
592.275024
 20
-150.525391
 30
0.000000
 70
40
  0
VERTEX
  8
STANDARDEBENE
 10
592.275024
 20
-151.562943
 30
0.000000
 70
40
  0
VERTEX
  8
STANDARDEBENE
 10
592.275024
 20
-151.950089
 30
0.000000
 70
40
  0
VERTEX
  8
STANDARDEBENE
 10
592.275024
 20
-140.661118
 30
0.000000
 70
48
  0
VERTEX
  8
STANDARDEBENE
 10
592.275024
 20
-151.950012
 30
0.000000
 70
48
  0
VERTEX
  8
STANDARDEBENE
 10
592.275024
 20
-151.950012
 30
0.000000
 70
48
  0
SEQEND
  8
STANDARDEBENE
  0
POLYLINE
  8
STANDARDEBENE
 66
1
 10
0.000000
 20
0.000000
 30
0.000000
 62
5
 70
12
  0
VERTEX
  8
STANDARDEBENE
 10
592.275024
 20
-120.905563
 30
0.000000
 70
48
  0
VERTEX
  8
STANDARDEBENE
 10
592.275024
 20
-120.905563
 30
0.000000
 70
40
  0
VERTEX
  8
STANDARDEBENE
 10
592.275024
 20
-121.292702
 30
0.000000
 70
40
  0
VERTEX
  8
STANDARDEBENE
 10
592.275024
 20
-122.330223
 30
0.000000
 70
40
  0
VERTEX
  8
STANDARDEBENE
 10
592.275024
 20
-123.832314
 30
0.000000
 70
40
  0
VERTEX
  8
STANDARDEBENE
 10
592.275024
 20
-125.613144
 30
0.000000
 70
40
  0
VERTEX
  8
STANDARDEBENE
 10
592.275024
 20
-127.486893
 30
0.000000
 70
40
  0
VERTEX
  8
STANDARDEBENE
 10
592.275024
 20
-129.267715
 30
0.000000
 70
40
  0
VERTEX
  8
STANDARDEBENE
 10
592.275024
 20
-130.769821
 30
0.000000
 70
40
  0
VERTEX
  8
STANDARDEBENE
 10
592.275024
 20
-131.807343
 30
0.000000
 70
40
  0
VERTEX
  8
STANDARDEBENE
 10
592.275024
 20
-132.194489
 30
0.000000
 70
40
  0
VERTEX
  8
STANDARDEBENE
 10
592.275024
 20
-120.905563
 30
0.000000
 70
48
  0
VERTEX
  8
STANDARDEBENE
 10
592.275024
 20
-132.194458
 30
0.000000
 70
48
  0
VERTEX
  8
STANDARDEBENE
 10
592.275024
 20
-132.194458
 30
0.000000
 70
48
  0
SEQEND
  8
STANDARDEBENE
  0
POLYLINE
  8
STANDARDEBENE
 66
1
 10
0.000000
 20
0.000000
 30
0.000000
 62
5
 70
12
  0
VERTEX
  8
STANDARDEBENE
 10
592.275024
 20
-101.150009
 30
0.000000
 70
48
  0
VERTEX
  8
STANDARDEBENE
 10
592.275024
 20
-101.150009
 30
0.000000
 70
40
  0
VERTEX
  8
STANDARDEBENE
 10
592.275024
 20
-101.537148
 30
0.000000
 70
40
  0
VERTEX
  8
STANDARDEBENE
 10
592.275024
 20
-102.574669
 30
0.000000
 70
40
  0
VERTEX
  8
STANDARDEBENE
 10
592.275024
 20
-104.076759
 30
0.000000
 70
40
  0
VERTEX
  8
STANDARDEBENE
 10
592.275024
 20
-105.857582
 30
0.000000
 70
40
  0
VERTEX
  8
STANDARDEBENE
 10
592.275024
 20
-107.731323
 30
0.000000
 70
40
  0
VERTEX
  8
STANDARDEBENE
 10
592.275024
 20
-109.512154
 30
0.000000
 70
40
  0
VERTEX
  8
STANDARDEBENE
 10
592.275024
 20
-111.014236
 30
0.000000
 70
40
  0
VERTEX
  8
STANDARDEBENE
 10
592.275024
 20
-112.051765
 30
0.000000
 70
40
  0
VERTEX
  8
STANDARDEBENE
 10
592.275024
 20
-112.438904
 30
0.000000
 70
40
  0
VERTEX
  8
STANDARDEBENE
 10
592.275024
 20
-101.150009
 30
0.000000
 70
48
  0
VERTEX
  8
STANDARDEBENE
 10
592.275024
 20
-112.438896
 30
0.000000
 70
48
  0
VERTEX
  8
STANDARDEBENE
 10
592.275024
 20
-112.438896
 30
0.000000
 70
48
  0
SEQEND
  8
STANDARDEBENE
  0
POLYLINE
  8
STANDARDEBENE
 66
1
 10
0.000000
 20
0.000000
 30
0.000000
 62
5
 70
12
  0
VERTEX
  8
STANDARDEBENE
 10
592.275024
 20
-81.394455
 30
0.000000
 70
48
  0
VERTEX
  8
STANDARDEBENE
 10
592.275024
 20
-81.394455
 30
0.000000
 70
40
  0
VERTEX
  8
STANDARDEBENE
 10
592.275024
 20
-81.781593
 30
0.000000
 70
40
  0
VERTEX
  8
STANDARDEBENE
 10
592.275024
 20
-82.819115
 30
0.000000
 70
40
  0
VERTEX
  8
STANDARDEBENE
 10
592.275024
 20
-84.321198
 30
0.000000
 70
40
  0
VERTEX
  8
STANDARDEBENE
 10
592.275024
 20
-86.102028
 30
0.000000
 70
40
  0
VERTEX
  8
STANDARDEBENE
 10
592.275024
 20
-87.975761
 30
0.000000
 70
40
  0
VERTEX
  8
STANDARDEBENE
 10
592.275024
 20
-89.756584
 30
0.000000
 70
40
  0
VERTEX
  8
STANDARDEBENE
 10
592.275024
 20
-91.258667
 30
0.000000
 70
40
  0
VERTEX
  8
STANDARDEBENE
 10
592.275024
 20
-92.296188
 30
0.000000
 70
40
  0
VERTEX
  8
STANDARDEBENE
 10
592.275024
 20
-92.683319
 30
0.000000
 70
40
  0
VERTEX
  8
STANDARDEBENE
 10
592.275024
 20
-81.394455
 30
0.000000
 70
48
  0
VERTEX
  8
STANDARDEBENE
 10
592.275024
 20
-92.683342
 30
0.000000
 70
48
  0
VERTEX
  8
STANDARDEBENE
 10
592.275024
 20
-92.683342
 30
0.000000
 70
48
  0
SEQEND
  8
STANDARDEBENE
  0
POLYLINE
  8
STANDARDEBENE
 66
1
 10
0.000000
 20
0.000000
 30
0.000000
 62
5
 70
12
  0
VERTEX
  8
STANDARDEBENE
 10
592.275024
 20
-61.638897
 30
0.000000
 70
48
  0
VERTEX
  8
STANDARDEBENE
 10
592.275024
 20
-61.638897
 30
0.000000
 70
40
  0
VERTEX
  8
STANDARDEBENE
 10
592.275024
 20
-62.026031
 30
0.000000
 70
40
  0
VERTEX
  8
STANDARDEBENE
 10
592.275024
 20
-63.063557
 30
0.000000
 70
40
  0
VERTEX
  8
STANDARDEBENE
 10
592.275024
 20
-64.565643
 30
0.000000
 70
40
  0
VERTEX
  8
STANDARDEBENE
 10
592.275024
 20
-66.346474
 30
0.000000
 70
40
  0
VERTEX
  8
STANDARDEBENE
 10
592.275024
 20
-68.220207
 30
0.000000
 70
40
  0
VERTEX
  8
STANDARDEBENE
 10
592.275024
 20
-70.001038
 30
0.000000
 70
40
  0
VERTEX
  8
STANDARDEBENE
 10
592.275024
 20
-71.503128
 30
0.000000
 70
40
  0
VERTEX
  8
STANDARDEBENE
 10
592.275024
 20
-72.540649
 30
0.000000
 70
40
  0
VERTEX
  8
STANDARDEBENE
 10
592.275024
 20
-72.927780
 30
0.000000
 70
40
  0
VERTEX
  8
STANDARDEBENE
 10
592.275024
 20
-61.638897
 30
0.000000
 70
48
  0
VERTEX
  8
STANDARDEBENE
 10
592.275024
 20
-72.927788
 30
0.000000
 70
48
  0
VERTEX
  8
STANDARDEBENE
 10
592.275024
 20
-72.927788
 30
0.000000
 70
48
  0
SEQEND
  8
STANDARDEBENE
  0
POLYLINE
  8
STANDARDEBENE
 66
1
 10
0.000000
 20
0.000000
 30
0.000000
 62
5
 70
12
  0
VERTEX
  8
STANDARDEBENE
 10
592.275024
 20
-41.883343
 30
0.000000
 70
48
  0
VERTEX
  8
STANDARDEBENE
 10
592.275024
 20
-41.883343
 30
0.000000
 70
40
  0
VERTEX
  8
STANDARDEBENE
 10
592.275024
 20
-42.270477
 30
0.000000
 70
40
  0
VERTEX
  8
STANDARDEBENE
 10
592.275024
 20
-43.308002
 30
0.000000
 70
40
  0
VERTEX
  8
STANDARDEBENE
 10
592.275024
 20
-44.810093
 30
0.000000
 70
40
  0
VERTEX
  8
STANDARDEBENE
 10
592.275024
 20
-46.590919
 30
0.000000
 70
40
  0
VERTEX
  8
STANDARDEBENE
 10
592.275024
 20
-48.464657
 30
0.000000
 70
40
  0
VERTEX
  8
STANDARDEBENE
 10
592.275024
 20
-50.245483
 30
0.000000
 70
40
  0
VERTEX
  8
STANDARDEBENE
 10
592.275024
 20
-51.747574
 30
0.000000
 70
40
  0
VERTEX
  8
STANDARDEBENE
 10
592.275024
 20
-52.785099
 30
0.000000
 70
40
  0
VERTEX
  8
STANDARDEBENE
 10
592.275024
 20
-53.172237
 30
0.000000
 70
40
  0
VERTEX
  8
STANDARDEBENE
 10
592.275024
 20
-41.883343
 30
0.000000
 70
48
  0
VERTEX
  8
STANDARDEBENE
 10
592.275024
 20
-53.172230
 30
0.000000
 70
48
  0
VERTEX
  8
STANDARDEBENE
 10
592.275024
 20
-53.172230
 30
0.000000
 70
48
  0
SEQEND
  8
STANDARDEBENE
  0
POLYLINE
  8
STANDARDEBENE
 66
1
 10
0.000000
 20
0.000000
 30
0.000000
 62
5
 70
12
  0
VERTEX
  8
STANDARDEBENE
 10
592.275024
 20
-22.127787
 30
0.000000
 70
48
  0
VERTEX
  8
STANDARDEBENE
 10
592.275024
 20
-22.127787
 30
0.000000
 70
40
  0
VERTEX
  8
STANDARDEBENE
 10
592.275024
 20
-22.514923
 30
0.000000
 70
40
  0
VERTEX
  8
STANDARDEBENE
 10
592.275024
 20
-23.552448
 30
0.000000
 70
40
  0
VERTEX
  8
STANDARDEBENE
 10
592.275024
 20
-25.054535
 30
0.000000
 70
40
  0
VERTEX
  8
STANDARDEBENE
 10
592.275024
 20
-26.835361
 30
0.000000
 70
40
  0
VERTEX
  8
STANDARDEBENE
 10
592.275024
 20
-28.709101
 30
0.000000
 70
40
  0
VERTEX
  8
STANDARDEBENE
 10
592.275024
 20
-30.489927
 30
0.000000
 70
40
  0
VERTEX
  8
STANDARDEBENE
 10
592.275024
 20
-31.992016
 30
0.000000
 70
40
  0
VERTEX
  8
STANDARDEBENE
 10
592.275024
 20
-33.029541
 30
0.000000
 70
40
  0
VERTEX
  8
STANDARDEBENE
 10
592.275024
 20
-33.416679
 30
0.000000
 70
40
  0
VERTEX
  8
STANDARDEBENE
 10
592.275024
 20
-22.127787
 30
0.000000
 70
48
  0
VERTEX
  8
STANDARDEBENE
 10
592.275024
 20
-33.416676
 30
0.000000
 70
48
  0
VERTEX
  8
STANDARDEBENE
 10
592.275024
 20
-33.416676
 30
0.000000
 70
48
  0
SEQEND
  8
STANDARDEBENE
  0
POLYLINE
  8
STANDARDEBENE
 66
1
 10
0.000000
 20
0.000000
 30
0.000000
 62
5
 70
12
  0
VERTEX
  8
STANDARDEBENE
 10
592.275024
 20
-2.372230
 30
0.000000
 70
48
  0
VERTEX
  8
STANDARDEBENE
 10
592.275024
 20
-2.372230
 30
0.000000
 70
40
  0
VERTEX
  8
STANDARDEBENE
 10
592.275024
 20
-2.759367
 30
0.000000
 70
40
  0
VERTEX
  8
STANDARDEBENE
 10
592.275024
 20
-3.796891
 30
0.000000
 70
40
  0
VERTEX
  8
STANDARDEBENE
 10
592.275024
 20
-5.298979
 30
0.000000
 70
40
  0
VERTEX
  8
STANDARDEBENE
 10
592.275024
 20
-7.079806
 30
0.000000
 70
40
  0
VERTEX
  8
STANDARDEBENE
 10
592.275024
 20
-8.953545
 30
0.000000
 70
40
  0
VERTEX
  8
STANDARDEBENE
 10
592.275024
 20
-10.734371
 30
0.000000
 70
40
  0
VERTEX
  8
STANDARDEBENE
 10
592.275024
 20
-12.236460
 30
0.000000
 70
40
  0
VERTEX
  8
STANDARDEBENE
 10
592.275024
 20
-13.273985
 30
0.000000
 70
40
  0
VERTEX
  8
STANDARDEBENE
 10
592.275024
 20
-13.661121
 30
0.000000
 70
40
  0
VERTEX
  8
STANDARDEBENE
 10
592.275024
 20
-2.372230
 30
0.000000
 70
48
  0
VERTEX
  8
STANDARDEBENE
 10
592.275024
 20
-13.661119
 30
0.000000
 70
48
  0
VERTEX
  8
STANDARDEBENE
 10
592.275024
 20
-13.661119
 30
0.000000
 70
48
  0
SEQEND
  8
STANDARDEBENE
  0
POLYLINE
  8
STANDARDEBENE
 66
1
 10
0.000000
 20
0.000000
 30
0.000000
 62
5
 70
12
  0
VERTEX
  8
STANDARDEBENE
 10
592.275024
 20
17.383326
 30
0.000000
 70
48
  0
VERTEX
  8
STANDARDEBENE
 10
592.275024
 20
17.383326
 30
0.000000
 70
40
  0
VERTEX
  8
STANDARDEBENE
 10
592.275024
 20
16.996189
 30
0.000000
 70
40
  0
VERTEX
  8
STANDARDEBENE
 10
592.275024
 20
15.958665
 30
0.000000
 70
40
  0
VERTEX
  8
STANDARDEBENE
 10
592.275024
 20
14.456576
 30
0.000000
 70
40
  0
VERTEX
  8
STANDARDEBENE
 10
592.275024
 20
12.675751
 30
0.000000
 70
40
  0
VERTEX
  8
STANDARDEBENE
 10
592.275024
 20
10.802011
 30
0.000000
 70
40
  0
VERTEX
  8
STANDARDEBENE
 10
592.275024
 20
9.021185
 30
0.000000
 70
40
  0
VERTEX
  8
STANDARDEBENE
 10
592.275024
 20
7.519097
 30
0.000000
 70
40
  0
VERTEX
  8
STANDARDEBENE
 10
592.275024
 20
6.481573
 30
0.000000
 70
40
  0
VERTEX
  8
STANDARDEBENE
 10
592.275024
 20
6.094437
 30
0.000000
 70
40
  0
VERTEX
  8
STANDARDEBENE
 10
592.275024
 20
17.383326
 30
0.000000
 70
48
  0
VERTEX
  8
STANDARDEBENE
 10
592.275024
 20
6.094437
 30
0.000000
 70
48
  0
VERTEX
  8
STANDARDEBENE
 10
592.275024
 20
6.094437
 30
0.000000
 70
48
  0
SEQEND
  8
STANDARDEBENE
  0
POLYLINE
  8
STANDARDEBENE
 66
1
 10
0.000000
 20
0.000000
 30
0.000000
 62
5
 70
12
  0
VERTEX
  8
STANDARDEBENE
 10
592.275024
 20
37.138882
 30
0.000000
 70
48
  0
VERTEX
  8
STANDARDEBENE
 10
592.275024
 20
37.138882
 30
0.000000
 70
40
  0
VERTEX
  8
STANDARDEBENE
 10
592.275024
 20
36.751747
 30
0.000000
 70
40
  0
VERTEX
  8
STANDARDEBENE
 10
592.275024
 20
35.714222
 30
0.000000
 70
40
  0
VERTEX
  8
STANDARDEBENE
 10
592.275024
 20
34.212135
 30
0.000000
 70
40
  0
VERTEX
  8
STANDARDEBENE
 10
592.275024
 20
32.431309
 30
0.000000
 70
40
  0
VERTEX
  8
STANDARDEBENE
 10
592.275024
 20
30.557571
 30
0.000000
 70
40
  0
VERTEX
  8
STANDARDEBENE
 10
592.275024
 20
28.776747
 30
0.000000
 70
40
  0
VERTEX
  8
STANDARDEBENE
 10
592.275024
 20
27.274662
 30
0.000000
 70
40
  0
VERTEX
  8
STANDARDEBENE
 10
592.275024
 20
26.237139
 30
0.000000
 70
40
  0
VERTEX
  8
STANDARDEBENE
 10
592.275024
 20
25.850006
 30
0.000000
 70
40
  0
VERTEX
  8
STANDARDEBENE
 10
592.275024
 20
37.138882
 30
0.000000
 70
48
  0
VERTEX
  8
STANDARDEBENE
 10
592.275024
 20
25.849993
 30
0.000000
 70
48
  0
VERTEX
  8
STANDARDEBENE
 10
592.275024
 20
25.849993
 30
0.000000
 70
48
  0
SEQEND
  8
STANDARDEBENE
  0
POLYLINE
  8
STANDARDEBENE
 66
1
 10
0.000000
 20
0.000000
 30
0.000000
 62
5
 70
12
  0
VERTEX
  8
STANDARDEBENE
 10
592.275024
 20
56.894436
 30
0.000000
 70
48
  0
VERTEX
  8
STANDARDEBENE
 10
592.275024
 20
56.894436
 30
0.000000
 70
40
  0
VERTEX
  8
STANDARDEBENE
 10
592.275024
 20
56.507301
 30
0.000000
 70
40
  0
VERTEX
  8
STANDARDEBENE
 10
592.275024
 20
55.469776
 30
0.000000
 70
40
  0
VERTEX
  8
STANDARDEBENE
 10
592.275024
 20
53.967690
 30
0.000000
 70
40
  0
VERTEX
  8
STANDARDEBENE
 10
592.275024
 20
52.186863
 30
0.000000
 70
40
  0
VERTEX
  8
STANDARDEBENE
 10
592.275024
 20
50.313126
 30
0.000000
 70
40
  0
VERTEX
  8
STANDARDEBENE
 10
592.275024
 20
48.532303
 30
0.000000
 70
40
  0
VERTEX
  8
STANDARDEBENE
 10
592.275024
 20
47.030216
 30
0.000000
 70
40
  0
VERTEX
  8
STANDARDEBENE
 10
592.275024
 20
45.992695
 30
0.000000
 70
40
  0
VERTEX
  8
STANDARDEBENE
 10
592.275024
 20
45.605560
 30
0.000000
 70
40
  0
VERTEX
  8
STANDARDEBENE
 10
592.275024
 20
56.894436
 30
0.000000
 70
48
  0
VERTEX
  8
STANDARDEBENE
 10
592.275024
 20
45.605549
 30
0.000000
 70
48
  0
VERTEX
  8
STANDARDEBENE
 10
592.275024
 20
45.605549
 30
0.000000
 70
48
  0
SEQEND
  8
STANDARDEBENE
  0
POLYLINE
  8
STANDARDEBENE
 66
1
 10
0.000000
 20
0.000000
 30
0.000000
 62
5
 70
12
  0
VERTEX
  8
STANDARDEBENE
 10
592.275024
 20
76.649994
 30
0.000000
 70
48
  0
VERTEX
  8
STANDARDEBENE
 10
592.275024
 20
76.649994
 30
0.000000
 70
40
  0
VERTEX
  8
STANDARDEBENE
 10
592.275024
 20
76.262856
 30
0.000000
 70
40
  0
VERTEX
  8
STANDARDEBENE
 10
592.275024
 20
75.225334
 30
0.000000
 70
40
  0
VERTEX
  8
STANDARDEBENE
 10
592.275024
 20
73.723251
 30
0.000000
 70
40
  0
VERTEX
  8
STANDARDEBENE
 10
592.275024
 20
71.942421
 30
0.000000
 70
40
  0
VERTEX
  8
STANDARDEBENE
 10
592.275024
 20
70.068687
 30
0.000000
 70
40
  0
VERTEX
  8
STANDARDEBENE
 10
592.275024
 20
68.287865
 30
0.000000
 70
40
  0
VERTEX
  8
STANDARDEBENE
 10
592.275024
 20
66.785782
 30
0.000000
 70
40
  0
VERTEX
  8
STANDARDEBENE
 10
592.275024
 20
65.748260
 30
0.000000
 70
40
  0
VERTEX
  8
STANDARDEBENE
 10
592.275024
 20
65.361130
 30
0.000000
 70
40
  0
VERTEX
  8
STANDARDEBENE
 10
592.275024
 20
76.649994
 30
0.000000
 70
48
  0
VERTEX
  8
STANDARDEBENE
 10
592.275024
 20
65.361107
 30
0.000000
 70
48
  0
VERTEX
  8
STANDARDEBENE
 10
592.275024
 20
65.361107
 30
0.000000
 70
48
  0
SEQEND
  8
STANDARDEBENE
  0
POLYLINE
  8
STANDARDEBENE
 66
1
 10
0.000000
 20
0.000000
 30
0.000000
 62
5
 70
12
  0
VERTEX
  8
STANDARDEBENE
 10
592.275024
 20
96.405548
 30
0.000000
 70
48
  0
VERTEX
  8
STANDARDEBENE
 10
592.275024
 20
96.405548
 30
0.000000
 70
40
  0
VERTEX
  8
STANDARDEBENE
 10
592.275024
 20
96.018410
 30
0.000000
 70
40
  0
VERTEX
  8
STANDARDEBENE
 10
592.275024
 20
94.980888
 30
0.000000
 70
40
  0
VERTEX
  8
STANDARDEBENE
 10
592.275024
 20
93.478806
 30
0.000000
 70
40
  0
VERTEX
  8
STANDARDEBENE
 10
592.275024
 20
91.697975
 30
0.000000
 70
40
  0
VERTEX
  8
STANDARDEBENE
 10
592.275024
 20
89.824242
 30
0.000000
 70
40
  0
VERTEX
  8
STANDARDEBENE
 10
592.275024
 20
88.043419
 30
0.000000
 70
40
  0
VERTEX
  8
STANDARDEBENE
 10
592.275024
 20
86.541336
 30
0.000000
 70
40
  0
VERTEX
  8
STANDARDEBENE
 10
592.275024
 20
85.503815
 30
0.000000
 70
40
  0
VERTEX
  8
STANDARDEBENE
 10
592.275024
 20
85.116684
 30
0.000000
 70
40
  0
VERTEX
  8
STANDARDEBENE
 10
592.275024
 20
96.405548
 30
0.000000
 70
48
  0
VERTEX
  8
STANDARDEBENE
 10
592.275024
 20
85.116661
 30
0.000000
 70
48
  0
VERTEX
  8
STANDARDEBENE
 10
592.275024
 20
85.116661
 30
0.000000
 70
48
  0
SEQEND
  8
STANDARDEBENE
  0
POLYLINE
  8
STANDARDEBENE
 66
1
 10
0.000000
 20
0.000000
 30
0.000000
 62
5
 70
12
  0
VERTEX
  8
STANDARDEBENE
 10
592.275024
 20
116.161102
 30
0.000000
 70
48
  0
VERTEX
  8
STANDARDEBENE
 10
592.275024
 20
116.161102
 30
0.000000
 70
40
  0
VERTEX
  8
STANDARDEBENE
 10
592.275024
 20
115.773964
 30
0.000000
 70
40
  0
VERTEX
  8
STANDARDEBENE
 10
592.275024
 20
114.736443
 30
0.000000
 70
40
  0
VERTEX
  8
STANDARDEBENE
 10
592.275024
 20
113.234360
 30
0.000000
 70
40
  0
VERTEX
  8
STANDARDEBENE
 10
592.275024
 20
111.453529
 30
0.000000
 70
40
  0
VERTEX
  8
STANDARDEBENE
 10
592.275024
 20
109.579796
 30
0.000000
 70
40
  0
VERTEX
  8
STANDARDEBENE
 10
592.275024
 20
107.798973
 30
0.000000
 70
40
  0
VERTEX
  8
STANDARDEBENE
 10
592.275024
 20
106.296890
 30
0.000000
 70
40
  0
VERTEX
  8
STANDARDEBENE
 10
592.275024
 20
105.259369
 30
0.000000
 70
40
  0
VERTEX
  8
STANDARDEBENE
 10
592.275024
 20
104.872238
 30
0.000000
 70
40
  0
VERTEX
  8
STANDARDEBENE
 10
592.275024
 20
116.161102
 30
0.000000
 70
48
  0
VERTEX
  8
STANDARDEBENE
 10
592.275024
 20
104.872215
 30
0.000000
 70
48
  0
VERTEX
  8
STANDARDEBENE
 10
592.275024
 20
104.872215
 30
0.000000
 70
48
  0
SEQEND
  8
STANDARDEBENE
  0
POLYLINE
  8
STANDARDEBENE
 66
1
 10
0.000000
 20
0.000000
 30
0.000000
 62
5
 70
12
  0
VERTEX
  8
STANDARDEBENE
 10
592.275024
 20
135.916656
 30
0.000000
 70
48
  0
VERTEX
  8
STANDARDEBENE
 10
592.275024
 20
135.916656
 30
0.000000
 70
40
  0
VERTEX
  8
STANDARDEBENE
 10
592.275024
 20
135.529526
 30
0.000000
 70
40
  0
VERTEX
  8
STANDARDEBENE
 10
592.275024
 20
134.492004
 30
0.000000
 70
40
  0
VERTEX
  8
STANDARDEBENE
 10
592.275024
 20
132.989914
 30
0.000000
 70
40
  0
VERTEX
  8
STANDARDEBENE
 10
592.275024
 20
131.209091
 30
0.000000
 70
40
  0
VERTEX
  8
STANDARDEBENE
 10
592.275024
 20
129.335358
 30
0.000000
 70
40
  0
VERTEX
  8
STANDARDEBENE
 10
592.275024
 20
127.554527
 30
0.000000
 70
40
  0
VERTEX
  8
STANDARDEBENE
 10
592.275024
 20
126.052444
 30
0.000000
 70
40
  0
VERTEX
  8
STANDARDEBENE
 10
592.275024
 20
125.014923
 30
0.000000
 70
40
  0
VERTEX
  8
STANDARDEBENE
 10
592.275024
 20
124.627792
 30
0.000000
 70
40
  0
VERTEX
  8
STANDARDEBENE
 10
592.275024
 20
135.916656
 30
0.000000
 70
48
  0
VERTEX
  8
STANDARDEBENE
 10
592.275024
 20
124.627769
 30
0.000000
 70
48
  0
VERTEX
  8
STANDARDEBENE
 10
592.275024
 20
124.627769
 30
0.000000
 70
48
  0
SEQEND
  8
STANDARDEBENE
  0
POLYLINE
  8
STANDARDEBENE
 66
1
 10
0.000000
 20
0.000000
 30
0.000000
 62
5
 70
12
  0
VERTEX
  8
STANDARDEBENE
 10
592.275024
 20
155.672211
 30
0.000000
 70
48
  0
VERTEX
  8
STANDARDEBENE
 10
592.275024
 20
155.672211
 30
0.000000
 70
40
  0
VERTEX
  8
STANDARDEBENE
 10
592.275024
 20
155.285080
 30
0.000000
 70
40
  0
VERTEX
  8
STANDARDEBENE
 10
592.275024
 20
154.247559
 30
0.000000
 70
40
  0
VERTEX
  8
STANDARDEBENE
 10
592.275024
 20
152.745468
 30
0.000000
 70
40
  0
VERTEX
  8
STANDARDEBENE
 10
592.275024
 20
150.964645
 30
0.000000
 70
40
  0
VERTEX
  8
STANDARDEBENE
 10
592.275024
 20
149.090897
 30
0.000000
 70
40
  0
VERTEX
  8
STANDARDEBENE
 10
592.275024
 20
147.310074
 30
0.000000
 70
40
  0
VERTEX
  8
STANDARDEBENE
 10
592.275024
 20
145.807983
 30
0.000000
 70
40
  0
VERTEX
  8
STANDARDEBENE
 10
592.275024
 20
144.770462
 30
0.000000
 70
40
  0
VERTEX
  8
STANDARDEBENE
 10
592.275024
 20
144.383331
 30
0.000000
 70
40
  0
VERTEX
  8
STANDARDEBENE
 10
592.275024
 20
155.672211
 30
0.000000
 70
48
  0
VERTEX
  8
STANDARDEBENE
 10
592.275024
 20
144.383331
 30
0.000000
 70
48
  0
VERTEX
  8
STANDARDEBENE
 10
592.275024
 20
144.383331
 30
0.000000
 70
48
  0
SEQEND
  8
STANDARDEBENE
  0
POLYLINE
  8
STANDARDEBENE
 66
1
 10
0.000000
 20
0.000000
 30
0.000000
 62
5
 70
12
  0
VERTEX
  8
STANDARDEBENE
 10
592.275024
 20
175.427765
 30
0.000000
 70
48
  0
VERTEX
  8
STANDARDEBENE
 10
592.275024
 20
175.427765
 30
0.000000
 70
40
  0
VERTEX
  8
STANDARDEBENE
 10
592.275024
 20
175.040634
 30
0.000000
 70
40
  0
VERTEX
  8
STANDARDEBENE
 10
592.275024
 20
174.003098
 30
0.000000
 70
40
  0
VERTEX
  8
STANDARDEBENE
 10
592.275024
 20
172.501007
 30
0.000000
 70
40
  0
VERTEX
  8
STANDARDEBENE
 10
592.275024
 20
170.720184
 30
0.000000
 70
40
  0
VERTEX
  8
STANDARDEBENE
 10
592.275024
 20
168.846436
 30
0.000000
 70
40
  0
VERTEX
  8
STANDARDEBENE
 10
592.275024
 20
167.065598
 30
0.000000
 70
40
  0
VERTEX
  8
STANDARDEBENE
 10
592.275024
 20
165.563507
 30
0.000000
 70
40
  0
VERTEX
  8
STANDARDEBENE
 10
592.275024
 20
164.525970
 30
0.000000
 70
40
  0
VERTEX
  8
STANDARDEBENE
 10
592.275024
 20
164.138824
 30
0.000000
 70
40
  0
VERTEX
  8
STANDARDEBENE
 10
592.275024
 20
175.427765
 30
0.000000
 70
48
  0
VERTEX
  8
STANDARDEBENE
 10
592.275024
 20
164.138885
 30
0.000000
 70
48
  0
VERTEX
  8
STANDARDEBENE
 10
592.275024
 20
164.138885
 30
0.000000
 70
48
  0
SEQEND
  8
STANDARDEBENE
  0
POLYLINE
  8
STANDARDEBENE
 66
1
 10
0.000000
 20
0.000000
 30
0.000000
 62
5
 70
12
  0
VERTEX
  8
STANDARDEBENE
 10
592.275024
 20
195.183319
 30
0.000000
 70
48
  0
VERTEX
  8
STANDARDEBENE
 10
592.275024
 20
195.183319
 30
0.000000
 70
40
  0
VERTEX
  8
STANDARDEBENE
 10
592.275024
 20
194.796188
 30
0.000000
 70
40
  0
VERTEX
  8
STANDARDEBENE
 10
592.275024
 20
193.758667
 30
0.000000
 70
40
  0
VERTEX
  8
STANDARDEBENE
 10
592.275024
 20
192.256577
 30
0.000000
 70
40
  0
VERTEX
  8
STANDARDEBENE
 10
592.275024
 20
190.475754
 30
0.000000
 70
40
  0
VERTEX
  8
STANDARDEBENE
 10
592.275024
 20
188.602036
 30
0.000000
 70
40
  0
VERTEX
  8
STANDARDEBENE
 10
592.275024
 20
186.821213
 30
0.000000
 70
40
  0
VERTEX
  8
STANDARDEBENE
 10
592.275024
 20
185.319138
 30
0.000000
 70
40
  0
VERTEX
  8
STANDARDEBENE
 10
592.275024
 20
184.281616
 30
0.000000
 70
40
  0
VERTEX
  8
STANDARDEBENE
 10
592.275024
 20
183.894501
 30
0.000000
 70
40
  0
VERTEX
  8
STANDARDEBENE
 10
592.275024
 20
195.183319
 30
0.000000
 70
48
  0
VERTEX
  8
STANDARDEBENE
 10
592.275024
 20
183.894440
 30
0.000000
 70
48
  0
VERTEX
  8
STANDARDEBENE
 10
592.275024
 20
183.894440
 30
0.000000
 70
48
  0
SEQEND
  8
STANDARDEBENE
  0
POLYLINE
  8
STANDARDEBENE
 66
1
 10
0.000000
 20
0.000000
 30
0.000000
 62
5
 70
12
  0
VERTEX
  8
STANDARDEBENE
 10
592.275024
 20
214.938889
 30
0.000000
 70
48
  0
VERTEX
  8
STANDARDEBENE
 10
592.275024
 20
214.938889
 30
0.000000
 70
40
  0
VERTEX
  8
STANDARDEBENE
 10
592.275024
 20
214.551758
 30
0.000000
 70
40
  0
VERTEX
  8
STANDARDEBENE
 10
592.275024
 20
213.514221
 30
0.000000
 70
40
  0
VERTEX
  8
STANDARDEBENE
 10
592.275024
 20
212.012131
 30
0.000000
 70
40
  0
VERTEX
  8
STANDARDEBENE
 10
592.275024
 20
210.231308
 30
0.000000
 70
40
  0
VERTEX
  8
STANDARDEBENE
 10
592.275024
 20
208.357559
 30
0.000000
 70
40
  0
VERTEX
  8
STANDARDEBENE
 10
592.275024
 20
206.576736
 30
0.000000
 70
40
  0
VERTEX
  8
STANDARDEBENE
 10
592.275024
 20
205.074646
 30
0.000000
 70
40
  0
VERTEX
  8
STANDARDEBENE
 10
592.275024
 20
204.037125
 30
0.000000
 70
40
  0
VERTEX
  8
STANDARDEBENE
 10
592.275024
 20
203.649979
 30
0.000000
 70
40
  0
VERTEX
  8
STANDARDEBENE
 10
592.275024
 20
214.938889
 30
0.000000
 70
48
  0
VERTEX
  8
STANDARDEBENE
 10
592.275024
 20
203.649994
 30
0.000000
 70
48
  0
VERTEX
  8
STANDARDEBENE
 10
592.275024
 20
203.649994
 30
0.000000
 70
48
  0
SEQEND
  8
STANDARDEBENE
  0
POLYLINE
  8
STANDARDEBENE
 66
1
 10
0.000000
 20
0.000000
 30
0.000000
 62
5
 70
12
  0
VERTEX
  8
STANDARDEBENE
 10
592.275024
 20
234.694443
 30
0.000000
 70
48
  0
VERTEX
  8
STANDARDEBENE
 10
592.275024
 20
234.694443
 30
0.000000
 70
40
  0
VERTEX
  8
STANDARDEBENE
 10
592.275024
 20
234.307312
 30
0.000000
 70
40
  0
VERTEX
  8
STANDARDEBENE
 10
592.275024
 20
233.269775
 30
0.000000
 70
40
  0
VERTEX
  8
STANDARDEBENE
 10
592.275024
 20
231.767685
 30
0.000000
 70
40
  0
VERTEX
  8
STANDARDEBENE
 10
592.275024
 20
229.986862
 30
0.000000
 70
40
  0
VERTEX
  8
STANDARDEBENE
 10
592.275024
 20
228.113113
 30
0.000000
 70
40
  0
VERTEX
  8
STANDARDEBENE
 10
592.275024
 20
226.332291
 30
0.000000
 70
40
  0
VERTEX
  8
STANDARDEBENE
 10
592.275024
 20
224.830200
 30
0.000000
 70
40
  0
VERTEX
  8
STANDARDEBENE
 10
592.275024
 20
223.792664
 30
0.000000
 70
40
  0
VERTEX
  8
STANDARDEBENE
 10
592.275024
 20
223.405518
 30
0.000000
 70
40
  0
VERTEX
  8
STANDARDEBENE
 10
592.275024
 20
234.694443
 30
0.000000
 70
48
  0
VERTEX
  8
STANDARDEBENE
 10
592.275024
 20
223.405548
 30
0.000000
 70
48
  0
VERTEX
  8
STANDARDEBENE
 10
592.275024
 20
223.405548
 30
0.000000
 70
48
  0
SEQEND
  8
STANDARDEBENE
  0
POLYLINE
  8
STANDARDEBENE
 66
1
 10
0.000000
 20
0.000000
 30
0.000000
 62
5
 70
12
  0
VERTEX
  8
STANDARDEBENE
 10
592.275024
 20
254.449997
 30
0.000000
 70
48
  0
VERTEX
  8
STANDARDEBENE
 10
592.275024
 20
254.449997
 30
0.000000
 70
40
  0
VERTEX
  8
STANDARDEBENE
 10
592.275024
 20
254.062866
 30
0.000000
 70
40
  0
VERTEX
  8
STANDARDEBENE
 10
592.275024
 20
253.025330
 30
0.000000
 70
40
  0
VERTEX
  8
STANDARDEBENE
 10
592.275024
 20
251.523239
 30
0.000000
 70
40
  0
VERTEX
  8
STANDARDEBENE
 10
592.275024
 20
249.742416
 30
0.000000
 70
40
  0
VERTEX
  8
STANDARDEBENE
 10
592.275024
 20
247.868668
 30
0.000000
 70
40
  0
VERTEX
  8
STANDARDEBENE
 10
592.275024
 20
246.087845
 30
0.000000
 70
40
  0
VERTEX
  8
STANDARDEBENE
 10
592.275024
 20
244.585754
 30
0.000000
 70
40
  0
VERTEX
  8
STANDARDEBENE
 10
592.275024
 20
243.548218
 30
0.000000
 70
40
  0
VERTEX
  8
STANDARDEBENE
 10
592.275024
 20
243.161072
 30
0.000000
 70
40
  0
VERTEX
  8
STANDARDEBENE
 10
592.275024
 20
254.449997
 30
0.000000
 70
48
  0
VERTEX
  8
STANDARDEBENE
 10
592.275024
 20
243.161102
 30
0.000000
 70
48
  0
VERTEX
  8
STANDARDEBENE
 10
592.275024
 20
243.161102
 30
0.000000
 70
48
  0
SEQEND
  8
STANDARDEBENE
  0
POLYLINE
  8
STANDARDEBENE
 66
1
 10
0.000000
 20
0.000000
 30
0.000000
 62
5
 70
12
  0
VERTEX
  8
STANDARDEBENE
 10
592.275024
 20
274.205536
 30
0.000000
 70
48
  0
VERTEX
  8
STANDARDEBENE
 10
592.275024
 20
274.205536
 30
0.000000
 70
40
  0
VERTEX
  8
STANDARDEBENE
 10
592.275024
 20
273.818390
 30
0.000000
 70
40
  0
VERTEX
  8
STANDARDEBENE
 10
592.275024
 20
272.780884
 30
0.000000
 70
40
  0
VERTEX
  8
STANDARDEBENE
 10
592.275024
 20
271.278809
 30
0.000000
 70
40
  0
VERTEX
  8
STANDARDEBENE
 10
592.275024
 20
269.497986
 30
0.000000
 70
40
  0
VERTEX
  8
STANDARDEBENE
 10
592.275024
 20
267.624237
 30
0.000000
 70
40
  0
VERTEX
  8
STANDARDEBENE
 10
592.275024
 20
265.843445
 30
0.000000
 70
40
  0
VERTEX
  8
STANDARDEBENE
 10
592.275024
 20
264.341339
 30
0.000000
 70
40
  0
VERTEX
  8
STANDARDEBENE
 10
592.275024
 20
263.303833
 30
0.000000
 70
40
  0
VERTEX
  8
STANDARDEBENE
 10
592.275024
 20
262.916718
 30
0.000000
 70
40
  0
VERTEX
  8
STANDARDEBENE
 10
592.275024
 20
274.205536
 30
0.000000
 70
48
  0
VERTEX
  8
STANDARDEBENE
 10
592.275024
 20
262.916656
 30
0.000000
 70
48
  0
VERTEX
  8
STANDARDEBENE
 10
592.275024
 20
262.916656
 30
0.000000
 70
48
  0
SEQEND
  8
STANDARDEBENE
  0
POLYLINE
  8
STANDARDEBENE
 66
1
 10
0.000000
 20
0.000000
 30
0.000000
 62
5
 70
12
  0
VERTEX
  8
STANDARDEBENE
 10
592.275024
 20
293.961090
 30
0.000000
 70
48
  0
VERTEX
  8
STANDARDEBENE
 10
592.275024
 20
293.961090
 30
0.000000
 70
40
  0
VERTEX
  8
STANDARDEBENE
 10
592.275024
 20
293.573944
 30
0.000000
 70
40
  0
VERTEX
  8
STANDARDEBENE
 10
592.275024
 20
292.536438
 30
0.000000
 70
40
  0
VERTEX
  8
STANDARDEBENE
 10
592.275024
 20
291.034332
 30
0.000000
 70
40
  0
VERTEX
  8
STANDARDEBENE
 10
592.275024
 20
289.253510
 30
0.000000
 70
40
  0
VERTEX
  8
STANDARDEBENE
 10
592.275024
 20
287.379761
 30
0.000000
 70
40
  0
VERTEX
  8
STANDARDEBENE
 10
592.275024
 20
285.598938
 30
0.000000
 70
40
  0
VERTEX
  8
STANDARDEBENE
 10
592.275024
 20
284.096832
 30
0.000000
 70
40
  0
VERTEX
  8
STANDARDEBENE
 10
592.275024
 20
283.059296
 30
0.000000
 70
40
  0
VERTEX
  8
STANDARDEBENE
 10
592.275024
 20
282.672150
 30
0.000000
 70
40
  0
VERTEX
  8
STANDARDEBENE
 10
592.275024
 20
293.961090
 30
0.000000
 70
48
  0
VERTEX
  8
STANDARDEBENE
 10
592.275024
 20
282.672211
 30
0.000000
 70
48
  0
VERTEX
  8
STANDARDEBENE
 10
592.275024
 20
282.672211
 30
0.000000
 70
48
  0
SEQEND
  8
STANDARDEBENE
  0
POLYLINE
  8
STANDARDEBENE
 66
1
 10
0.000000
 20
0.000000
 30
0.000000
 62
5
 70
12
  0
VERTEX
  8
STANDARDEBENE
 10
592.275024
 20
313.716675
 30
0.000000
 70
48
  0
VERTEX
  8
STANDARDEBENE
 10
592.275024
 20
313.716675
 30
0.000000
 70
40
  0
VERTEX
  8
STANDARDEBENE
 10
592.275024
 20
313.329529
 30
0.000000
 70
40
  0
VERTEX
  8
STANDARDEBENE
 10
592.275024
 20
312.291992
 30
0.000000
 70
40
  0
VERTEX
  8
STANDARDEBENE
 10
592.275024
 20
310.789917
 30
0.000000
 70
40
  0
VERTEX
  8
STANDARDEBENE
 10
592.275024
 20
309.009064
 30
0.000000
 70
40
  0
VERTEX
  8
STANDARDEBENE
 10
592.275024
 20
307.135315
 30
0.000000
 70
40
  0
VERTEX
  8
STANDARDEBENE
 10
592.275024
 20
305.354492
 30
0.000000
 70
40
  0
VERTEX
  8
STANDARDEBENE
 10
592.275024
 20
303.852386
 30
0.000000
 70
40
  0
VERTEX
  8
STANDARDEBENE
 10
592.275024
 20
302.814819
 30
0.000000
 70
40
  0
VERTEX
  8
STANDARDEBENE
 10
592.275024
 20
302.427673
 30
0.000000
 70
40
  0
VERTEX
  8
STANDARDEBENE
 10
592.275024
 20
313.716675
 30
0.000000
 70
48
  0
VERTEX
  8
STANDARDEBENE
 10
592.275024
 20
302.427765
 30
0.000000
 70
48
  0
VERTEX
  8
STANDARDEBENE
 10
592.275024
 20
302.427765
 30
0.000000
 70
48
  0
SEQEND
  8
STANDARDEBENE
  0
POLYLINE
  8
STANDARDEBENE
 66
1
 10
0.000000
 20
0.000000
 30
0.000000
 62
5
 70
12
  0
VERTEX
  8
STANDARDEBENE
 10
592.275024
 20
333.472229
 30
0.000000
 70
48
  0
VERTEX
  8
STANDARDEBENE
 10
592.275024
 20
333.472229
 30
0.000000
 70
40
  0
VERTEX
  8
STANDARDEBENE
 10
592.275024
 20
333.085083
 30
0.000000
 70
40
  0
VERTEX
  8
STANDARDEBENE
 10
592.275024
 20
332.047546
 30
0.000000
 70
40
  0
VERTEX
  8
STANDARDEBENE
 10
592.275024
 20
330.545471
 30
0.000000
 70
40
  0
VERTEX
  8
STANDARDEBENE
 10
592.275024
 20
328.764618
 30
0.000000
 70
40
  0
VERTEX
  8
STANDARDEBENE
 10
592.275024
 20
326.890869
 30
0.000000
 70
40
  0
VERTEX
  8
STANDARDEBENE
 10
592.275024
 20
325.110046
 30
0.000000
 70
40
  0
VERTEX
  8
STANDARDEBENE
 10
592.275024
 20
323.607941
 30
0.000000
 70
40
  0
VERTEX
  8
STANDARDEBENE
 10
592.275024
 20
322.570374
 30
0.000000
 70
40
  0
VERTEX
  8
STANDARDEBENE
 10
592.275024
 20
322.183228
 30
0.000000
 70
40
  0
VERTEX
  8
STANDARDEBENE
 10
592.275024
 20
333.472229
 30
0.000000
 70
48
  0
VERTEX
  8
STANDARDEBENE
 10
592.275024
 20
322.183319
 30
0.000000
 70
48
  0
VERTEX
  8
STANDARDEBENE
 10
592.275024
 20
322.183319
 30
0.000000
 70
48
  0
SEQEND
  8
STANDARDEBENE
  0
POLYLINE
  8
STANDARDEBENE
 66
1
 10
0.000000
 20
0.000000
 30
0.000000
 62
5
 70
12
  0
VERTEX
  8
STANDARDEBENE
 10
592.275024
 20
353.227783
 30
0.000000
 70
48
  0
VERTEX
  8
STANDARDEBENE
 10
592.275024
 20
353.227783
 30
0.000000
 70
40
  0
VERTEX
  8
STANDARDEBENE
 10
592.275024
 20
352.840637
 30
0.000000
 70
40
  0
VERTEX
  8
STANDARDEBENE
 10
592.275024
 20
351.803101
 30
0.000000
 70
40
  0
VERTEX
  8
STANDARDEBENE
 10
592.275024
 20
350.301025
 30
0.000000
 70
40
  0
VERTEX
  8
STANDARDEBENE
 10
592.275024
 20
348.520172
 30
0.000000
 70
40
  0
VERTEX
  8
STANDARDEBENE
 10
592.275024
 20
346.646423
 30
0.000000
 70
40
  0
VERTEX
  8
STANDARDEBENE
 10
592.275024
 20
344.865601
 30
0.000000
 70
40
  0
VERTEX
  8
STANDARDEBENE
 10
592.275024
 20
343.363495
 30
0.000000
 70
40
  0
VERTEX
  8
STANDARDEBENE
 10
592.275024
 20
342.325928
 30
0.000000
 70
40
  0
VERTEX
  8
STANDARDEBENE
 10
592.275024
 20
341.938782
 30
0.000000
 70
40
  0
VERTEX
  8
STANDARDEBENE
 10
592.275024
 20
353.227783
 30
0.000000
 70
48
  0
VERTEX
  8
STANDARDEBENE
 10
592.275024
 20
341.938873
 30
0.000000
 70
48
  0
VERTEX
  8
STANDARDEBENE
 10
592.275024
 20
341.938873
 30
0.000000
 70
48
  0
SEQEND
  8
STANDARDEBENE
  0
POLYLINE
  8
STANDARDEBENE
 66
1
 10
0.000000
 20
0.000000
 30
0.000000
 62
5
 70
12
  0
VERTEX
  8
STANDARDEBENE
 10
592.275024
 20
372.983337
 30
0.000000
 70
48
  0
VERTEX
  8
STANDARDEBENE
 10
592.275024
 20
372.983337
 30
0.000000
 70
40
  0
VERTEX
  8
STANDARDEBENE
 10
592.275024
 20
372.596191
 30
0.000000
 70
40
  0
VERTEX
  8
STANDARDEBENE
 10
592.275024
 20
371.558685
 30
0.000000
 70
40
  0
VERTEX
  8
STANDARDEBENE
 10
592.275024
 20
370.056580
 30
0.000000
 70
40
  0
VERTEX
  8
STANDARDEBENE
 10
592.275024
 20
368.275757
 30
0.000000
 70
40
  0
VERTEX
  8
STANDARDEBENE
 10
592.275024
 20
366.402008
 30
0.000000
 70
40
  0
VERTEX
  8
STANDARDEBENE
 10
592.275024
 20
364.621185
 30
0.000000
 70
40
  0
VERTEX
  8
STANDARDEBENE
 10
592.275024
 20
363.119110
 30
0.000000
 70
40
  0
VERTEX
  8
STANDARDEBENE
 10
592.275024
 20
362.081573
 30
0.000000
 70
40
  0
VERTEX
  8
STANDARDEBENE
 10
592.275024
 20
361.694458
 30
0.000000
 70
40
  0
VERTEX
  8
STANDARDEBENE
 10
592.275024
 20
372.983337
 30
0.000000
 70
48
  0
VERTEX
  8
STANDARDEBENE
 10
592.275024
 20
361.694427
 30
0.000000
 70
48
  0
VERTEX
  8
STANDARDEBENE
 10
592.275024
 20
361.694427
 30
0.000000
 70
48
  0
SEQEND
  8
STANDARDEBENE
  0
POLYLINE
  8
STANDARDEBENE
 66
1
 10
0.000000
 20
0.000000
 30
0.000000
 62
5
 70
12
  0
VERTEX
  8
STANDARDEBENE
 10
592.275024
 20
392.738892
 30
0.000000
 70
48
  0
VERTEX
  8
STANDARDEBENE
 10
592.275024
 20
392.738892
 30
0.000000
 70
40
  0
VERTEX
  8
STANDARDEBENE
 10
592.275024
 20
392.351746
 30
0.000000
 70
40
  0
VERTEX
  8
STANDARDEBENE
 10
592.275024
 20
391.314209
 30
0.000000
 70
40
  0
VERTEX
  8
STANDARDEBENE
 10
592.275024
 20
389.812134
 30
0.000000
 70
40
  0
VERTEX
  8
STANDARDEBENE
 10
592.275024
 20
388.031281
 30
0.000000
 70
40
  0
VERTEX
  8
STANDARDEBENE
 10
592.275024
 20
386.157532
 30
0.000000
 70
40
  0
VERTEX
  8
STANDARDEBENE
 10
592.275024
 20
384.376709
 30
0.000000
 70
40
  0
VERTEX
  8
STANDARDEBENE
 10
592.275024
 20
382.874603
 30
0.000000
 70
40
  0
VERTEX
  8
STANDARDEBENE
 10
592.275024
 20
381.837036
 30
0.000000
 70
40
  0
VERTEX
  8
STANDARDEBENE
 10
592.275024
 20
381.449890
 30
0.000000
 70
40
  0
VERTEX
  8
STANDARDEBENE
 10
592.275024
 20
392.738892
 30
0.000000
 70
48
  0
VERTEX
  8
STANDARDEBENE
 10
592.275024
 20
381.449982
 30
0.000000
 70
48
  0
VERTEX
  8
STANDARDEBENE
 10
592.275024
 20
381.449982
 30
0.000000
 70
48
  0
SEQEND
  8
STANDARDEBENE
  0
POLYLINE
  8
STANDARDEBENE
 66
1
 10
0.000000
 20
0.000000
 30
0.000000
 62
5
 70
12
  0
VERTEX
  8
STANDARDEBENE
 10
592.275024
 20
411.083313
 30
0.000000
 70
48
  0
VERTEX
  8
STANDARDEBENE
 10
592.275024
 20
411.083313
 30
0.000000
 70
40
  0
VERTEX
  8
STANDARDEBENE
 10
592.275024
 20
410.696167
 30
0.000000
 70
40
  0
VERTEX
  8
STANDARDEBENE
 10
592.275024
 20
409.658661
 30
0.000000
 70
40
  0
VERTEX
  8
STANDARDEBENE
 10
592.275024
 20
408.156555
 30
0.000000
 70
40
  0
VERTEX
  8
STANDARDEBENE
 10
592.275024
 20
406.375732
 30
0.000000
 70
40
  0
VERTEX
  8
STANDARDEBENE
 10
592.275024
 20
404.501953
 30
0.000000
 70
40
  0
VERTEX
  8
STANDARDEBENE
 10
592.275024
 20
402.721130
 30
0.000000
 70
40
  0
VERTEX
  8
STANDARDEBENE
 10
592.275024
 20
401.219025
 30
0.000000
 70
40
  0
VERTEX
  8
STANDARDEBENE
 10
592.275024
 20
400.181488
 30
0.000000
 70
40
  0
VERTEX
  8
STANDARDEBENE
 10
592.275024
 20
399.794312
 30
0.000000
 70
40
  0
VERTEX
  8
STANDARDEBENE
 10
592.275024
 20
411.083313
 30
0.000000
 70
48
  0
VERTEX
  8
STANDARDEBENE
 10
592.275024
 20
399.794434
 30
0.000000
 70
48
  0
VERTEX
  8
STANDARDEBENE
 10
592.275024
 20
399.794434
 30
0.000000
 70
48
  0
SEQEND
  8
STANDARDEBENE
  0
POLYLINE
  8
STANDARDEBENE
 66
1
 10
0.000000
 20
0.000000
 30
0.000000
 62
7
 70
12
  0
VERTEX
  8
STANDARDEBENE
 10
75.808342
 20
-206.983337
 30
0.000000
 70
48
  0
VERTEX
  8
STANDARDEBENE
 10
75.808342
 20
-206.983337
 30
0.000000
 70
40
  0
VERTEX
  8
STANDARDEBENE
 10
75.808342
 20
-207.370468
 30
0.000000
 70
40
  0
VERTEX
  8
STANDARDEBENE
 10
75.808342
 20
-208.407990
 30
0.000000
 70
40
  0
VERTEX
  8
STANDARDEBENE
 10
75.808342
 20
-209.910080
 30
0.000000
 70
40
  0
VERTEX
  8
STANDARDEBENE
 10
75.808342
 20
-211.690903
 30
0.000000
 70
40
  0
VERTEX
  8
STANDARDEBENE
 10
75.808350
 20
-213.564636
 30
0.000000
 70
40
  0
VERTEX
  8
STANDARDEBENE
 10
75.808350
 20
-215.345459
 30
0.000000
 70
40
  0
VERTEX
  8
STANDARDEBENE
 10
75.808350
 20
-216.847549
 30
0.000000
 70
40
  0
VERTEX
  8
STANDARDEBENE
 10
75.808357
 20
-217.885056
 30
0.000000
 70
40
  0
VERTEX
  8
STANDARDEBENE
 10
75.808357
 20
-218.272186
 30
0.000000
 70
40
  0
VERTEX
  8
STANDARDEBENE
 10
75.808342
 20
-206.983337
 30
0.000000
 70
48
  0
VERTEX
  8
STANDARDEBENE
 10
75.808342
 20
-218.272232
 30
0.000000
 70
48
  0
VERTEX
  8
STANDARDEBENE
 10
75.808342
 20
-218.272232
 30
0.000000
 70
48
  0
SEQEND
  8
STANDARDEBENE
  0
POLYLINE
  8
STANDARDEBENE
 66
1
 10
0.000000
 20
0.000000
 30
0.000000
 62
7
 70
12
  0
VERTEX
  8
STANDARDEBENE
 10
75.808342
 20
-187.227783
 30
0.000000
 70
48
  0
VERTEX
  8
STANDARDEBENE
 10
75.808342
 20
-187.227783
 30
0.000000
 70
40
  0
VERTEX
  8
STANDARDEBENE
 10
75.808342
 20
-187.614914
 30
0.000000
 70
40
  0
VERTEX
  8
STANDARDEBENE
 10
75.808342
 20
-188.652435
 30
0.000000
 70
40
  0
VERTEX
  8
STANDARDEBENE
 10
75.808342
 20
-190.154526
 30
0.000000
 70
40
  0
VERTEX
  8
STANDARDEBENE
 10
75.808342
 20
-191.935349
 30
0.000000
 70
40
  0
VERTEX
  8
STANDARDEBENE
 10
75.808350
 20
-193.809082
 30
0.000000
 70
40
  0
VERTEX
  8
STANDARDEBENE
 10
75.808350
 20
-195.589905
 30
0.000000
 70
40
  0
VERTEX
  8
STANDARDEBENE
 10
75.808350
 20
-197.091995
 30
0.000000
 70
40
  0
VERTEX
  8
STANDARDEBENE
 10
75.808357
 20
-198.129501
 30
0.000000
 70
40
  0
VERTEX
  8
STANDARDEBENE
 10
75.808357
 20
-198.516632
 30
0.000000
 70
40
  0
VERTEX
  8
STANDARDEBENE
 10
75.808342
 20
-187.227783
 30
0.000000
 70
48
  0
VERTEX
  8
STANDARDEBENE
 10
75.808342
 20
-198.516678
 30
0.000000
 70
48
  0
VERTEX
  8
STANDARDEBENE
 10
75.808342
 20
-198.516678
 30
0.000000
 70
48
  0
SEQEND
  8
STANDARDEBENE
  0
POLYLINE
  8
STANDARDEBENE
 66
1
 10
0.000000
 20
0.000000
 30
0.000000
 62
7
 70
12
  0
VERTEX
  8
STANDARDEBENE
 10
75.808342
 20
-167.472229
 30
0.000000
 70
48
  0
VERTEX
  8
STANDARDEBENE
 10
75.808342
 20
-167.472229
 30
0.000000
 70
40
  0
VERTEX
  8
STANDARDEBENE
 10
75.808342
 20
-167.859360
 30
0.000000
 70
40
  0
VERTEX
  8
STANDARDEBENE
 10
75.808342
 20
-168.896881
 30
0.000000
 70
40
  0
VERTEX
  8
STANDARDEBENE
 10
75.808342
 20
-170.398972
 30
0.000000
 70
40
  0
VERTEX
  8
STANDARDEBENE
 10
75.808342
 20
-172.179794
 30
0.000000
 70
40
  0
VERTEX
  8
STANDARDEBENE
 10
75.808350
 20
-174.053528
 30
0.000000
 70
40
  0
VERTEX
  8
STANDARDEBENE
 10
75.808350
 20
-175.834351
 30
0.000000
 70
40
  0
VERTEX
  8
STANDARDEBENE
 10
75.808350
 20
-177.336441
 30
0.000000
 70
40
  0
VERTEX
  8
STANDARDEBENE
 10
75.808357
 20
-178.373947
 30
0.000000
 70
40
  0
VERTEX
  8
STANDARDEBENE
 10
75.808357
 20
-178.761078
 30
0.000000
 70
40
  0
VERTEX
  8
STANDARDEBENE
 10
75.808342
 20
-167.472229
 30
0.000000
 70
48
  0
VERTEX
  8
STANDARDEBENE
 10
75.808342
 20
-178.761124
 30
0.000000
 70
48
  0
VERTEX
  8
STANDARDEBENE
 10
75.808342
 20
-178.761124
 30
0.000000
 70
48
  0
SEQEND
  8
STANDARDEBENE
  0
POLYLINE
  8
STANDARDEBENE
 66
1
 10
0.000000
 20
0.000000
 30
0.000000
 62
7
 70
12
  0
VERTEX
  8
STANDARDEBENE
 10
75.808342
 20
-147.716675
 30
0.000000
 70
48
  0
VERTEX
  8
STANDARDEBENE
 10
75.808342
 20
-147.716675
 30
0.000000
 70
40
  0
VERTEX
  8
STANDARDEBENE
 10
75.808342
 20
-148.103806
 30
0.000000
 70
40
  0
VERTEX
  8
STANDARDEBENE
 10
75.808342
 20
-149.141327
 30
0.000000
 70
40
  0
VERTEX
  8
STANDARDEBENE
 10
75.808342
 20
-150.643417
 30
0.000000
 70
40
  0
VERTEX
  8
STANDARDEBENE
 10
75.808342
 20
-152.424240
 30
0.000000
 70
40
  0
VERTEX
  8
STANDARDEBENE
 10
75.808350
 20
-154.297974
 30
0.000000
 70
40
  0
VERTEX
  8
STANDARDEBENE
 10
75.808350
 20
-156.078796
 30
0.000000
 70
40
  0
VERTEX
  8
STANDARDEBENE
 10
75.808350
 20
-157.580887
 30
0.000000
 70
40
  0
VERTEX
  8
STANDARDEBENE
 10
75.808357
 20
-158.618393
 30
0.000000
 70
40
  0
VERTEX
  8
STANDARDEBENE
 10
75.808357
 20
-159.005524
 30
0.000000
 70
40
  0
VERTEX
  8
STANDARDEBENE
 10
75.808342
 20
-147.716675
 30
0.000000
 70
48
  0
VERTEX
  8
STANDARDEBENE
 10
75.808342
 20
-159.005569
 30
0.000000
 70
48
  0
VERTEX
  8
STANDARDEBENE
 10
75.808342
 20
-159.005569
 30
0.000000
 70
48
  0
SEQEND
  8
STANDARDEBENE
  0
POLYLINE
  8
STANDARDEBENE
 66
1
 10
0.000000
 20
0.000000
 30
0.000000
 62
7
 70
12
  0
VERTEX
  8
STANDARDEBENE
 10
75.808342
 20
-127.961121
 30
0.000000
 70
48
  0
VERTEX
  8
STANDARDEBENE
 10
75.808342
 20
-127.961121
 30
0.000000
 70
40
  0
VERTEX
  8
STANDARDEBENE
 10
75.808342
 20
-128.348251
 30
0.000000
 70
40
  0
VERTEX
  8
STANDARDEBENE
 10
75.808342
 20
-129.385773
 30
0.000000
 70
40
  0
VERTEX
  8
STANDARDEBENE
 10
75.808342
 20
-130.887863
 30
0.000000
 70
40
  0
VERTEX
  8
STANDARDEBENE
 10
75.808342
 20
-132.668686
 30
0.000000
 70
40
  0
VERTEX
  8
STANDARDEBENE
 10
75.808350
 20
-134.542419
 30
0.000000
 70
40
  0
VERTEX
  8
STANDARDEBENE
 10
75.808350
 20
-136.323242
 30
0.000000
 70
40
  0
VERTEX
  8
STANDARDEBENE
 10
75.808350
 20
-137.825333
 30
0.000000
 70
40
  0
VERTEX
  8
STANDARDEBENE
 10
75.808357
 20
-138.862839
 30
0.000000
 70
40
  0
VERTEX
  8
STANDARDEBENE
 10
75.808357
 20
-139.249969
 30
0.000000
 70
40
  0
VERTEX
  8
STANDARDEBENE
 10
75.808342
 20
-127.961121
 30
0.000000
 70
48
  0
VERTEX
  8
STANDARDEBENE
 10
75.808342
 20
-139.250015
 30
0.000000
 70
48
  0
VERTEX
  8
STANDARDEBENE
 10
75.808342
 20
-139.250015
 30
0.000000
 70
48
  0
SEQEND
  8
STANDARDEBENE
  0
POLYLINE
  8
STANDARDEBENE
 66
1
 10
0.000000
 20
0.000000
 30
0.000000
 62
7
 70
12
  0
VERTEX
  8
STANDARDEBENE
 10
75.808342
 20
-108.205566
 30
0.000000
 70
48
  0
VERTEX
  8
STANDARDEBENE
 10
75.808342
 20
-108.205566
 30
0.000000
 70
40
  0
VERTEX
  8
STANDARDEBENE
 10
75.808342
 20
-108.592705
 30
0.000000
 70
40
  0
VERTEX
  8
STANDARDEBENE
 10
75.808342
 20
-109.630226
 30
0.000000
 70
40
  0
VERTEX
  8
STANDARDEBENE
 10
75.808342
 20
-111.132309
 30
0.000000
 70
40
  0
VERTEX
  8
STANDARDEBENE
 10
75.808342
 20
-112.913139
 30
0.000000
 70
40
  0
VERTEX
  8
STANDARDEBENE
 10
75.808350
 20
-114.786873
 30
0.000000
 70
40
  0
VERTEX
  8
STANDARDEBENE
 10
75.808350
 20
-116.567696
 30
0.000000
 70
40
  0
VERTEX
  8
STANDARDEBENE
 10
75.808350
 20
-118.069778
 30
0.000000
 70
40
  0
VERTEX
  8
STANDARDEBENE
 10
75.808357
 20
-119.107300
 30
0.000000
 70
40
  0
VERTEX
  8
STANDARDEBENE
 10
75.808357
 20
-119.494431
 30
0.000000
 70
40
  0
VERTEX
  8
STANDARDEBENE
 10
75.808342
 20
-108.205566
 30
0.000000
 70
48
  0
VERTEX
  8
STANDARDEBENE
 10
75.808342
 20
-119.494453
 30
0.000000
 70
48
  0
VERTEX
  8
STANDARDEBENE
 10
75.808342
 20
-119.494453
 30
0.000000
 70
48
  0
SEQEND
  8
STANDARDEBENE
  0
POLYLINE
  8
STANDARDEBENE
 66
1
 10
0.000000
 20
0.000000
 30
0.000000
 62
7
 70
12
  0
VERTEX
  8
STANDARDEBENE
 10
75.808342
 20
-88.450012
 30
0.000000
 70
48
  0
VERTEX
  8
STANDARDEBENE
 10
75.808342
 20
-88.450012
 30
0.000000
 70
40
  0
VERTEX
  8
STANDARDEBENE
 10
75.808342
 20
-88.837151
 30
0.000000
 70
40
  0
VERTEX
  8
STANDARDEBENE
 10
75.808342
 20
-89.874672
 30
0.000000
 70
40
  0
VERTEX
  8
STANDARDEBENE
 10
75.808342
 20
-91.376755
 30
0.000000
 70
40
  0
VERTEX
  8
STANDARDEBENE
 10
75.808342
 20
-93.157585
 30
0.000000
 70
40
  0
VERTEX
  8
STANDARDEBENE
 10
75.808350
 20
-95.031319
 30
0.000000
 70
40
  0
VERTEX
  8
STANDARDEBENE
 10
75.808350
 20
-96.812141
 30
0.000000
 70
40
  0
VERTEX
  8
STANDARDEBENE
 10
75.808350
 20
-98.314224
 30
0.000000
 70
40
  0
VERTEX
  8
STANDARDEBENE
 10
75.808357
 20
-99.351746
 30
0.000000
 70
40
  0
VERTEX
  8
STANDARDEBENE
 10
75.808357
 20
-99.738876
 30
0.000000
 70
40
  0
VERTEX
  8
STANDARDEBENE
 10
75.808342
 20
-88.450012
 30
0.000000
 70
48
  0
VERTEX
  8
STANDARDEBENE
 10
75.808342
 20
-99.738899
 30
0.000000
 70
48
  0
VERTEX
  8
STANDARDEBENE
 10
75.808342
 20
-99.738899
 30
0.000000
 70
48
  0
SEQEND
  8
STANDARDEBENE
  0
POLYLINE
  8
STANDARDEBENE
 66
1
 10
0.000000
 20
0.000000
 30
0.000000
 62
7
 70
12
  0
VERTEX
  8
STANDARDEBENE
 10
75.808342
 20
-68.694450
 30
0.000000
 70
48
  0
VERTEX
  8
STANDARDEBENE
 10
75.808342
 20
-68.694450
 30
0.000000
 70
40
  0
VERTEX
  8
STANDARDEBENE
 10
75.808342
 20
-69.081589
 30
0.000000
 70
40
  0
VERTEX
  8
STANDARDEBENE
 10
75.808342
 20
-70.119110
 30
0.000000
 70
40
  0
VERTEX
  8
STANDARDEBENE
 10
75.808342
 20
-71.621201
 30
0.000000
 70
40
  0
VERTEX
  8
STANDARDEBENE
 10
75.808342
 20
-73.402031
 30
0.000000
 70
40
  0
VERTEX
  8
STANDARDEBENE
 10
75.808350
 20
-75.275772
 30
0.000000
 70
40
  0
VERTEX
  8
STANDARDEBENE
 10
75.808350
 20
-77.056602
 30
0.000000
 70
40
  0
VERTEX
  8
STANDARDEBENE
 10
75.808350
 20
-78.558693
 30
0.000000
 70
40
  0
VERTEX
  8
STANDARDEBENE
 10
75.808357
 20
-79.596222
 30
0.000000
 70
40
  0
VERTEX
  8
STANDARDEBENE
 10
75.808357
 20
-79.983360
 30
0.000000
 70
40
  0
VERTEX
  8
STANDARDEBENE
 10
75.808342
 20
-68.694450
 30
0.000000
 70
48
  0
VERTEX
  8
STANDARDEBENE
 10
75.808342
 20
-79.983345
 30
0.000000
 70
48
  0
VERTEX
  8
STANDARDEBENE
 10
75.808342
 20
-79.983345
 30
0.000000
 70
48
  0
SEQEND
  8
STANDARDEBENE
  0
POLYLINE
  8
STANDARDEBENE
 66
1
 10
0.000000
 20
0.000000
 30
0.000000
 62
7
 70
12
  0
VERTEX
  8
STANDARDEBENE
 10
75.808342
 20
-48.938896
 30
0.000000
 70
48
  0
VERTEX
  8
STANDARDEBENE
 10
75.808342
 20
-48.938896
 30
0.000000
 70
40
  0
VERTEX
  8
STANDARDEBENE
 10
75.808342
 20
-49.326035
 30
0.000000
 70
40
  0
VERTEX
  8
STANDARDEBENE
 10
75.808342
 20
-50.363560
 30
0.000000
 70
40
  0
VERTEX
  8
STANDARDEBENE
 10
75.808342
 20
-51.865650
 30
0.000000
 70
40
  0
VERTEX
  8
STANDARDEBENE
 10
75.808342
 20
-53.646477
 30
0.000000
 70
40
  0
VERTEX
  8
STANDARDEBENE
 10
75.808350
 20
-55.520218
 30
0.000000
 70
40
  0
VERTEX
  8
STANDARDEBENE
 10
75.808350
 20
-57.301048
 30
0.000000
 70
40
  0
VERTEX
  8
STANDARDEBENE
 10
75.808350
 20
-58.803143
 30
0.000000
 70
40
  0
VERTEX
  8
STANDARDEBENE
 10
75.808357
 20
-59.840672
 30
0.000000
 70
40
  0
VERTEX
  8
STANDARDEBENE
 10
75.808357
 20
-60.227814
 30
0.000000
 70
40
  0
VERTEX
  8
STANDARDEBENE
 10
75.808342
 20
-48.938896
 30
0.000000
 70
48
  0
VERTEX
  8
STANDARDEBENE
 10
75.808342
 20
-60.227787
 30
0.000000
 70
48
  0
VERTEX
  8
STANDARDEBENE
 10
75.808342
 20
-60.227787
 30
0.000000
 70
48
  0
SEQEND
  8
STANDARDEBENE
  0
POLYLINE
  8
STANDARDEBENE
 66
1
 10
0.000000
 20
0.000000
 30
0.000000
 62
7
 70
12
  0
VERTEX
  8
STANDARDEBENE
 10
75.808342
 20
-29.183342
 30
0.000000
 70
48
  0
VERTEX
  8
STANDARDEBENE
 10
75.808342
 20
-29.183342
 30
0.000000
 70
40
  0
VERTEX
  8
STANDARDEBENE
 10
75.808342
 20
-29.570478
 30
0.000000
 70
40
  0
VERTEX
  8
STANDARDEBENE
 10
75.808342
 20
-30.608002
 30
0.000000
 70
40
  0
VERTEX
  8
STANDARDEBENE
 10
75.808342
 20
-32.110092
 30
0.000000
 70
40
  0
VERTEX
  8
STANDARDEBENE
 10
75.808342
 20
-33.890915
 30
0.000000
 70
40
  0
VERTEX
  8
STANDARDEBENE
 10
75.808350
 20
-35.764656
 30
0.000000
 70
40
  0
VERTEX
  8
STANDARDEBENE
 10
75.808350
 20
-37.545479
 30
0.000000
 70
40
  0
VERTEX
  8
STANDARDEBENE
 10
75.808350
 20
-39.047569
 30
0.000000
 70
40
  0
VERTEX
  8
STANDARDEBENE
 10
75.808357
 20
-40.085094
 30
0.000000
 70
40
  0
VERTEX
  8
STANDARDEBENE
 10
75.808357
 20
-40.472229
 30
0.000000
 70
40
  0
VERTEX
  8
STANDARDEBENE
 10
75.808342
 20
-29.183342
 30
0.000000
 70
48
  0
VERTEX
  8
STANDARDEBENE
 10
75.808342
 20
-40.472229
 30
0.000000
 70
48
  0
VERTEX
  8
STANDARDEBENE
 10
75.808342
 20
-40.472229
 30
0.000000
 70
48
  0
SEQEND
  8
STANDARDEBENE
  0
POLYLINE
  8
STANDARDEBENE
 66
1
 10
0.000000
 20
0.000000
 30
0.000000
 62
7
 70
12
  0
VERTEX
  8
STANDARDEBENE
 10
75.808342
 20
-9.427786
 30
0.000000
 70
48
  0
VERTEX
  8
STANDARDEBENE
 10
75.808342
 20
-9.427786
 30
0.000000
 70
40
  0
VERTEX
  8
STANDARDEBENE
 10
75.808342
 20
-9.814922
 30
0.000000
 70
40
  0
VERTEX
  8
STANDARDEBENE
 10
75.808342
 20
-10.852447
 30
0.000000
 70
40
  0
VERTEX
  8
STANDARDEBENE
 10
75.808342
 20
-12.354535
 30
0.000000
 70
40
  0
VERTEX
  8
STANDARDEBENE
 10
75.808342
 20
-14.135362
 30
0.000000
 70
40
  0
VERTEX
  8
STANDARDEBENE
 10
75.808350
 20
-16.009100
 30
0.000000
 70
40
  0
VERTEX
  8
STANDARDEBENE
 10
75.808350
 20
-17.789927
 30
0.000000
 70
40
  0
VERTEX
  8
STANDARDEBENE
 10
75.808350
 20
-19.292015
 30
0.000000
 70
40
  0
VERTEX
  8
STANDARDEBENE
 10
75.808357
 20
-20.329540
 30
0.000000
 70
40
  0
VERTEX
  8
STANDARDEBENE
 10
75.808357
 20
-20.716677
 30
0.000000
 70
40
  0
VERTEX
  8
STANDARDEBENE
 10
75.808342
 20
-9.427786
 30
0.000000
 70
48
  0
VERTEX
  8
STANDARDEBENE
 10
75.808342
 20
-20.716675
 30
0.000000
 70
48
  0
VERTEX
  8
STANDARDEBENE
 10
75.808342
 20
-20.716675
 30
0.000000
 70
48
  0
SEQEND
  8
STANDARDEBENE
  0
POLYLINE
  8
STANDARDEBENE
 66
1
 10
0.000000
 20
0.000000
 30
0.000000
 62
7
 70
12
  0
VERTEX
  8
STANDARDEBENE
 10
75.808342
 20
10.327770
 30
0.000000
 70
48
  0
VERTEX
  8
STANDARDEBENE
 10
75.808342
 20
10.327770
 30
0.000000
 70
40
  0
VERTEX
  8
STANDARDEBENE
 10
75.808342
 20
9.940634
 30
0.000000
 70
40
  0
VERTEX
  8
STANDARDEBENE
 10
75.808342
 20
8.903110
 30
0.000000
 70
40
  0
VERTEX
  8
STANDARDEBENE
 10
75.808342
 20
7.401021
 30
0.000000
 70
40
  0
VERTEX
  8
STANDARDEBENE
 10
75.808342
 20
5.620195
 30
0.000000
 70
40
  0
VERTEX
  8
STANDARDEBENE
 10
75.808350
 20
3.746456
 30
0.000000
 70
40
  0
VERTEX
  8
STANDARDEBENE
 10
75.808350
 20
1.965629
 30
0.000000
 70
40
  0
VERTEX
  8
STANDARDEBENE
 10
75.808350
 20
0.463541
 30
0.000000
 70
40
  0
VERTEX
  8
STANDARDEBENE
 10
75.808357
 20
-0.573984
 30
0.000000
 70
40
  0
VERTEX
  8
STANDARDEBENE
 10
75.808357
 20
-0.961121
 30
0.000000
 70
40
  0
VERTEX
  8
STANDARDEBENE
 10
75.808342
 20
10.327770
 30
0.000000
 70
48
  0
VERTEX
  8
STANDARDEBENE
 10
75.808342
 20
-0.961119
 30
0.000000
 70
48
  0
VERTEX
  8
STANDARDEBENE
 10
75.808342
 20
-0.961119
 30
0.000000
 70
48
  0
SEQEND
  8
STANDARDEBENE
  0
POLYLINE
  8
STANDARDEBENE
 66
1
 10
0.000000
 20
0.000000
 30
0.000000
 62
7
 70
12
  0
VERTEX
  8
STANDARDEBENE
 10
75.808342
 20
30.083324
 30
0.000000
 70
48
  0
VERTEX
  8
STANDARDEBENE
 10
75.808342
 20
30.083324
 30
0.000000
 70
40
  0
VERTEX
  8
STANDARDEBENE
 10
75.808342
 20
29.696188
 30
0.000000
 70
40
  0
VERTEX
  8
STANDARDEBENE
 10
75.808342
 20
28.658665
 30
0.000000
 70
40
  0
VERTEX
  8
STANDARDEBENE
 10
75.808342
 20
27.156576
 30
0.000000
 70
40
  0
VERTEX
  8
STANDARDEBENE
 10
75.808342
 20
25.375751
 30
0.000000
 70
40
  0
VERTEX
  8
STANDARDEBENE
 10
75.808350
 20
23.502014
 30
0.000000
 70
40
  0
VERTEX
  8
STANDARDEBENE
 10
75.808350
 20
21.721189
 30
0.000000
 70
40
  0
VERTEX
  8
STANDARDEBENE
 10
75.808350
 20
20.219103
 30
0.000000
 70
40
  0
VERTEX
  8
STANDARDEBENE
 10
75.808357
 20
19.181580
 30
0.000000
 70
40
  0
VERTEX
  8
STANDARDEBENE
 10
75.808357
 20
18.794445
 30
0.000000
 70
40
  0
VERTEX
  8
STANDARDEBENE
 10
75.808342
 20
30.083324
 30
0.000000
 70
48
  0
VERTEX
  8
STANDARDEBENE
 10
75.808342
 20
18.794437
 30
0.000000
 70
48
  0
VERTEX
  8
STANDARDEBENE
 10
75.808342
 20
18.794437
 30
0.000000
 70
48
  0
SEQEND
  8
STANDARDEBENE
  0
POLYLINE
  8
STANDARDEBENE
 66
1
 10
0.000000
 20
0.000000
 30
0.000000
 62
7
 70
12
  0
VERTEX
  8
STANDARDEBENE
 10
75.808342
 20
49.838882
 30
0.000000
 70
48
  0
VERTEX
  8
STANDARDEBENE
 10
75.808342
 20
49.838882
 30
0.000000
 70
40
  0
VERTEX
  8
STANDARDEBENE
 10
75.808342
 20
49.451748
 30
0.000000
 70
40
  0
VERTEX
  8
STANDARDEBENE
 10
75.808342
 20
48.414219
 30
0.000000
 70
40
  0
VERTEX
  8
STANDARDEBENE
 10
75.808342
 20
46.912132
 30
0.000000
 70
40
  0
VERTEX
  8
STANDARDEBENE
 10
75.808342
 20
45.131306
 30
0.000000
 70
40
  0
VERTEX
  8
STANDARDEBENE
 10
75.808350
 20
43.257565
 30
0.000000
 70
40
  0
VERTEX
  8
STANDARDEBENE
 10
75.808350
 20
41.476734
 30
0.000000
 70
40
  0
VERTEX
  8
STANDARDEBENE
 10
75.808350
 20
39.974648
 30
0.000000
 70
40
  0
VERTEX
  8
STANDARDEBENE
 10
75.808357
 20
38.937119
 30
0.000000
 70
40
  0
VERTEX
  8
STANDARDEBENE
 10
75.808357
 20
38.549980
 30
0.000000
 70
40
  0
VERTEX
  8
STANDARDEBENE
 10
75.808342
 20
49.838882
 30
0.000000
 70
48
  0
VERTEX
  8
STANDARDEBENE
 10
75.808342
 20
38.549992
 30
0.000000
 70
48
  0
VERTEX
  8
STANDARDEBENE
 10
75.808342
 20
38.549992
 30
0.000000
 70
48
  0
SEQEND
  8
STANDARDEBENE
  0
POLYLINE
  8
STANDARDEBENE
 66
1
 10
0.000000
 20
0.000000
 30
0.000000
 62
7
 70
12
  0
VERTEX
  8
STANDARDEBENE
 10
75.808342
 20
69.594437
 30
0.000000
 70
48
  0
VERTEX
  8
STANDARDEBENE
 10
75.808342
 20
69.594437
 30
0.000000
 70
40
  0
VERTEX
  8
STANDARDEBENE
 10
75.808342
 20
69.207298
 30
0.000000
 70
40
  0
VERTEX
  8
STANDARDEBENE
 10
75.808342
 20
68.169777
 30
0.000000
 70
40
  0
VERTEX
  8
STANDARDEBENE
 10
75.808342
 20
66.667686
 30
0.000000
 70
40
  0
VERTEX
  8
STANDARDEBENE
 10
75.808342
 20
64.886864
 30
0.000000
 70
40
  0
VERTEX
  8
STANDARDEBENE
 10
75.808350
 20
63.013123
 30
0.000000
 70
40
  0
VERTEX
  8
STANDARDEBENE
 10
75.808350
 20
61.232300
 30
0.000000
 70
40
  0
VERTEX
  8
STANDARDEBENE
 10
75.808350
 20
59.730209
 30
0.000000
 70
40
  0
VERTEX
  8
STANDARDEBENE
 10
75.808357
 20
58.692684
 30
0.000000
 70
40
  0
VERTEX
  8
STANDARDEBENE
 10
75.808357
 20
58.305550
 30
0.000000
 70
40
  0
VERTEX
  8
STANDARDEBENE
 10
75.808342
 20
69.594437
 30
0.000000
 70
48
  0
VERTEX
  8
STANDARDEBENE
 10
75.808342
 20
58.305550
 30
0.000000
 70
48
  0
VERTEX
  8
STANDARDEBENE
 10
75.808342
 20
58.305550
 30
0.000000
 70
48
  0
SEQEND
  8
STANDARDEBENE
  0
POLYLINE
  8
STANDARDEBENE
 66
1
 10
0.000000
 20
0.000000
 30
0.000000
 62
7
 70
12
  0
VERTEX
  8
STANDARDEBENE
 10
75.808342
 20
89.349991
 30
0.000000
 70
48
  0
VERTEX
  8
STANDARDEBENE
 10
75.808342
 20
89.349991
 30
0.000000
 70
40
  0
VERTEX
  8
STANDARDEBENE
 10
75.808342
 20
88.962852
 30
0.000000
 70
40
  0
VERTEX
  8
STANDARDEBENE
 10
75.808342
 20
87.925331
 30
0.000000
 70
40
  0
VERTEX
  8
STANDARDEBENE
 10
75.808342
 20
86.423241
 30
0.000000
 70
40
  0
VERTEX
  8
STANDARDEBENE
 10
75.808342
 20
84.642418
 30
0.000000
 70
40
  0
VERTEX
  8
STANDARDEBENE
 10
75.808350
 20
82.768677
 30
0.000000
 70
40
  0
VERTEX
  8
STANDARDEBENE
 10
75.808350
 20
80.987846
 30
0.000000
 70
40
  0
VERTEX
  8
STANDARDEBENE
 10
75.808350
 20
79.485764
 30
0.000000
 70
40
  0
VERTEX
  8
STANDARDEBENE
 10
75.808357
 20
78.448235
 30
0.000000
 70
40
  0
VERTEX
  8
STANDARDEBENE
 10
75.808357
 20
78.061096
 30
0.000000
 70
40
  0
VERTEX
  8
STANDARDEBENE
 10
75.808342
 20
89.349991
 30
0.000000
 70
48
  0
VERTEX
  8
STANDARDEBENE
 10
75.808342
 20
78.061104
 30
0.000000
 70
48
  0
VERTEX
  8
STANDARDEBENE
 10
75.808342
 20
78.061104
 30
0.000000
 70
48
  0
SEQEND
  8
STANDARDEBENE
  0
POLYLINE
  8
STANDARDEBENE
 66
1
 10
0.000000
 20
0.000000
 30
0.000000
 62
7
 70
12
  0
VERTEX
  8
STANDARDEBENE
 10
75.808342
 20
109.105545
 30
0.000000
 70
48
  0
VERTEX
  8
STANDARDEBENE
 10
75.808342
 20
109.105545
 30
0.000000
 70
40
  0
VERTEX
  8
STANDARDEBENE
 10
75.808342
 20
108.718407
 30
0.000000
 70
40
  0
VERTEX
  8
STANDARDEBENE
 10
75.808342
 20
107.680885
 30
0.000000
 70
40
  0
VERTEX
  8
STANDARDEBENE
 10
75.808342
 20
106.178795
 30
0.000000
 70
40
  0
VERTEX
  8
STANDARDEBENE
 10
75.808342
 20
104.397972
 30
0.000000
 70
40
  0
VERTEX
  8
STANDARDEBENE
 10
75.808350
 20
102.524231
 30
0.000000
 70
40
  0
VERTEX
  8
STANDARDEBENE
 10
75.808350
 20
100.743401
 30
0.000000
 70
40
  0
VERTEX
  8
STANDARDEBENE
 10
75.808350
 20
99.241318
 30
0.000000
 70
40
  0
VERTEX
  8
STANDARDEBENE
 10
75.808357
 20
98.203789
 30
0.000000
 70
40
  0
VERTEX
  8
STANDARDEBENE
 10
75.808357
 20
97.816650
 30
0.000000
 70
40
  0
VERTEX
  8
STANDARDEBENE
 10
75.808342
 20
109.105545
 30
0.000000
 70
48
  0
VERTEX
  8
STANDARDEBENE
 10
75.808342
 20
97.816658
 30
0.000000
 70
48
  0
VERTEX
  8
STANDARDEBENE
 10
75.808342
 20
97.816658
 30
0.000000
 70
48
  0
SEQEND
  8
STANDARDEBENE
  0
POLYLINE
  8
STANDARDEBENE
 66
1
 10
0.000000
 20
0.000000
 30
0.000000
 62
7
 70
12
  0
VERTEX
  8
STANDARDEBENE
 10
75.808342
 20
128.861099
 30
0.000000
 70
48
  0
VERTEX
  8
STANDARDEBENE
 10
75.808342
 20
128.861099
 30
0.000000
 70
40
  0
VERTEX
  8
STANDARDEBENE
 10
75.808342
 20
128.473969
 30
0.000000
 70
40
  0
VERTEX
  8
STANDARDEBENE
 10
75.808342
 20
127.436440
 30
0.000000
 70
40
  0
VERTEX
  8
STANDARDEBENE
 10
75.808342
 20
125.934349
 30
0.000000
 70
40
  0
VERTEX
  8
STANDARDEBENE
 10
75.808342
 20
124.153526
 30
0.000000
 70
40
  0
VERTEX
  8
STANDARDEBENE
 10
75.808350
 20
122.279785
 30
0.000000
 70
40
  0
VERTEX
  8
STANDARDEBENE
 10
75.808350
 20
120.498955
 30
0.000000
 70
40
  0
VERTEX
  8
STANDARDEBENE
 10
75.808350
 20
118.996872
 30
0.000000
 70
40
  0
VERTEX
  8
STANDARDEBENE
 10
75.808357
 20
117.959343
 30
0.000000
 70
40
  0
VERTEX
  8
STANDARDEBENE
 10
75.808357
 20
117.572205
 30
0.000000
 70
40
  0
VERTEX
  8
STANDARDEBENE
 10
75.808342
 20
128.861099
 30
0.000000
 70
48
  0
VERTEX
  8
STANDARDEBENE
 10
75.808342
 20
117.572212
 30
0.000000
 70
48
  0
VERTEX
  8
STANDARDEBENE
 10
75.808342
 20
117.572212
 30
0.000000
 70
48
  0
SEQEND
  8
STANDARDEBENE
  0
POLYLINE
  8
STANDARDEBENE
 66
1
 10
0.000000
 20
0.000000
 30
0.000000
 62
7
 70
12
  0
VERTEX
  8
STANDARDEBENE
 10
75.808342
 20
148.616653
 30
0.000000
 70
48
  0
VERTEX
  8
STANDARDEBENE
 10
75.808342
 20
148.616653
 30
0.000000
 70
40
  0
VERTEX
  8
STANDARDEBENE
 10
75.808342
 20
148.229523
 30
0.000000
 70
40
  0
VERTEX
  8
STANDARDEBENE
 10
75.808342
 20
147.191986
 30
0.000000
 70
40
  0
VERTEX
  8
STANDARDEBENE
 10
75.808342
 20
145.689911
 30
0.000000
 70
40
  0
VERTEX
  8
STANDARDEBENE
 10
75.808342
 20
143.909073
 30
0.000000
 70
40
  0
VERTEX
  8
STANDARDEBENE
 10
75.808350
 20
142.035339
 30
0.000000
 70
40
  0
VERTEX
  8
STANDARDEBENE
 10
75.808350
 20
140.254501
 30
0.000000
 70
40
  0
VERTEX
  8
STANDARDEBENE
 10
75.808350
 20
138.752411
 30
0.000000
 70
40
  0
VERTEX
  8
STANDARDEBENE
 10
75.808357
 20
137.714890
 30
0.000000
 70
40
  0
VERTEX
  8
STANDARDEBENE
 10
75.808357
 20
137.327744
 30
0.000000
 70
40
  0
VERTEX
  8
STANDARDEBENE
 10
75.808342
 20
148.616653
 30
0.000000
 70
48
  0
VERTEX
  8
STANDARDEBENE
 10
75.808342
 20
137.327774
 30
0.000000
 70
48
  0
VERTEX
  8
STANDARDEBENE
 10
75.808342
 20
137.327774
 30
0.000000
 70
48
  0
SEQEND
  8
STANDARDEBENE
  0
POLYLINE
  8
STANDARDEBENE
 66
1
 10
0.000000
 20
0.000000
 30
0.000000
 62
7
 70
12
  0
VERTEX
  8
STANDARDEBENE
 10
75.808342
 20
168.372208
 30
0.000000
 70
48
  0
VERTEX
  8
STANDARDEBENE
 10
75.808342
 20
168.372208
 30
0.000000
 70
40
  0
VERTEX
  8
STANDARDEBENE
 10
75.808342
 20
167.985077
 30
0.000000
 70
40
  0
VERTEX
  8
STANDARDEBENE
 10
75.808342
 20
166.947540
 30
0.000000
 70
40
  0
VERTEX
  8
STANDARDEBENE
 10
75.808342
 20
165.445465
 30
0.000000
 70
40
  0
VERTEX
  8
STANDARDEBENE
 10
75.808342
 20
163.664627
 30
0.000000
 70
40
  0
VERTEX
  8
STANDARDEBENE
 10
75.808350
 20
161.790894
 30
0.000000
 70
40
  0
VERTEX
  8
STANDARDEBENE
 10
75.808350
 20
160.010056
 30
0.000000
 70
40
  0
VERTEX
  8
STANDARDEBENE
 10
75.808350
 20
158.507965
 30
0.000000
 70
40
  0
VERTEX
  8
STANDARDEBENE
 10
75.808357
 20
157.470444
 30
0.000000
 70
40
  0
VERTEX
  8
STANDARDEBENE
 10
75.808357
 20
157.083298
 30
0.000000
 70
40
  0
VERTEX
  8
STANDARDEBENE
 10
75.808342
 20
168.372208
 30
0.000000
 70
48
  0
VERTEX
  8
STANDARDEBENE
 10
75.808342
 20
157.083328
 30
0.000000
 70
48
  0
VERTEX
  8
STANDARDEBENE
 10
75.808342
 20
157.083328
 30
0.000000
 70
48
  0
SEQEND
  8
STANDARDEBENE
  0
POLYLINE
  8
STANDARDEBENE
 66
1
 10
0.000000
 20
0.000000
 30
0.000000
 62
7
 70
12
  0
VERTEX
  8
STANDARDEBENE
 10
75.808342
 20
188.127777
 30
0.000000
 70
48
  0
VERTEX
  8
STANDARDEBENE
 10
75.808342
 20
188.127777
 30
0.000000
 70
40
  0
VERTEX
  8
STANDARDEBENE
 10
75.808342
 20
187.740646
 30
0.000000
 70
40
  0
VERTEX
  8
STANDARDEBENE
 10
75.808342
 20
186.703125
 30
0.000000
 70
40
  0
VERTEX
  8
STANDARDEBENE
 10
75.808342
 20
185.201035
 30
0.000000
 70
40
  0
VERTEX
  8
STANDARDEBENE
 10
75.808342
 20
183.420227
 30
0.000000
 70
40
  0
VERTEX
  8
STANDARDEBENE
 10
75.808350
 20
181.546494
 30
0.000000
 70
40
  0
VERTEX
  8
STANDARDEBENE
 10
75.808350
 20
179.765686
 30
0.000000
 70
40
  0
VERTEX
  8
STANDARDEBENE
 10
75.808350
 20
178.263611
 30
0.000000
 70
40
  0
VERTEX
  8
STANDARDEBENE
 10
75.808357
 20
177.226105
 30
0.000000
 70
40
  0
VERTEX
  8
STANDARDEBENE
 10
75.808357
 20
176.838989
 30
0.000000
 70
40
  0
VERTEX
  8
STANDARDEBENE
 10
75.808342
 20
188.127777
 30
0.000000
 70
48
  0
VERTEX
  8
STANDARDEBENE
 10
75.808342
 20
176.838882
 30
0.000000
 70
48
  0
VERTEX
  8
STANDARDEBENE
 10
75.808342
 20
176.838882
 30
0.000000
 70
48
  0
SEQEND
  8
STANDARDEBENE
  0
POLYLINE
  8
STANDARDEBENE
 66
1
 10
0.000000
 20
0.000000
 30
0.000000
 62
7
 70
12
  0
VERTEX
  8
STANDARDEBENE
 10
75.808342
 20
207.883331
 30
0.000000
 70
48
  0
VERTEX
  8
STANDARDEBENE
 10
75.808342
 20
207.883331
 30
0.000000
 70
40
  0
VERTEX
  8
STANDARDEBENE
 10
75.808342
 20
207.496201
 30
0.000000
 70
40
  0
VERTEX
  8
STANDARDEBENE
 10
75.808342
 20
206.458664
 30
0.000000
 70
40
  0
VERTEX
  8
STANDARDEBENE
 10
75.808342
 20
204.956573
 30
0.000000
 70
40
  0
VERTEX
  8
STANDARDEBENE
 10
75.808342
 20
203.175751
 30
0.000000
 70
40
  0
VERTEX
  8
STANDARDEBENE
 10
75.808350
 20
201.302002
 30
0.000000
 70
40
  0
VERTEX
  8
STANDARDEBENE
 10
75.808350
 20
199.521179
 30
0.000000
 70
40
  0
VERTEX
  8
STANDARDEBENE
 10
75.808350
 20
198.019089
 30
0.000000
 70
40
  0
VERTEX
  8
STANDARDEBENE
 10
75.808357
 20
196.981567
 30
0.000000
 70
40
  0
VERTEX
  8
STANDARDEBENE
 10
75.808357
 20
196.594421
 30
0.000000
 70
40
  0
VERTEX
  8
STANDARDEBENE
 10
75.808342
 20
207.883331
 30
0.000000
 70
48
  0
VERTEX
  8
STANDARDEBENE
 10
75.808342
 20
196.594437
 30
0.000000
 70
48
  0
VERTEX
  8
STANDARDEBENE
 10
75.808342
 20
196.594437
 30
0.000000
 70
48
  0
SEQEND
  8
STANDARDEBENE
  0
POLYLINE
  8
STANDARDEBENE
 66
1
 10
0.000000
 20
0.000000
 30
0.000000
 62
7
 70
12
  0
VERTEX
  8
STANDARDEBENE
 10
75.808342
 20
227.638885
 30
0.000000
 70
48
  0
VERTEX
  8
STANDARDEBENE
 10
75.808342
 20
227.638885
 30
0.000000
 70
40
  0
VERTEX
  8
STANDARDEBENE
 10
75.808342
 20
227.251755
 30
0.000000
 70
40
  0
VERTEX
  8
STANDARDEBENE
 10
75.808342
 20
226.214233
 30
0.000000
 70
40
  0
VERTEX
  8
STANDARDEBENE
 10
75.808342
 20
224.712143
 30
0.000000
 70
40
  0
VERTEX
  8
STANDARDEBENE
 10
75.808342
 20
222.931335
 30
0.000000
 70
40
  0
VERTEX
  8
STANDARDEBENE
 10
75.808350
 20
221.057602
 30
0.000000
 70
40
  0
VERTEX
  8
STANDARDEBENE
 10
75.808350
 20
219.276794
 30
0.000000
 70
40
  0
VERTEX
  8
STANDARDEBENE
 10
75.808350
 20
217.774719
 30
0.000000
 70
40
  0
VERTEX
  8
STANDARDEBENE
 10
75.808357
 20
216.737213
 30
0.000000
 70
40
  0
VERTEX
  8
STANDARDEBENE
 10
75.808357
 20
216.350098
 30
0.000000
 70
40
  0
VERTEX
  8
STANDARDEBENE
 10
75.808342
 20
227.638885
 30
0.000000
 70
48
  0
VERTEX
  8
STANDARDEBENE
 10
75.808342
 20
216.349991
 30
0.000000
 70
48
  0
VERTEX
  8
STANDARDEBENE
 10
75.808342
 20
216.349991
 30
0.000000
 70
48
  0
SEQEND
  8
STANDARDEBENE
  0
POLYLINE
  8
STANDARDEBENE
 66
1
 10
0.000000
 20
0.000000
 30
0.000000
 62
7
 70
12
  0
VERTEX
  8
STANDARDEBENE
 10
75.808342
 20
247.394440
 30
0.000000
 70
48
  0
VERTEX
  8
STANDARDEBENE
 10
75.808342
 20
247.394440
 30
0.000000
 70
40
  0
VERTEX
  8
STANDARDEBENE
 10
75.808342
 20
247.007309
 30
0.000000
 70
40
  0
VERTEX
  8
STANDARDEBENE
 10
75.808342
 20
245.969772
 30
0.000000
 70
40
  0
VERTEX
  8
STANDARDEBENE
 10
75.808342
 20
244.467682
 30
0.000000
 70
40
  0
VERTEX
  8
STANDARDEBENE
 10
75.808342
 20
242.686859
 30
0.000000
 70
40
  0
VERTEX
  8
STANDARDEBENE
 10
75.808350
 20
240.813110
 30
0.000000
 70
40
  0
VERTEX
  8
STANDARDEBENE
 10
75.808350
 20
239.032288
 30
0.000000
 70
40
  0
VERTEX
  8
STANDARDEBENE
 10
75.808350
 20
237.530197
 30
0.000000
 70
40
  0
VERTEX
  8
STANDARDEBENE
 10
75.808357
 20
236.492676
 30
0.000000
 70
40
  0
VERTEX
  8
STANDARDEBENE
 10
75.808357
 20
236.105530
 30
0.000000
 70
40
  0
VERTEX
  8
STANDARDEBENE
 10
75.808342
 20
247.394440
 30
0.000000
 70
48
  0
VERTEX
  8
STANDARDEBENE
 10
75.808342
 20
236.105545
 30
0.000000
 70
48
  0
VERTEX
  8
STANDARDEBENE
 10
75.808342
 20
236.105545
 30
0.000000
 70
48
  0
SEQEND
  8
STANDARDEBENE
  0
POLYLINE
  8
STANDARDEBENE
 66
1
 10
0.000000
 20
0.000000
 30
0.000000
 62
7
 70
12
  0
VERTEX
  8
STANDARDEBENE
 10
75.808342
 20
267.149994
 30
0.000000
 70
48
  0
VERTEX
  8
STANDARDEBENE
 10
75.808342
 20
267.149994
 30
0.000000
 70
40
  0
VERTEX
  8
STANDARDEBENE
 10
75.808342
 20
266.762848
 30
0.000000
 70
40
  0
VERTEX
  8
STANDARDEBENE
 10
75.808342
 20
265.725342
 30
0.000000
 70
40
  0
VERTEX
  8
STANDARDEBENE
 10
75.808342
 20
264.223267
 30
0.000000
 70
40
  0
VERTEX
  8
STANDARDEBENE
 10
75.808342
 20
262.442444
 30
0.000000
 70
40
  0
VERTEX
  8
STANDARDEBENE
 10
75.808350
 20
260.568695
 30
0.000000
 70
40
  0
VERTEX
  8
STANDARDEBENE
 10
75.808350
 20
258.787903
 30
0.000000
 70
40
  0
VERTEX
  8
STANDARDEBENE
 10
75.808350
 20
257.285828
 30
0.000000
 70
40
  0
VERTEX
  8
STANDARDEBENE
 10
75.808357
 20
256.248322
 30
0.000000
 70
40
  0
VERTEX
  8
STANDARDEBENE
 10
75.808357
 20
255.861206
 30
0.000000
 70
40
  0
VERTEX
  8
STANDARDEBENE
 10
75.808342
 20
267.149994
 30
0.000000
 70
48
  0
VERTEX
  8
STANDARDEBENE
 10
75.808342
 20
255.861099
 30
0.000000
 70
48
  0
VERTEX
  8
STANDARDEBENE
 10
75.808342
 20
255.861099
 30
0.000000
 70
48
  0
SEQEND
  8
STANDARDEBENE
  0
POLYLINE
  8
STANDARDEBENE
 66
1
 10
0.000000
 20
0.000000
 30
0.000000
 62
7
 70
12
  0
VERTEX
  8
STANDARDEBENE
 10
75.808342
 20
286.905548
 30
0.000000
 70
48
  0
VERTEX
  8
STANDARDEBENE
 10
75.808342
 20
286.905548
 30
0.000000
 70
40
  0
VERTEX
  8
STANDARDEBENE
 10
75.808342
 20
286.518402
 30
0.000000
 70
40
  0
VERTEX
  8
STANDARDEBENE
 10
75.808342
 20
285.480896
 30
0.000000
 70
40
  0
VERTEX
  8
STANDARDEBENE
 10
75.808342
 20
283.978790
 30
0.000000
 70
40
  0
VERTEX
  8
STANDARDEBENE
 10
75.808342
 20
282.197968
 30
0.000000
 70
40
  0
VERTEX
  8
STANDARDEBENE
 10
75.808350
 20
280.324219
 30
0.000000
 70
40
  0
VERTEX
  8
STANDARDEBENE
 10
75.808350
 20
278.543396
 30
0.000000
 70
40
  0
VERTEX
  8
STANDARDEBENE
 10
75.808350
 20
277.041290
 30
0.000000
 70
40
  0
VERTEX
  8
STANDARDEBENE
 10
75.808357
 20
276.003754
 30
0.000000
 70
40
  0
VERTEX
  8
STANDARDEBENE
 10
75.808357
 20
275.616608
 30
0.000000
 70
40
  0
VERTEX
  8
STANDARDEBENE
 10
75.808342
 20
286.905548
 30
0.000000
 70
48
  0
VERTEX
  8
STANDARDEBENE
 10
75.808342
 20
275.616669
 30
0.000000
 70
48
  0
VERTEX
  8
STANDARDEBENE
 10
75.808342
 20
275.616669
 30
0.000000
 70
48
  0
SEQEND
  8
STANDARDEBENE
  0
POLYLINE
  8
STANDARDEBENE
 66
1
 10
0.000000
 20
0.000000
 30
0.000000
 62
7
 70
12
  0
VERTEX
  8
STANDARDEBENE
 10
75.808342
 20
306.661102
 30
0.000000
 70
48
  0
VERTEX
  8
STANDARDEBENE
 10
75.808342
 20
306.661102
 30
0.000000
 70
40
  0
VERTEX
  8
STANDARDEBENE
 10
75.808342
 20
306.273956
 30
0.000000
 70
40
  0
VERTEX
  8
STANDARDEBENE
 10
75.808342
 20
305.236450
 30
0.000000
 70
40
  0
VERTEX
  8
STANDARDEBENE
 10
75.808342
 20
303.734375
 30
0.000000
 70
40
  0
VERTEX
  8
STANDARDEBENE
 10
75.808342
 20
301.953552
 30
0.000000
 70
40
  0
VERTEX
  8
STANDARDEBENE
 10
75.808350
 20
300.079803
 30
0.000000
 70
40
  0
VERTEX
  8
STANDARDEBENE
 10
75.808350
 20
298.299011
 30
0.000000
 70
40
  0
VERTEX
  8
STANDARDEBENE
 10
75.808350
 20
296.796906
 30
0.000000
 70
40
  0
VERTEX
  8
STANDARDEBENE
 10
75.808357
 20
295.759399
 30
0.000000
 70
40
  0
VERTEX
  8
STANDARDEBENE
 10
75.808357
 20
295.372284
 30
0.000000
 70
40
  0
VERTEX
  8
STANDARDEBENE
 10
75.808342
 20
306.661102
 30
0.000000
 70
48
  0
VERTEX
  8
STANDARDEBENE
 10
75.808342
 20
295.372223
 30
0.000000
 70
48
  0
VERTEX
  8
STANDARDEBENE
 10
75.808342
 20
295.372223
 30
0.000000
 70
48
  0
SEQEND
  8
STANDARDEBENE
  0
POLYLINE
  8
STANDARDEBENE
 66
1
 10
0.000000
 20
0.000000
 30
0.000000
 62
7
 70
12
  0
VERTEX
  8
STANDARDEBENE
 10
75.808342
 20
326.416656
 30
0.000000
 70
48
  0
VERTEX
  8
STANDARDEBENE
 10
75.808342
 20
326.416656
 30
0.000000
 70
40
  0
VERTEX
  8
STANDARDEBENE
 10
75.808342
 20
326.029510
 30
0.000000
 70
40
  0
VERTEX
  8
STANDARDEBENE
 10
75.808342
 20
324.992004
 30
0.000000
 70
40
  0
VERTEX
  8
STANDARDEBENE
 10
75.808342
 20
323.489899
 30
0.000000
 70
40
  0
VERTEX
  8
STANDARDEBENE
 10
75.808342
 20
321.709076
 30
0.000000
 70
40
  0
VERTEX
  8
STANDARDEBENE
 10
75.808350
 20
319.835327
 30
0.000000
 70
40
  0
VERTEX
  8
STANDARDEBENE
 10
75.808350
 20
318.054504
 30
0.000000
 70
40
  0
VERTEX
  8
STANDARDEBENE
 10
75.808350
 20
316.552399
 30
0.000000
 70
40
  0
VERTEX
  8
STANDARDEBENE
 10
75.808357
 20
315.514862
 30
0.000000
 70
40
  0
VERTEX
  8
STANDARDEBENE
 10
75.808357
 20
315.127716
 30
0.000000
 70
40
  0
VERTEX
  8
STANDARDEBENE
 10
75.808342
 20
326.416656
 30
0.000000
 70
48
  0
VERTEX
  8
STANDARDEBENE
 10
75.808342
 20
315.127777
 30
0.000000
 70
48
  0
VERTEX
  8
STANDARDEBENE
 10
75.808342
 20
315.127777
 30
0.000000
 70
48
  0
SEQEND
  8
STANDARDEBENE
  0
POLYLINE
  8
STANDARDEBENE
 66
1
 10
0.000000
 20
0.000000
 30
0.000000
 62
7
 70
12
  0
VERTEX
  8
STANDARDEBENE
 10
75.808342
 20
346.172211
 30
0.000000
 70
48
  0
VERTEX
  8
STANDARDEBENE
 10
75.808342
 20
346.172211
 30
0.000000
 70
40
  0
VERTEX
  8
STANDARDEBENE
 10
75.808342
 20
345.785065
 30
0.000000
 70
40
  0
VERTEX
  8
STANDARDEBENE
 10
75.808342
 20
344.747559
 30
0.000000
 70
40
  0
VERTEX
  8
STANDARDEBENE
 10
75.808342
 20
343.245483
 30
0.000000
 70
40
  0
VERTEX
  8
STANDARDEBENE
 10
75.808342
 20
341.464661
 30
0.000000
 70
40
  0
VERTEX
  8
STANDARDEBENE
 10
75.808350
 20
339.590912
 30
0.000000
 70
40
  0
VERTEX
  8
STANDARDEBENE
 10
75.808350
 20
337.810120
 30
0.000000
 70
40
  0
VERTEX
  8
STANDARDEBENE
 10
75.808350
 20
336.308014
 30
0.000000
 70
40
  0
VERTEX
  8
STANDARDEBENE
 10
75.808357
 20
335.270508
 30
0.000000
 70
40
  0
VERTEX
  8
STANDARDEBENE
 10
75.808357
 20
334.883392
 30
0.000000
 70
40
  0
VERTEX
  8
STANDARDEBENE
 10
75.808342
 20
346.172211
 30
0.000000
 70
48
  0
VERTEX
  8
STANDARDEBENE
 10
75.808342
 20
334.883331
 30
0.000000
 70
48
  0
VERTEX
  8
STANDARDEBENE
 10
75.808342
 20
334.883331
 30
0.000000
 70
48
  0
SEQEND
  8
STANDARDEBENE
  0
POLYLINE
  8
STANDARDEBENE
 66
1
 10
0.000000
 20
0.000000
 30
0.000000
 62
7
 70
12
  0
VERTEX
  8
STANDARDEBENE
 10
75.808342
 20
365.927765
 30
0.000000
 70
48
  0
VERTEX
  8
STANDARDEBENE
 10
75.808342
 20
365.927765
 30
0.000000
 70
40
  0
VERTEX
  8
STANDARDEBENE
 10
75.808342
 20
365.540619
 30
0.000000
 70
40
  0
VERTEX
  8
STANDARDEBENE
 10
75.808342
 20
364.503113
 30
0.000000
 70
40
  0
VERTEX
  8
STANDARDEBENE
 10
75.808342
 20
363.001007
 30
0.000000
 70
40
  0
VERTEX
  8
STANDARDEBENE
 10
75.808342
 20
361.220184
 30
0.000000
 70
40
  0
VERTEX
  8
STANDARDEBENE
 10
75.808350
 20
359.346436
 30
0.000000
 70
40
  0
VERTEX
  8
STANDARDEBENE
 10
75.808350
 20
357.565613
 30
0.000000
 70
40
  0
VERTEX
  8
STANDARDEBENE
 10
75.808350
 20
356.063507
 30
0.000000
 70
40
  0
VERTEX
  8
STANDARDEBENE
 10
75.808357
 20
355.025970
 30
0.000000
 70
40
  0
VERTEX
  8
STANDARDEBENE
 10
75.808357
 20
354.638824
 30
0.000000
 70
40
  0
VERTEX
  8
STANDARDEBENE
 10
75.808342
 20
365.927765
 30
0.000000
 70
48
  0
VERTEX
  8
STANDARDEBENE
 10
75.808342
 20
354.638885
 30
0.000000
 70
48
  0
VERTEX
  8
STANDARDEBENE
 10
75.808342
 20
354.638885
 30
0.000000
 70
48
  0
SEQEND
  8
STANDARDEBENE
  0
POLYLINE
  8
STANDARDEBENE
 66
1
 10
0.000000
 20
0.000000
 30
0.000000
 62
7
 70
12
  0
VERTEX
  8
STANDARDEBENE
 10
75.808342
 20
385.683319
 30
0.000000
 70
48
  0
VERTEX
  8
STANDARDEBENE
 10
75.808342
 20
385.683319
 30
0.000000
 70
40
  0
VERTEX
  8
STANDARDEBENE
 10
75.808342
 20
385.296173
 30
0.000000
 70
40
  0
VERTEX
  8
STANDARDEBENE
 10
75.808342
 20
384.258667
 30
0.000000
 70
40
  0
VERTEX
  8
STANDARDEBENE
 10
75.808342
 20
382.756592
 30
0.000000
 70
40
  0
VERTEX
  8
STANDARDEBENE
 10
75.808342
 20
380.975769
 30
0.000000
 70
40
  0
VERTEX
  8
STANDARDEBENE
 10
75.808350
 20
379.102020
 30
0.000000
 70
40
  0
VERTEX
  8
STANDARDEBENE
 10
75.808350
 20
377.321228
 30
0.000000
 70
40
  0
VERTEX
  8
STANDARDEBENE
 10
75.808350
 20
375.819122
 30
0.000000
 70
40
  0
VERTEX
  8
STANDARDEBENE
 10
75.808357
 20
374.781616
 30
0.000000
 70
40
  0
VERTEX
  8
STANDARDEBENE
 10
75.808357
 20
374.394501
 30
0.000000
 70
40
  0
VERTEX
  8
STANDARDEBENE
 10
75.808342
 20
385.683319
 30
0.000000
 70
48
  0
VERTEX
  8
STANDARDEBENE
 10
75.808342
 20
374.394440
 30
0.000000
 70
48
  0
VERTEX
  8
STANDARDEBENE
 10
75.808342
 20
374.394440
 30
0.000000
 70
48
  0
SEQEND
  8
STANDARDEBENE
  0
POLYLINE
  8
STANDARDEBENE
 66
1
 10
0.000000
 20
0.000000
 30
0.000000
 62
7
 70
12
  0
VERTEX
  8
STANDARDEBENE
 10
75.808342
 20
404.027771
 30
0.000000
 70
48
  0
VERTEX
  8
STANDARDEBENE
 10
75.808342
 20
404.027771
 30
0.000000
 70
40
  0
VERTEX
  8
STANDARDEBENE
 10
75.808342
 20
403.640625
 30
0.000000
 70
40
  0
VERTEX
  8
STANDARDEBENE
 10
75.808342
 20
402.603119
 30
0.000000
 70
40
  0
VERTEX
  8
STANDARDEBENE
 10
75.808342
 20
401.101044
 30
0.000000
 70
40
  0
VERTEX
  8
STANDARDEBENE
 10
75.808342
 20
399.320221
 30
0.000000
 70
40
  0
VERTEX
  8
STANDARDEBENE
 10
75.808350
 20
397.446503
 30
0.000000
 70
40
  0
VERTEX
  8
STANDARDEBENE
 10
75.808350
 20
395.665680
 30
0.000000
 70
40
  0
VERTEX
  8
STANDARDEBENE
 10
75.808350
 20
394.163635
 30
0.000000
 70
40
  0
VERTEX
  8
STANDARDEBENE
 10
75.808357
 20
393.126129
 30
0.000000
 70
40
  0
VERTEX
  8
STANDARDEBENE
 10
75.808357
 20
392.739014
 30
0.000000
 70
40
  0
VERTEX
  8
STANDARDEBENE
 10
75.808342
 20
404.027771
 30
0.000000
 70
48
  0
VERTEX
  8
STANDARDEBENE
 10
75.808342
 20
392.738892
 30
0.000000
 70
48
  0
VERTEX
  8
STANDARDEBENE
 10
75.808342
 20
392.738892
 30
0.000000
 70
48
  0
SEQEND
  8
STANDARDEBENE
  0
POLYLINE
  8
STANDARDEBENE
 66
1
 10
0.000000
 20
0.000000
 30
0.000000
 62
7
 70
12
  0
VERTEX
  8
STANDARDEBENE
 10
75.808342
 20
425.194427
 30
0.000000
 70
48
  0
VERTEX
  8
STANDARDEBENE
 10
75.808342
 20
425.194427
 30
0.000000
 70
40
  0
VERTEX
  8
STANDARDEBENE
 10
75.808342
 20
424.807281
 30
0.000000
 70
40
  0
VERTEX
  8
STANDARDEBENE
 10
75.808342
 20
423.769775
 30
0.000000
 70
40
  0
VERTEX
  8
STANDARDEBENE
 10
75.808342
 20
422.267700
 30
0.000000
 70
40
  0
VERTEX
  8
STANDARDEBENE
 10
75.808342
 20
420.486877
 30
0.000000
 70
40
  0
VERTEX
  8
STANDARDEBENE
 10
75.808350
 20
418.613129
 30
0.000000
 70
40
  0
VERTEX
  8
STANDARDEBENE
 10
75.808350
 20
416.832336
 30
0.000000
 70
40
  0
VERTEX
  8
STANDARDEBENE
 10
75.808350
 20
415.330231
 30
0.000000
 70
40
  0
VERTEX
  8
STANDARDEBENE
 10
75.808357
 20
414.292725
 30
0.000000
 70
40
  0
VERTEX
  8
STANDARDEBENE
 10
75.808357
 20
413.905609
 30
0.000000
 70
40
  0
VERTEX
  8
STANDARDEBENE
 10
75.808342
 20
425.194427
 30
0.000000
 70
48
  0
VERTEX
  8
STANDARDEBENE
 10
75.808342
 20
413.905548
 30
0.000000
 70
48
  0
VERTEX
  8
STANDARDEBENE
 10
75.808342
 20
413.905548
 30
0.000000
 70
48
  0
SEQEND
  8
STANDARDEBENE
  0
POLYLINE
  8
STANDARDEBENE
 66
1
 10
0.000000
 20
0.000000
 30
0.000000
 62
7
 70
12
  0
VERTEX
  8
STANDARDEBENE
 10
75.808342
 20
444.949982
 30
0.000000
 70
48
  0
VERTEX
  8
STANDARDEBENE
 10
75.808342
 20
444.949982
 30
0.000000
 70
40
  0
VERTEX
  8
STANDARDEBENE
 10
75.808342
 20
444.562836
 30
0.000000
 70
40
  0
VERTEX
  8
STANDARDEBENE
 10
75.808342
 20
443.525330
 30
0.000000
 70
40
  0
VERTEX
  8
STANDARDEBENE
 10
75.808342
 20
442.023224
 30
0.000000
 70
40
  0
VERTEX
  8
STANDARDEBENE
 10
75.808342
 20
440.242401
 30
0.000000
 70
40
  0
VERTEX
  8
STANDARDEBENE
 10
75.808350
 20
438.368652
 30
0.000000
 70
40
  0
VERTEX
  8
STANDARDEBENE
 10
75.808350
 20
436.587830
 30
0.000000
 70
40
  0
VERTEX
  8
STANDARDEBENE
 10
75.808350
 20
435.085724
 30
0.000000
 70
40
  0
VERTEX
  8
STANDARDEBENE
 10
75.808357
 20
434.048187
 30
0.000000
 70
40
  0
VERTEX
  8
STANDARDEBENE
 10
75.808357
 20
433.661041
 30
0.000000
 70
40
  0
VERTEX
  8
STANDARDEBENE
 10
75.808342
 20
444.949982
 30
0.000000
 70
48
  0
VERTEX
  8
STANDARDEBENE
 10
75.808342
 20
433.661102
 30
0.000000
 70
48
  0
VERTEX
  8
STANDARDEBENE
 10
75.808342
 20
433.661102
 30
0.000000
 70
48
  0
SEQEND
  8
STANDARDEBENE
  0
POLYLINE
  8
STANDARDEBENE
 66
1
 10
0.000000
 20
0.000000
 30
0.000000
 62
7
 70
12
  0
VERTEX
  8
STANDARDEBENE
 10
75.808342
 20
463.294434
 30
0.000000
 70
48
  0
VERTEX
  8
STANDARDEBENE
 10
75.808342
 20
463.294434
 30
0.000000
 70
40
  0
VERTEX
  8
STANDARDEBENE
 10
75.808342
 20
462.907288
 30
0.000000
 70
40
  0
VERTEX
  8
STANDARDEBENE
 10
75.808342
 20
461.869781
 30
0.000000
 70
40
  0
VERTEX
  8
STANDARDEBENE
 10
75.808342
 20
460.367676
 30
0.000000
 70
40
  0
VERTEX
  8
STANDARDEBENE
 10
75.808342
 20
458.586853
 30
0.000000
 70
40
  0
VERTEX
  8
STANDARDEBENE
 10
75.808350
 20
456.713135
 30
0.000000
 70
40
  0
VERTEX
  8
STANDARDEBENE
 10
75.808350
 20
454.932312
 30
0.000000
 70
40
  0
VERTEX
  8
STANDARDEBENE
 10
75.808350
 20
453.430206
 30
0.000000
 70
40
  0
VERTEX
  8
STANDARDEBENE
 10
75.808357
 20
452.392700
 30
0.000000
 70
40
  0
VERTEX
  8
STANDARDEBENE
 10
75.808357
 20
452.005554
 30
0.000000
 70
40
  0
VERTEX
  8
STANDARDEBENE
 10
75.808342
 20
463.294434
 30
0.000000
 70
48
  0
VERTEX
  8
STANDARDEBENE
 10
75.808342
 20
452.005554
 30
0.000000
 70
48
  0
VERTEX
  8
STANDARDEBENE
 10
75.808342
 20
452.005554
 30
0.000000
 70
48
  0
SEQEND
  8
STANDARDEBENE
  0
POLYLINE
  8
STANDARDEBENE
 66
1
 10
0.000000
 20
0.000000
 30
0.000000
 62
7
 70
12
  0
VERTEX
  8
STANDARDEBENE
 10
379.197235
 20
-215.450012
 30
0.000000
 70
48
  0
VERTEX
  8
STANDARDEBENE
 10
379.197235
 20
-215.450012
 30
0.000000
 70
40
  0
VERTEX
  8
STANDARDEBENE
 10
379.197235
 20
-215.837143
 30
0.000000
 70
40
  0
VERTEX
  8
STANDARDEBENE
 10
379.197235
 20
-216.874664
 30
0.000000
 70
40
  0
VERTEX
  8
STANDARDEBENE
 10
379.197235
 20
-218.376755
 30
0.000000
 70
40
  0
VERTEX
  8
STANDARDEBENE
 10
379.197235
 20
-220.157578
 30
0.000000
 70
40
  0
VERTEX
  8
STANDARDEBENE
 10
379.197266
 20
-222.031326
 30
0.000000
 70
40
  0
VERTEX
  8
STANDARDEBENE
 10
379.197266
 20
-223.812149
 30
0.000000
 70
40
  0
VERTEX
  8
STANDARDEBENE
 10
379.197266
 20
-225.314240
 30
0.000000
 70
40
  0
VERTEX
  8
STANDARDEBENE
 10
379.197296
 20
-226.351761
 30
0.000000
 70
40
  0
VERTEX
  8
STANDARDEBENE
 10
379.197296
 20
-226.738892
 30
0.000000
 70
40
  0
VERTEX
  8
STANDARDEBENE
 10
379.197235
 20
-215.450012
 30
0.000000
 70
48
  0
VERTEX
  8
STANDARDEBENE
 10
379.197235
 20
-226.738892
 30
0.000000
 70
48
  0
VERTEX
  8
STANDARDEBENE
 10
379.197235
 20
-226.738892
 30
0.000000
 70
48
  0
SEQEND
  8
STANDARDEBENE
  0
POLYLINE
  8
STANDARDEBENE
 66
1
 10
0.000000
 20
0.000000
 30
0.000000
 62
7
 70
12
  0
VERTEX
  8
STANDARDEBENE
 10
379.197235
 20
-195.694458
 30
0.000000
 70
48
  0
VERTEX
  8
STANDARDEBENE
 10
379.197235
 20
-195.694458
 30
0.000000
 70
40
  0
VERTEX
  8
STANDARDEBENE
 10
379.197235
 20
-196.081589
 30
0.000000
 70
40
  0
VERTEX
  8
STANDARDEBENE
 10
379.197235
 20
-197.119110
 30
0.000000
 70
40
  0
VERTEX
  8
STANDARDEBENE
 10
379.197235
 20
-198.621201
 30
0.000000
 70
40
  0
VERTEX
  8
STANDARDEBENE
 10
379.197235
 20
-200.402023
 30
0.000000
 70
40
  0
VERTEX
  8
STANDARDEBENE
 10
379.197266
 20
-202.275772
 30
0.000000
 70
40
  0
VERTEX
  8
STANDARDEBENE
 10
379.197266
 20
-204.056595
 30
0.000000
 70
40
  0
VERTEX
  8
STANDARDEBENE
 10
379.197266
 20
-205.558685
 30
0.000000
 70
40
  0
VERTEX
  8
STANDARDEBENE
 10
379.197296
 20
-206.596207
 30
0.000000
 70
40
  0
VERTEX
  8
STANDARDEBENE
 10
379.197296
 20
-206.983337
 30
0.000000
 70
40
  0
VERTEX
  8
STANDARDEBENE
 10
379.197235
 20
-195.694458
 30
0.000000
 70
48
  0
VERTEX
  8
STANDARDEBENE
 10
379.197235
 20
-206.983337
 30
0.000000
 70
48
  0
VERTEX
  8
STANDARDEBENE
 10
379.197235
 20
-206.983337
 30
0.000000
 70
48
  0
SEQEND
  8
STANDARDEBENE
  0
POLYLINE
  8
STANDARDEBENE
 66
1
 10
0.000000
 20
0.000000
 30
0.000000
 62
7
 70
12
  0
VERTEX
  8
STANDARDEBENE
 10
379.197235
 20
-175.938904
 30
0.000000
 70
48
  0
VERTEX
  8
STANDARDEBENE
 10
379.197235
 20
-175.938904
 30
0.000000
 70
40
  0
VERTEX
  8
STANDARDEBENE
 10
379.197235
 20
-176.326035
 30
0.000000
 70
40
  0
VERTEX
  8
STANDARDEBENE
 10
379.197235
 20
-177.363556
 30
0.000000
 70
40
  0
VERTEX
  8
STANDARDEBENE
 10
379.197235
 20
-178.865646
 30
0.000000
 70
40
  0
VERTEX
  8
STANDARDEBENE
 10
379.197235
 20
-180.646469
 30
0.000000
 70
40
  0
VERTEX
  8
STANDARDEBENE
 10
379.197266
 20
-182.520218
 30
0.000000
 70
40
  0
VERTEX
  8
STANDARDEBENE
 10
379.197266
 20
-184.301041
 30
0.000000
 70
40
  0
VERTEX
  8
STANDARDEBENE
 10
379.197266
 20
-185.803131
 30
0.000000
 70
40
  0
VERTEX
  8
STANDARDEBENE
 10
379.197296
 20
-186.840652
 30
0.000000
 70
40
  0
VERTEX
  8
STANDARDEBENE
 10
379.197296
 20
-187.227783
 30
0.000000
 70
40
  0
VERTEX
  8
STANDARDEBENE
 10
379.197235
 20
-175.938904
 30
0.000000
 70
48
  0
VERTEX
  8
STANDARDEBENE
 10
379.197235
 20
-187.227783
 30
0.000000
 70
48
  0
VERTEX
  8
STANDARDEBENE
 10
379.197235
 20
-187.227783
 30
0.000000
 70
48
  0
SEQEND
  8
STANDARDEBENE
  0
POLYLINE
  8
STANDARDEBENE
 66
1
 10
0.000000
 20
0.000000
 30
0.000000
 62
7
 70
12
  0
VERTEX
  8
STANDARDEBENE
 10
379.197235
 20
-156.183350
 30
0.000000
 70
48
  0
VERTEX
  8
STANDARDEBENE
 10
379.197235
 20
-156.183350
 30
0.000000
 70
40
  0
VERTEX
  8
STANDARDEBENE
 10
379.197235
 20
-156.570480
 30
0.000000
 70
40
  0
VERTEX
  8
STANDARDEBENE
 10
379.197235
 20
-157.608002
 30
0.000000
 70
40
  0
VERTEX
  8
STANDARDEBENE
 10
379.197235
 20
-159.110092
 30
0.000000
 70
40
  0
VERTEX
  8
STANDARDEBENE
 10
379.197235
 20
-160.890915
 30
0.000000
 70
40
  0
VERTEX
  8
STANDARDEBENE
 10
379.197266
 20
-162.764664
 30
0.000000
 70
40
  0
VERTEX
  8
STANDARDEBENE
 10
379.197266
 20
-164.545486
 30
0.000000
 70
40
  0
VERTEX
  8
STANDARDEBENE
 10
379.197266
 20
-166.047577
 30
0.000000
 70
40
  0
VERTEX
  8
STANDARDEBENE
 10
379.197296
 20
-167.085098
 30
0.000000
 70
40
  0
VERTEX
  8
STANDARDEBENE
 10
379.197296
 20
-167.472229
 30
0.000000
 70
40
  0
VERTEX
  8
STANDARDEBENE
 10
379.197235
 20
-156.183350
 30
0.000000
 70
48
  0
VERTEX
  8
STANDARDEBENE
 10
379.197235
 20
-167.472229
 30
0.000000
 70
48
  0
VERTEX
  8
STANDARDEBENE
 10
379.197235
 20
-167.472229
 30
0.000000
 70
48
  0
SEQEND
  8
STANDARDEBENE
  0
POLYLINE
  8
STANDARDEBENE
 66
1
 10
0.000000
 20
0.000000
 30
0.000000
 62
7
 70
12
  0
VERTEX
  8
STANDARDEBENE
 10
379.197235
 20
-136.427780
 30
0.000000
 70
48
  0
VERTEX
  8
STANDARDEBENE
 10
379.197235
 20
-136.427780
 30
0.000000
 70
40
  0
VERTEX
  8
STANDARDEBENE
 10
379.197235
 20
-136.814911
 30
0.000000
 70
40
  0
VERTEX
  8
STANDARDEBENE
 10
379.197235
 20
-137.852448
 30
0.000000
 70
40
  0
VERTEX
  8
STANDARDEBENE
 10
379.197235
 20
-139.354538
 30
0.000000
 70
40
  0
VERTEX
  8
STANDARDEBENE
 10
379.197235
 20
-141.135376
 30
0.000000
 70
40
  0
VERTEX
  8
STANDARDEBENE
 10
379.197266
 20
-143.009125
 30
0.000000
 70
40
  0
VERTEX
  8
STANDARDEBENE
 10
379.197266
 20
-144.789963
 30
0.000000
 70
40
  0
VERTEX
  8
STANDARDEBENE
 10
379.197266
 20
-146.292053
 30
0.000000
 70
40
  0
VERTEX
  8
STANDARDEBENE
 10
379.197296
 20
-147.329605
 30
0.000000
 70
40
  0
VERTEX
  8
STANDARDEBENE
 10
379.197296
 20
-147.716751
 30
0.000000
 70
40
  0
VERTEX
  8
STANDARDEBENE
 10
379.197235
 20
-136.427780
 30
0.000000
 70
48
  0
VERTEX
  8
STANDARDEBENE
 10
379.197235
 20
-147.716675
 30
0.000000
 70
48
  0
VERTEX
  8
STANDARDEBENE
 10
379.197235
 20
-147.716675
 30
0.000000
 70
48
  0
SEQEND
  8
STANDARDEBENE
  0
POLYLINE
  8
STANDARDEBENE
 66
1
 10
0.000000
 20
0.000000
 30
0.000000
 62
7
 70
12
  0
VERTEX
  8
STANDARDEBENE
 10
379.197235
 20
-116.672234
 30
0.000000
 70
48
  0
VERTEX
  8
STANDARDEBENE
 10
379.197235
 20
-116.672234
 30
0.000000
 70
40
  0
VERTEX
  8
STANDARDEBENE
 10
379.197235
 20
-117.059372
 30
0.000000
 70
40
  0
VERTEX
  8
STANDARDEBENE
 10
379.197235
 20
-118.096893
 30
0.000000
 70
40
  0
VERTEX
  8
STANDARDEBENE
 10
379.197235
 20
-119.598984
 30
0.000000
 70
40
  0
VERTEX
  8
STANDARDEBENE
 10
379.197235
 20
-121.379814
 30
0.000000
 70
40
  0
VERTEX
  8
STANDARDEBENE
 10
379.197266
 20
-123.253555
 30
0.000000
 70
40
  0
VERTEX
  8
STANDARDEBENE
 10
379.197266
 20
-125.034386
 30
0.000000
 70
40
  0
VERTEX
  8
STANDARDEBENE
 10
379.197266
 20
-126.536484
 30
0.000000
 70
40
  0
VERTEX
  8
STANDARDEBENE
 10
379.197296
 20
-127.574013
 30
0.000000
 70
40
  0
VERTEX
  8
STANDARDEBENE
 10
379.197296
 20
-127.961159
 30
0.000000
 70
40
  0
VERTEX
  8
STANDARDEBENE
 10
379.197235
 20
-116.672234
 30
0.000000
 70
48
  0
VERTEX
  8
STANDARDEBENE
 10
379.197235
 20
-127.961121
 30
0.000000
 70
48
  0
VERTEX
  8
STANDARDEBENE
 10
379.197235
 20
-127.961121
 30
0.000000
 70
48
  0
SEQEND
  8
STANDARDEBENE
  0
POLYLINE
  8
STANDARDEBENE
 66
1
 10
0.000000
 20
0.000000
 30
0.000000
 62
7
 70
12
  0
VERTEX
  8
STANDARDEBENE
 10
379.197235
 20
-96.916672
 30
0.000000
 70
48
  0
VERTEX
  8
STANDARDEBENE
 10
379.197235
 20
-96.916672
 30
0.000000
 70
40
  0
VERTEX
  8
STANDARDEBENE
 10
379.197235
 20
-97.303810
 30
0.000000
 70
40
  0
VERTEX
  8
STANDARDEBENE
 10
379.197235
 20
-98.341331
 30
0.000000
 70
40
  0
VERTEX
  8
STANDARDEBENE
 10
379.197235
 20
-99.843422
 30
0.000000
 70
40
  0
VERTEX
  8
STANDARDEBENE
 10
379.197235
 20
-101.624252
 30
0.000000
 70
40
  0
VERTEX
  8
STANDARDEBENE
 10
379.197266
 20
-103.498001
 30
0.000000
 70
40
  0
VERTEX
  8
STANDARDEBENE
 10
379.197266
 20
-105.278831
 30
0.000000
 70
40
  0
VERTEX
  8
STANDARDEBENE
 10
379.197266
 20
-106.780922
 30
0.000000
 70
40
  0
VERTEX
  8
STANDARDEBENE
 10
379.197296
 20
-107.818451
 30
0.000000
 70
40
  0
VERTEX
  8
STANDARDEBENE
 10
379.197296
 20
-108.205597
 30
0.000000
 70
40
  0
VERTEX
  8
STANDARDEBENE
 10
379.197235
 20
-96.916672
 30
0.000000
 70
48
  0
VERTEX
  8
STANDARDEBENE
 10
379.197235
 20
-108.205566
 30
0.000000
 70
48
  0
VERTEX
  8
STANDARDEBENE
 10
379.197235
 20
-108.205566
 30
0.000000
 70
48
  0
SEQEND
  8
STANDARDEBENE
  0
POLYLINE
  8
STANDARDEBENE
 66
1
 10
0.000000
 20
0.000000
 30
0.000000
 62
7
 70
12
  0
VERTEX
  8
STANDARDEBENE
 10
379.197235
 20
-77.161118
 30
0.000000
 70
48
  0
VERTEX
  8
STANDARDEBENE
 10
379.197235
 20
-77.161118
 30
0.000000
 70
40
  0
VERTEX
  8
STANDARDEBENE
 10
379.197235
 20
-77.548256
 30
0.000000
 70
40
  0
VERTEX
  8
STANDARDEBENE
 10
379.197235
 20
-78.585777
 30
0.000000
 70
40
  0
VERTEX
  8
STANDARDEBENE
 10
379.197235
 20
-80.087868
 30
0.000000
 70
40
  0
VERTEX
  8
STANDARDEBENE
 10
379.197235
 20
-81.868698
 30
0.000000
 70
40
  0
VERTEX
  8
STANDARDEBENE
 10
379.197266
 20
-83.742432
 30
0.000000
 70
40
  0
VERTEX
  8
STANDARDEBENE
 10
379.197266
 20
-85.523262
 30
0.000000
 70
40
  0
VERTEX
  8
STANDARDEBENE
 10
379.197266
 20
-87.025352
 30
0.000000
 70
40
  0
VERTEX
  8
STANDARDEBENE
 10
379.197296
 20
-88.062874
 30
0.000000
 70
40
  0
VERTEX
  8
STANDARDEBENE
 10
379.197296
 20
-88.450012
 30
0.000000
 70
40
  0
VERTEX
  8
STANDARDEBENE
 10
379.197235
 20
-77.161118
 30
0.000000
 70
48
  0
VERTEX
  8
STANDARDEBENE
 10
379.197235
 20
-88.450012
 30
0.000000
 70
48
  0
VERTEX
  8
STANDARDEBENE
 10
379.197235
 20
-88.450012
 30
0.000000
 70
48
  0
SEQEND
  8
STANDARDEBENE
  0
POLYLINE
  8
STANDARDEBENE
 66
1
 10
0.000000
 20
0.000000
 30
0.000000
 62
7
 70
12
  0
VERTEX
  8
STANDARDEBENE
 10
379.197235
 20
-57.405563
 30
0.000000
 70
48
  0
VERTEX
  8
STANDARDEBENE
 10
379.197235
 20
-57.405563
 30
0.000000
 70
40
  0
VERTEX
  8
STANDARDEBENE
 10
379.197235
 20
-57.792698
 30
0.000000
 70
40
  0
VERTEX
  8
STANDARDEBENE
 10
379.197235
 20
-58.830223
 30
0.000000
 70
40
  0
VERTEX
  8
STANDARDEBENE
 10
379.197235
 20
-60.332314
 30
0.000000
 70
40
  0
VERTEX
  8
STANDARDEBENE
 10
379.197235
 20
-62.113136
 30
0.000000
 70
40
  0
VERTEX
  8
STANDARDEBENE
 10
379.197266
 20
-63.986877
 30
0.000000
 70
40
  0
VERTEX
  8
STANDARDEBENE
 10
379.197266
 20
-65.767700
 30
0.000000
 70
40
  0
VERTEX
  8
STANDARDEBENE
 10
379.197266
 20
-67.269791
 30
0.000000
 70
40
  0
VERTEX
  8
STANDARDEBENE
 10
379.197296
 20
-68.307312
 30
0.000000
 70
40
  0
VERTEX
  8
STANDARDEBENE
 10
379.197296
 20
-68.694450
 30
0.000000
 70
40
  0
VERTEX
  8
STANDARDEBENE
 10
379.197235
 20
-57.405563
 30
0.000000
 70
48
  0
VERTEX
  8
STANDARDEBENE
 10
379.197235
 20
-68.694450
 30
0.000000
 70
48
  0
VERTEX
  8
STANDARDEBENE
 10
379.197235
 20
-68.694450
 30
0.000000
 70
48
  0
SEQEND
  8
STANDARDEBENE
  0
POLYLINE
  8
STANDARDEBENE
 66
1
 10
0.000000
 20
0.000000
 30
0.000000
 62
7
 70
12
  0
VERTEX
  8
STANDARDEBENE
 10
379.197235
 20
-37.650009
 30
0.000000
 70
48
  0
VERTEX
  8
STANDARDEBENE
 10
379.197235
 20
-37.650009
 30
0.000000
 70
40
  0
VERTEX
  8
STANDARDEBENE
 10
379.197235
 20
-38.037144
 30
0.000000
 70
40
  0
VERTEX
  8
STANDARDEBENE
 10
379.197235
 20
-39.074669
 30
0.000000
 70
40
  0
VERTEX
  8
STANDARDEBENE
 10
379.197235
 20
-40.576759
 30
0.000000
 70
40
  0
VERTEX
  8
STANDARDEBENE
 10
379.197235
 20
-42.357582
 30
0.000000
 70
40
  0
VERTEX
  8
STANDARDEBENE
 10
379.197266
 20
-44.231323
 30
0.000000
 70
40
  0
VERTEX
  8
STANDARDEBENE
 10
379.197266
 20
-46.012146
 30
0.000000
 70
40
  0
VERTEX
  8
STANDARDEBENE
 10
379.197266
 20
-47.514236
 30
0.000000
 70
40
  0
VERTEX
  8
STANDARDEBENE
 10
379.197296
 20
-48.551762
 30
0.000000
 70
40
  0
VERTEX
  8
STANDARDEBENE
 10
379.197296
 20
-48.938896
 30
0.000000
 70
40
  0
VERTEX
  8
STANDARDEBENE
 10
379.197235
 20
-37.650009
 30
0.000000
 70
48
  0
VERTEX
  8
STANDARDEBENE
 10
379.197235
 20
-48.938896
 30
0.000000
 70
48
  0
VERTEX
  8
STANDARDEBENE
 10
379.197235
 20
-48.938896
 30
0.000000
 70
48
  0
SEQEND
  8
STANDARDEBENE
  0
POLYLINE
  8
STANDARDEBENE
 66
1
 10
0.000000
 20
0.000000
 30
0.000000
 62
7
 70
12
  0
VERTEX
  8
STANDARDEBENE
 10
379.197235
 20
-17.894453
 30
0.000000
 70
48
  0
VERTEX
  8
STANDARDEBENE
 10
379.197235
 20
-17.894453
 30
0.000000
 70
40
  0
VERTEX
  8
STANDARDEBENE
 10
379.197235
 20
-18.281590
 30
0.000000
 70
40
  0
VERTEX
  8
STANDARDEBENE
 10
379.197235
 20
-19.319115
 30
0.000000
 70
40
  0
VERTEX
  8
STANDARDEBENE
 10
379.197235
 20
-20.821203
 30
0.000000
 70
40
  0
VERTEX
  8
STANDARDEBENE
 10
379.197235
 20
-22.602030
 30
0.000000
 70
40
  0
VERTEX
  8
STANDARDEBENE
 10
379.197266
 20
-24.475769
 30
0.000000
 70
40
  0
VERTEX
  8
STANDARDEBENE
 10
379.197266
 20
-26.256598
 30
0.000000
 70
40
  0
VERTEX
  8
STANDARDEBENE
 10
379.197266
 20
-27.758686
 30
0.000000
 70
40
  0
VERTEX
  8
STANDARDEBENE
 10
379.197296
 20
-28.796213
 30
0.000000
 70
40
  0
VERTEX
  8
STANDARDEBENE
 10
379.197296
 20
-29.183352
 30
0.000000
 70
40
  0
VERTEX
  8
STANDARDEBENE
 10
379.197235
 20
-17.894453
 30
0.000000
 70
48
  0
VERTEX
  8
STANDARDEBENE
 10
379.197235
 20
-29.183342
 30
0.000000
 70
48
  0
VERTEX
  8
STANDARDEBENE
 10
379.197235
 20
-29.183342
 30
0.000000
 70
48
  0
SEQEND
  8
STANDARDEBENE
  0
POLYLINE
  8
STANDARDEBENE
 66
1
 10
0.000000
 20
0.000000
 30
0.000000
 62
7
 70
12
  0
VERTEX
  8
STANDARDEBENE
 10
379.197235
 20
1.861103
 30
0.000000
 70
48
  0
VERTEX
  8
STANDARDEBENE
 10
379.197235
 20
1.861103
 30
0.000000
 70
40
  0
VERTEX
  8
STANDARDEBENE
 10
379.197235
 20
1.473967
 30
0.000000
 70
40
  0
VERTEX
  8
STANDARDEBENE
 10
379.197235
 20
0.436442
 30
0.000000
 70
40
  0
VERTEX
  8
STANDARDEBENE
 10
379.197235
 20
-1.065646
 30
0.000000
 70
40
  0
VERTEX
  8
STANDARDEBENE
 10
379.197235
 20
-2.846473
 30
0.000000
 70
40
  0
VERTEX
  8
STANDARDEBENE
 10
379.197266
 20
-4.720212
 30
0.000000
 70
40
  0
VERTEX
  8
STANDARDEBENE
 10
379.197266
 20
-6.501038
 30
0.000000
 70
40
  0
VERTEX
  8
STANDARDEBENE
 10
379.197266
 20
-8.003126
 30
0.000000
 70
40
  0
VERTEX
  8
STANDARDEBENE
 10
379.197296
 20
-9.040651
 30
0.000000
 70
40
  0
VERTEX
  8
STANDARDEBENE
 10
379.197296
 20
-9.427788
 30
0.000000
 70
40
  0
VERTEX
  8
STANDARDEBENE
 10
379.197235
 20
1.861103
 30
0.000000
 70
48
  0
VERTEX
  8
STANDARDEBENE
 10
379.197235
 20
-9.427786
 30
0.000000
 70
48
  0
VERTEX
  8
STANDARDEBENE
 10
379.197235
 20
-9.427786
 30
0.000000
 70
48
  0
SEQEND
  8
STANDARDEBENE
  0
POLYLINE
  8
STANDARDEBENE
 66
1
 10
0.000000
 20
0.000000
 30
0.000000
 62
7
 70
12
  0
VERTEX
  8
STANDARDEBENE
 10
379.197235
 20
21.616659
 30
0.000000
 70
48
  0
VERTEX
  8
STANDARDEBENE
 10
379.197235
 20
21.616659
 30
0.000000
 70
40
  0
VERTEX
  8
STANDARDEBENE
 10
379.197235
 20
21.229523
 30
0.000000
 70
40
  0
VERTEX
  8
STANDARDEBENE
 10
379.197235
 20
20.191999
 30
0.000000
 70
40
  0
VERTEX
  8
STANDARDEBENE
 10
379.197235
 20
18.689911
 30
0.000000
 70
40
  0
VERTEX
  8
STANDARDEBENE
 10
379.197235
 20
16.909084
 30
0.000000
 70
40
  0
VERTEX
  8
STANDARDEBENE
 10
379.197266
 20
15.035347
 30
0.000000
 70
40
  0
VERTEX
  8
STANDARDEBENE
 10
379.197266
 20
13.254521
 30
0.000000
 70
40
  0
VERTEX
  8
STANDARDEBENE
 10
379.197266
 20
11.752434
 30
0.000000
 70
40
  0
VERTEX
  8
STANDARDEBENE
 10
379.197296
 20
10.714910
 30
0.000000
 70
40
  0
VERTEX
  8
STANDARDEBENE
 10
379.197296
 20
10.327774
 30
0.000000
 70
40
  0
VERTEX
  8
STANDARDEBENE
 10
379.197235
 20
21.616659
 30
0.000000
 70
48
  0
VERTEX
  8
STANDARDEBENE
 10
379.197235
 20
10.327770
 30
0.000000
 70
48
  0
VERTEX
  8
STANDARDEBENE
 10
379.197235
 20
10.327770
 30
0.000000
 70
48
  0
SEQEND
  8
STANDARDEBENE
  0
POLYLINE
  8
STANDARDEBENE
 66
1
 10
0.000000
 20
0.000000
 30
0.000000
 62
7
 70
12
  0
VERTEX
  8
STANDARDEBENE
 10
379.197235
 20
41.372215
 30
0.000000
 70
48
  0
VERTEX
  8
STANDARDEBENE
 10
379.197235
 20
41.372215
 30
0.000000
 70
40
  0
VERTEX
  8
STANDARDEBENE
 10
379.197235
 20
40.985081
 30
0.000000
 70
40
  0
VERTEX
  8
STANDARDEBENE
 10
379.197235
 20
39.947552
 30
0.000000
 70
40
  0
VERTEX
  8
STANDARDEBENE
 10
379.197235
 20
38.445465
 30
0.000000
 70
40
  0
VERTEX
  8
STANDARDEBENE
 10
379.197235
 20
36.664639
 30
0.000000
 70
40
  0
VERTEX
  8
STANDARDEBENE
 10
379.197266
 20
34.790897
 30
0.000000
 70
40
  0
VERTEX
  8
STANDARDEBENE
 10
379.197266
 20
33.010067
 30
0.000000
 70
40
  0
VERTEX
  8
STANDARDEBENE
 10
379.197266
 20
31.507978
 30
0.000000
 70
40
  0
VERTEX
  8
STANDARDEBENE
 10
379.197296
 20
30.470451
 30
0.000000
 70
40
  0
VERTEX
  8
STANDARDEBENE
 10
379.197296
 20
30.083313
 30
0.000000
 70
40
  0
VERTEX
  8
STANDARDEBENE
 10
379.197235
 20
41.372215
 30
0.000000
 70
48
  0
VERTEX
  8
STANDARDEBENE
 10
379.197235
 20
30.083324
 30
0.000000
 70
48
  0
VERTEX
  8
STANDARDEBENE
 10
379.197235
 20
30.083324
 30
0.000000
 70
48
  0
SEQEND
  8
STANDARDEBENE
  0
POLYLINE
  8
STANDARDEBENE
 66
1
 10
0.000000
 20
0.000000
 30
0.000000
 62
7
 70
12
  0
VERTEX
  8
STANDARDEBENE
 10
379.197235
 20
61.127769
 30
0.000000
 70
48
  0
VERTEX
  8
STANDARDEBENE
 10
379.197235
 20
61.127769
 30
0.000000
 70
40
  0
VERTEX
  8
STANDARDEBENE
 10
379.197235
 20
60.740635
 30
0.000000
 70
40
  0
VERTEX
  8
STANDARDEBENE
 10
379.197235
 20
59.703110
 30
0.000000
 70
40
  0
VERTEX
  8
STANDARDEBENE
 10
379.197235
 20
58.201023
 30
0.000000
 70
40
  0
VERTEX
  8
STANDARDEBENE
 10
379.197235
 20
56.420197
 30
0.000000
 70
40
  0
VERTEX
  8
STANDARDEBENE
 10
379.197266
 20
54.546463
 30
0.000000
 70
40
  0
VERTEX
  8
STANDARDEBENE
 10
379.197266
 20
52.765636
 30
0.000000
 70
40
  0
VERTEX
  8
STANDARDEBENE
 10
379.197266
 20
51.263554
 30
0.000000
 70
40
  0
VERTEX
  8
STANDARDEBENE
 10
379.197296
 20
50.226032
 30
0.000000
 70
40
  0
VERTEX
  8
STANDARDEBENE
 10
379.197296
 20
49.838898
 30
0.000000
 70
40
  0
VERTEX
  8
STANDARDEBENE
 10
379.197235
 20
61.127769
 30
0.000000
 70
48
  0
VERTEX
  8
STANDARDEBENE
 10
379.197235
 20
49.838882
 30
0.000000
 70
48
  0
VERTEX
  8
STANDARDEBENE
 10
379.197235
 20
49.838882
 30
0.000000
 70
48
  0
SEQEND
  8
STANDARDEBENE
  0
POLYLINE
  8
STANDARDEBENE
 66
1
 10
0.000000
 20
0.000000
 30
0.000000
 62
7
 70
12
  0
VERTEX
  8
STANDARDEBENE
 10
379.197235
 20
80.883324
 30
0.000000
 70
48
  0
VERTEX
  8
STANDARDEBENE
 10
379.197235
 20
80.883324
 30
0.000000
 70
40
  0
VERTEX
  8
STANDARDEBENE
 10
379.197235
 20
80.496185
 30
0.000000
 70
40
  0
VERTEX
  8
STANDARDEBENE
 10
379.197235
 20
79.458664
 30
0.000000
 70
40
  0
VERTEX
  8
STANDARDEBENE
 10
379.197235
 20
77.956573
 30
0.000000
 70
40
  0
VERTEX
  8
STANDARDEBENE
 10
379.197235
 20
76.175751
 30
0.000000
 70
40
  0
VERTEX
  8
STANDARDEBENE
 10
379.197266
 20
74.302010
 30
0.000000
 70
40
  0
VERTEX
  8
STANDARDEBENE
 10
379.197266
 20
72.521179
 30
0.000000
 70
40
  0
VERTEX
  8
STANDARDEBENE
 10
379.197266
 20
71.019096
 30
0.000000
 70
40
  0
VERTEX
  8
STANDARDEBENE
 10
379.197296
 20
69.981567
 30
0.000000
 70
40
  0
VERTEX
  8
STANDARDEBENE
 10
379.197296
 20
69.594429
 30
0.000000
 70
40
  0
VERTEX
  8
STANDARDEBENE
 10
379.197235
 20
80.883324
 30
0.000000
 70
48
  0
VERTEX
  8
STANDARDEBENE
 10
379.197235
 20
69.594437
 30
0.000000
 70
48
  0
VERTEX
  8
STANDARDEBENE
 10
379.197235
 20
69.594437
 30
0.000000
 70
48
  0
SEQEND
  8
STANDARDEBENE
  0
POLYLINE
  8
STANDARDEBENE
 66
1
 10
0.000000
 20
0.000000
 30
0.000000
 62
7
 70
12
  0
VERTEX
  8
STANDARDEBENE
 10
379.197235
 20
100.638878
 30
0.000000
 70
48
  0
VERTEX
  8
STANDARDEBENE
 10
379.197235
 20
100.638878
 30
0.000000
 70
40
  0
VERTEX
  8
STANDARDEBENE
 10
379.197235
 20
100.251740
 30
0.000000
 70
40
  0
VERTEX
  8
STANDARDEBENE
 10
379.197235
 20
99.214218
 30
0.000000
 70
40
  0
VERTEX
  8
STANDARDEBENE
 10
379.197235
 20
97.712128
 30
0.000000
 70
40
  0
VERTEX
  8
STANDARDEBENE
 10
379.197235
 20
95.931305
 30
0.000000
 70
40
  0
VERTEX
  8
STANDARDEBENE
 10
379.197266
 20
94.057564
 30
0.000000
 70
40
  0
VERTEX
  8
STANDARDEBENE
 10
379.197266
 20
92.276733
 30
0.000000
 70
40
  0
VERTEX
  8
STANDARDEBENE
 10
379.197266
 20
90.774651
 30
0.000000
 70
40
  0
VERTEX
  8
STANDARDEBENE
 10
379.197296
 20
89.737122
 30
0.000000
 70
40
  0
VERTEX
  8
STANDARDEBENE
 10
379.197296
 20
89.349983
 30
0.000000
 70
40
  0
VERTEX
  8
STANDARDEBENE
 10
379.197235
 20
100.638878
 30
0.000000
 70
48
  0
VERTEX
  8
STANDARDEBENE
 10
379.197235
 20
89.349991
 30
0.000000
 70
48
  0
VERTEX
  8
STANDARDEBENE
 10
379.197235
 20
89.349991
 30
0.000000
 70
48
  0
SEQEND
  8
STANDARDEBENE
  0
POLYLINE
  8
STANDARDEBENE
 66
1
 10
0.000000
 20
0.000000
 30
0.000000
 62
7
 70
12
  0
VERTEX
  8
STANDARDEBENE
 10
379.197235
 20
120.394440
 30
0.000000
 70
48
  0
VERTEX
  8
STANDARDEBENE
 10
379.197235
 20
120.394440
 30
0.000000
 70
40
  0
VERTEX
  8
STANDARDEBENE
 10
379.197235
 20
120.007301
 30
0.000000
 70
40
  0
VERTEX
  8
STANDARDEBENE
 10
379.197235
 20
118.969780
 30
0.000000
 70
40
  0
VERTEX
  8
STANDARDEBENE
 10
379.197235
 20
117.467690
 30
0.000000
 70
40
  0
VERTEX
  8
STANDARDEBENE
 10
379.197235
 20
115.686859
 30
0.000000
 70
40
  0
VERTEX
  8
STANDARDEBENE
 10
379.197266
 20
113.813126
 30
0.000000
 70
40
  0
VERTEX
  8
STANDARDEBENE
 10
379.197266
 20
112.032295
 30
0.000000
 70
40
  0
VERTEX
  8
STANDARDEBENE
 10
379.197266
 20
110.530205
 30
0.000000
 70
40
  0
VERTEX
  8
STANDARDEBENE
 10
379.197296
 20
109.492683
 30
0.000000
 70
40
  0
VERTEX
  8
STANDARDEBENE
 10
379.197296
 20
109.105545
 30
0.000000
 70
40
  0
VERTEX
  8
STANDARDEBENE
 10
379.197235
 20
120.394440
 30
0.000000
 70
48
  0
VERTEX
  8
STANDARDEBENE
 10
379.197235
 20
109.105545
 30
0.000000
 70
48
  0
VERTEX
  8
STANDARDEBENE
 10
379.197235
 20
109.105545
 30
0.000000
 70
48
  0
SEQEND
  8
STANDARDEBENE
  0
POLYLINE
  8
STANDARDEBENE
 66
1
 10
0.000000
 20
0.000000
 30
0.000000
 62
7
 70
12
  0
VERTEX
  8
STANDARDEBENE
 10
379.197235
 20
140.149994
 30
0.000000
 70
48
  0
VERTEX
  8
STANDARDEBENE
 10
379.197235
 20
140.149994
 30
0.000000
 70
40
  0
VERTEX
  8
STANDARDEBENE
 10
379.197235
 20
139.762863
 30
0.000000
 70
40
  0
VERTEX
  8
STANDARDEBENE
 10
379.197235
 20
138.725342
 30
0.000000
 70
40
  0
VERTEX
  8
STANDARDEBENE
 10
379.197235
 20
137.223251
 30
0.000000
 70
40
  0
VERTEX
  8
STANDARDEBENE
 10
379.197235
 20
135.442429
 30
0.000000
 70
40
  0
VERTEX
  8
STANDARDEBENE
 10
379.197266
 20
133.568695
 30
0.000000
 70
40
  0
VERTEX
  8
STANDARDEBENE
 10
379.197266
 20
131.787872
 30
0.000000
 70
40
  0
VERTEX
  8
STANDARDEBENE
 10
379.197266
 20
130.285782
 30
0.000000
 70
40
  0
VERTEX
  8
STANDARDEBENE
 10
379.197296
 20
129.248276
 30
0.000000
 70
40
  0
VERTEX
  8
STANDARDEBENE
 10
379.197296
 20
128.861145
 30
0.000000
 70
40
  0
VERTEX
  8
STANDARDEBENE
 10
379.197235
 20
140.149994
 30
0.000000
 70
48
  0
VERTEX
  8
STANDARDEBENE
 10
379.197235
 20
128.861099
 30
0.000000
 70
48
  0
VERTEX
  8
STANDARDEBENE
 10
379.197235
 20
128.861099
 30
0.000000
 70
48
  0
SEQEND
  8
STANDARDEBENE
  0
POLYLINE
  8
STANDARDEBENE
 66
1
 10
0.000000
 20
0.000000
 30
0.000000
 62
7
 70
12
  0
VERTEX
  8
STANDARDEBENE
 10
379.197235
 20
159.905548
 30
0.000000
 70
48
  0
VERTEX
  8
STANDARDEBENE
 10
379.197235
 20
159.905548
 30
0.000000
 70
40
  0
VERTEX
  8
STANDARDEBENE
 10
379.197235
 20
159.518417
 30
0.000000
 70
40
  0
VERTEX
  8
STANDARDEBENE
 10
379.197235
 20
158.480896
 30
0.000000
 70
40
  0
VERTEX
  8
STANDARDEBENE
 10
379.197235
 20
156.978806
 30
0.000000
 70
40
  0
VERTEX
  8
STANDARDEBENE
 10
379.197235
 20
155.197983
 30
0.000000
 70
40
  0
VERTEX
  8
STANDARDEBENE
 10
379.197266
 20
153.324249
 30
0.000000
 70
40
  0
VERTEX
  8
STANDARDEBENE
 10
379.197266
 20
151.543427
 30
0.000000
 70
40
  0
VERTEX
  8
STANDARDEBENE
 10
379.197266
 20
150.041336
 30
0.000000
 70
40
  0
VERTEX
  8
STANDARDEBENE
 10
379.197296
 20
149.003830
 30
0.000000
 70
40
  0
VERTEX
  8
STANDARDEBENE
 10
379.197296
 20
148.616699
 30
0.000000
 70
40
  0
VERTEX
  8
STANDARDEBENE
 10
379.197235
 20
159.905548
 30
0.000000
 70
48
  0
VERTEX
  8
STANDARDEBENE
 10
379.197235
 20
148.616653
 30
0.000000
 70
48
  0
VERTEX
  8
STANDARDEBENE
 10
379.197235
 20
148.616653
 30
0.000000
 70
48
  0
SEQEND
  8
STANDARDEBENE
  0
POLYLINE
  8
STANDARDEBENE
 66
1
 10
0.000000
 20
0.000000
 30
0.000000
 62
7
 70
12
  0
VERTEX
  8
STANDARDEBENE
 10
379.197235
 20
179.661102
 30
0.000000
 70
48
  0
VERTEX
  8
STANDARDEBENE
 10
379.197235
 20
179.661102
 30
0.000000
 70
40
  0
VERTEX
  8
STANDARDEBENE
 10
379.197235
 20
179.273972
 30
0.000000
 70
40
  0
VERTEX
  8
STANDARDEBENE
 10
379.197235
 20
178.236450
 30
0.000000
 70
40
  0
VERTEX
  8
STANDARDEBENE
 10
379.197235
 20
176.734360
 30
0.000000
 70
40
  0
VERTEX
  8
STANDARDEBENE
 10
379.197235
 20
174.953552
 30
0.000000
 70
40
  0
VERTEX
  8
STANDARDEBENE
 10
379.197266
 20
173.079819
 30
0.000000
 70
40
  0
VERTEX
  8
STANDARDEBENE
 10
379.197266
 20
171.299011
 30
0.000000
 70
40
  0
VERTEX
  8
STANDARDEBENE
 10
379.197266
 20
169.796936
 30
0.000000
 70
40
  0
VERTEX
  8
STANDARDEBENE
 10
379.197296
 20
168.759430
 30
0.000000
 70
40
  0
VERTEX
  8
STANDARDEBENE
 10
379.197296
 20
168.372314
 30
0.000000
 70
40
  0
VERTEX
  8
STANDARDEBENE
 10
379.197235
 20
179.661102
 30
0.000000
 70
48
  0
VERTEX
  8
STANDARDEBENE
 10
379.197235
 20
168.372208
 30
0.000000
 70
48
  0
VERTEX
  8
STANDARDEBENE
 10
379.197235
 20
168.372208
 30
0.000000
 70
48
  0
SEQEND
  8
STANDARDEBENE
  0
POLYLINE
  8
STANDARDEBENE
 66
1
 10
0.000000
 20
0.000000
 30
0.000000
 62
7
 70
12
  0
VERTEX
  8
STANDARDEBENE
 10
379.197235
 20
199.416656
 30
0.000000
 70
48
  0
VERTEX
  8
STANDARDEBENE
 10
379.197235
 20
199.416656
 30
0.000000
 70
40
  0
VERTEX
  8
STANDARDEBENE
 10
379.197235
 20
199.029526
 30
0.000000
 70
40
  0
VERTEX
  8
STANDARDEBENE
 10
379.197235
 20
197.991989
 30
0.000000
 70
40
  0
VERTEX
  8
STANDARDEBENE
 10
379.197235
 20
196.489899
 30
0.000000
 70
40
  0
VERTEX
  8
STANDARDEBENE
 10
379.197235
 20
194.709076
 30
0.000000
 70
40
  0
VERTEX
  8
STANDARDEBENE
 10
379.197266
 20
192.835327
 30
0.000000
 70
40
  0
VERTEX
  8
STANDARDEBENE
 10
379.197266
 20
191.054489
 30
0.000000
 70
40
  0
VERTEX
  8
STANDARDEBENE
 10
379.197266
 20
189.552399
 30
0.000000
 70
40
  0
VERTEX
  8
STANDARDEBENE
 10
379.197296
 20
188.514862
 30
0.000000
 70
40
  0
VERTEX
  8
STANDARDEBENE
 10
379.197296
 20
188.127716
 30
0.000000
 70
40
  0
VERTEX
  8
STANDARDEBENE
 10
379.197235
 20
199.416656
 30
0.000000
 70
48
  0
VERTEX
  8
STANDARDEBENE
 10
379.197235
 20
188.127777
 30
0.000000
 70
48
  0
VERTEX
  8
STANDARDEBENE
 10
379.197235
 20
188.127777
 30
0.000000
 70
48
  0
SEQEND
  8
STANDARDEBENE
  0
POLYLINE
  8
STANDARDEBENE
 66
1
 10
0.000000
 20
0.000000
 30
0.000000
 62
7
 70
12
  0
VERTEX
  8
STANDARDEBENE
 10
379.197235
 20
219.172211
 30
0.000000
 70
48
  0
VERTEX
  8
STANDARDEBENE
 10
379.197235
 20
219.172211
 30
0.000000
 70
40
  0
VERTEX
  8
STANDARDEBENE
 10
379.197235
 20
218.785080
 30
0.000000
 70
40
  0
VERTEX
  8
STANDARDEBENE
 10
379.197235
 20
217.747559
 30
0.000000
 70
40
  0
VERTEX
  8
STANDARDEBENE
 10
379.197235
 20
216.245468
 30
0.000000
 70
40
  0
VERTEX
  8
STANDARDEBENE
 10
379.197235
 20
214.464645
 30
0.000000
 70
40
  0
VERTEX
  8
STANDARDEBENE
 10
379.197266
 20
212.590927
 30
0.000000
 70
40
  0
VERTEX
  8
STANDARDEBENE
 10
379.197266
 20
210.810104
 30
0.000000
 70
40
  0
VERTEX
  8
STANDARDEBENE
 10
379.197266
 20
209.308029
 30
0.000000
 70
40
  0
VERTEX
  8
STANDARDEBENE
 10
379.197296
 20
208.270508
 30
0.000000
 70
40
  0
VERTEX
  8
STANDARDEBENE
 10
379.197296
 20
207.883392
 30
0.000000
 70
40
  0
VERTEX
  8
STANDARDEBENE
 10
379.197235
 20
219.172211
 30
0.000000
 70
48
  0
VERTEX
  8
STANDARDEBENE
 10
379.197235
 20
207.883331
 30
0.000000
 70
48
  0
VERTEX
  8
STANDARDEBENE
 10
379.197235
 20
207.883331
 30
0.000000
 70
48
  0
SEQEND
  8
STANDARDEBENE
  0
POLYLINE
  8
STANDARDEBENE
 66
1
 10
0.000000
 20
0.000000
 30
0.000000
 62
7
 70
12
  0
VERTEX
  8
STANDARDEBENE
 10
379.197235
 20
238.927765
 30
0.000000
 70
48
  0
VERTEX
  8
STANDARDEBENE
 10
379.197235
 20
238.927765
 30
0.000000
 70
40
  0
VERTEX
  8
STANDARDEBENE
 10
379.197235
 20
238.540634
 30
0.000000
 70
40
  0
VERTEX
  8
STANDARDEBENE
 10
379.197235
 20
237.503098
 30
0.000000
 70
40
  0
VERTEX
  8
STANDARDEBENE
 10
379.197235
 20
236.001007
 30
0.000000
 70
40
  0
VERTEX
  8
STANDARDEBENE
 10
379.197235
 20
234.220184
 30
0.000000
 70
40
  0
VERTEX
  8
STANDARDEBENE
 10
379.197266
 20
232.346436
 30
0.000000
 70
40
  0
VERTEX
  8
STANDARDEBENE
 10
379.197266
 20
230.565598
 30
0.000000
 70
40
  0
VERTEX
  8
STANDARDEBENE
 10
379.197266
 20
229.063507
 30
0.000000
 70
40
  0
VERTEX
  8
STANDARDEBENE
 10
379.197296
 20
228.025970
 30
0.000000
 70
40
  0
VERTEX
  8
STANDARDEBENE
 10
379.197296
 20
227.638824
 30
0.000000
 70
40
  0
VERTEX
  8
STANDARDEBENE
 10
379.197235
 20
238.927765
 30
0.000000
 70
48
  0
VERTEX
  8
STANDARDEBENE
 10
379.197235
 20
227.638885
 30
0.000000
 70
48
  0
VERTEX
  8
STANDARDEBENE
 10
379.197235
 20
227.638885
 30
0.000000
 70
48
  0
SEQEND
  8
STANDARDEBENE
  0
POLYLINE
  8
STANDARDEBENE
 66
1
 10
0.000000
 20
0.000000
 30
0.000000
 62
7
 70
12
  0
VERTEX
  8
STANDARDEBENE
 10
379.197235
 20
258.683319
 30
0.000000
 70
48
  0
VERTEX
  8
STANDARDEBENE
 10
379.197235
 20
258.683319
 30
0.000000
 70
40
  0
VERTEX
  8
STANDARDEBENE
 10
379.197235
 20
258.296173
 30
0.000000
 70
40
  0
VERTEX
  8
STANDARDEBENE
 10
379.197235
 20
257.258667
 30
0.000000
 70
40
  0
VERTEX
  8
STANDARDEBENE
 10
379.197235
 20
255.756577
 30
0.000000
 70
40
  0
VERTEX
  8
STANDARDEBENE
 10
379.197235
 20
253.975754
 30
0.000000
 70
40
  0
VERTEX
  8
STANDARDEBENE
 10
379.197266
 20
252.102036
 30
0.000000
 70
40
  0
VERTEX
  8
STANDARDEBENE
 10
379.197266
 20
250.321213
 30
0.000000
 70
40
  0
VERTEX
  8
STANDARDEBENE
 10
379.197266
 20
248.819138
 30
0.000000
 70
40
  0
VERTEX
  8
STANDARDEBENE
 10
379.197296
 20
247.781616
 30
0.000000
 70
40
  0
VERTEX
  8
STANDARDEBENE
 10
379.197296
 20
247.394501
 30
0.000000
 70
40
  0
VERTEX
  8
STANDARDEBENE
 10
379.197235
 20
258.683319
 30
0.000000
 70
48
  0
VERTEX
  8
STANDARDEBENE
 10
379.197235
 20
247.394440
 30
0.000000
 70
48
  0
VERTEX
  8
STANDARDEBENE
 10
379.197235
 20
247.394440
 30
0.000000
 70
48
  0
SEQEND
  8
STANDARDEBENE
  0
POLYLINE
  8
STANDARDEBENE
 66
1
 10
0.000000
 20
0.000000
 30
0.000000
 62
7
 70
12
  0
VERTEX
  8
STANDARDEBENE
 10
379.197235
 20
278.438873
 30
0.000000
 70
48
  0
VERTEX
  8
STANDARDEBENE
 10
379.197235
 20
278.438873
 30
0.000000
 70
40
  0
VERTEX
  8
STANDARDEBENE
 10
379.197235
 20
278.051727
 30
0.000000
 70
40
  0
VERTEX
  8
STANDARDEBENE
 10
379.197235
 20
277.014221
 30
0.000000
 70
40
  0
VERTEX
  8
STANDARDEBENE
 10
379.197235
 20
275.512115
 30
0.000000
 70
40
  0
VERTEX
  8
STANDARDEBENE
 10
379.197235
 20
273.731293
 30
0.000000
 70
40
  0
VERTEX
  8
STANDARDEBENE
 10
379.197266
 20
271.857544
 30
0.000000
 70
40
  0
VERTEX
  8
STANDARDEBENE
 10
379.197266
 20
270.076721
 30
0.000000
 70
40
  0
VERTEX
  8
STANDARDEBENE
 10
379.197266
 20
268.574615
 30
0.000000
 70
40
  0
VERTEX
  8
STANDARDEBENE
 10
379.197296
 20
267.537079
 30
0.000000
 70
40
  0
VERTEX
  8
STANDARDEBENE
 10
379.197296
 20
267.149933
 30
0.000000
 70
40
  0
VERTEX
  8
STANDARDEBENE
 10
379.197235
 20
278.438873
 30
0.000000
 70
48
  0
VERTEX
  8
STANDARDEBENE
 10
379.197235
 20
267.149994
 30
0.000000
 70
48
  0
VERTEX
  8
STANDARDEBENE
 10
379.197235
 20
267.149994
 30
0.000000
 70
48
  0
SEQEND
  8
STANDARDEBENE
  0
POLYLINE
  8
STANDARDEBENE
 66
1
 10
0.000000
 20
0.000000
 30
0.000000
 62
7
 70
12
  0
VERTEX
  8
STANDARDEBENE
 10
379.197235
 20
298.194427
 30
0.000000
 70
48
  0
VERTEX
  8
STANDARDEBENE
 10
379.197235
 20
298.194427
 30
0.000000
 70
40
  0
VERTEX
  8
STANDARDEBENE
 10
379.197235
 20
297.807281
 30
0.000000
 70
40
  0
VERTEX
  8
STANDARDEBENE
 10
379.197235
 20
296.769775
 30
0.000000
 70
40
  0
VERTEX
  8
STANDARDEBENE
 10
379.197235
 20
295.267700
 30
0.000000
 70
40
  0
VERTEX
  8
STANDARDEBENE
 10
379.197235
 20
293.486877
 30
0.000000
 70
40
  0
VERTEX
  8
STANDARDEBENE
 10
379.197266
 20
291.613129
 30
0.000000
 70
40
  0
VERTEX
  8
STANDARDEBENE
 10
379.197266
 20
289.832336
 30
0.000000
 70
40
  0
VERTEX
  8
STANDARDEBENE
 10
379.197266
 20
288.330231
 30
0.000000
 70
40
  0
VERTEX
  8
STANDARDEBENE
 10
379.197296
 20
287.292725
 30
0.000000
 70
40
  0
VERTEX
  8
STANDARDEBENE
 10
379.197296
 20
286.905609
 30
0.000000
 70
40
  0
VERTEX
  8
STANDARDEBENE
 10
379.197235
 20
298.194427
 30
0.000000
 70
48
  0
VERTEX
  8
STANDARDEBENE
 10
379.197235
 20
286.905548
 30
0.000000
 70
48
  0
VERTEX
  8
STANDARDEBENE
 10
379.197235
 20
286.905548
 30
0.000000
 70
48
  0
SEQEND
  8
STANDARDEBENE
  0
POLYLINE
  8
STANDARDEBENE
 66
1
 10
0.000000
 20
0.000000
 30
0.000000
 62
7
 70
12
  0
VERTEX
  8
STANDARDEBENE
 10
379.197235
 20
317.949982
 30
0.000000
 70
48
  0
VERTEX
  8
STANDARDEBENE
 10
379.197235
 20
317.949982
 30
0.000000
 70
40
  0
VERTEX
  8
STANDARDEBENE
 10
379.197235
 20
317.562836
 30
0.000000
 70
40
  0
VERTEX
  8
STANDARDEBENE
 10
379.197235
 20
316.525330
 30
0.000000
 70
40
  0
VERTEX
  8
STANDARDEBENE
 10
379.197235
 20
315.023224
 30
0.000000
 70
40
  0
VERTEX
  8
STANDARDEBENE
 10
379.197235
 20
313.242401
 30
0.000000
 70
40
  0
VERTEX
  8
STANDARDEBENE
 10
379.197266
 20
311.368652
 30
0.000000
 70
40
  0
VERTEX
  8
STANDARDEBENE
 10
379.197266
 20
309.587830
 30
0.000000
 70
40
  0
VERTEX
  8
STANDARDEBENE
 10
379.197266
 20
308.085724
 30
0.000000
 70
40
  0
VERTEX
  8
STANDARDEBENE
 10
379.197296
 20
307.048187
 30
0.000000
 70
40
  0
VERTEX
  8
STANDARDEBENE
 10
379.197296
 20
306.661041
 30
0.000000
 70
40
  0
VERTEX
  8
STANDARDEBENE
 10
379.197235
 20
317.949982
 30
0.000000
 70
48
  0
VERTEX
  8
STANDARDEBENE
 10
379.197235
 20
306.661102
 30
0.000000
 70
48
  0
VERTEX
  8
STANDARDEBENE
 10
379.197235
 20
306.661102
 30
0.000000
 70
48
  0
SEQEND
  8
STANDARDEBENE
  0
POLYLINE
  8
STANDARDEBENE
 66
1
 10
0.000000
 20
0.000000
 30
0.000000
 62
7
 70
12
  0
VERTEX
  8
STANDARDEBENE
 10
379.197235
 20
337.705536
 30
0.000000
 70
48
  0
VERTEX
  8
STANDARDEBENE
 10
379.197235
 20
337.705536
 30
0.000000
 70
40
  0
VERTEX
  8
STANDARDEBENE
 10
379.197235
 20
337.318390
 30
0.000000
 70
40
  0
VERTEX
  8
STANDARDEBENE
 10
379.197235
 20
336.280884
 30
0.000000
 70
40
  0
VERTEX
  8
STANDARDEBENE
 10
379.197235
 20
334.778809
 30
0.000000
 70
40
  0
VERTEX
  8
STANDARDEBENE
 10
379.197235
 20
332.997986
 30
0.000000
 70
40
  0
VERTEX
  8
STANDARDEBENE
 10
379.197266
 20
331.124237
 30
0.000000
 70
40
  0
VERTEX
  8
STANDARDEBENE
 10
379.197266
 20
329.343445
 30
0.000000
 70
40
  0
VERTEX
  8
STANDARDEBENE
 10
379.197266
 20
327.841339
 30
0.000000
 70
40
  0
VERTEX
  8
STANDARDEBENE
 10
379.197296
 20
326.803833
 30
0.000000
 70
40
  0
VERTEX
  8
STANDARDEBENE
 10
379.197296
 20
326.416718
 30
0.000000
 70
40
  0
VERTEX
  8
STANDARDEBENE
 10
379.197235
 20
337.705536
 30
0.000000
 70
48
  0
VERTEX
  8
STANDARDEBENE
 10
379.197235
 20
326.416656
 30
0.000000
 70
48
  0
VERTEX
  8
STANDARDEBENE
 10
379.197235
 20
326.416656
 30
0.000000
 70
48
  0
SEQEND
  8
STANDARDEBENE
  0
POLYLINE
  8
STANDARDEBENE
 66
1
 10
0.000000
 20
0.000000
 30
0.000000
 62
7
 70
12
  0
VERTEX
  8
STANDARDEBENE
 10
379.197235
 20
357.461090
 30
0.000000
 70
48
  0
VERTEX
  8
STANDARDEBENE
 10
379.197235
 20
357.461090
 30
0.000000
 70
40
  0
VERTEX
  8
STANDARDEBENE
 10
379.197235
 20
357.073944
 30
0.000000
 70
40
  0
VERTEX
  8
STANDARDEBENE
 10
379.197235
 20
356.036438
 30
0.000000
 70
40
  0
VERTEX
  8
STANDARDEBENE
 10
379.197235
 20
354.534332
 30
0.000000
 70
40
  0
VERTEX
  8
STANDARDEBENE
 10
379.197235
 20
352.753510
 30
0.000000
 70
40
  0
VERTEX
  8
STANDARDEBENE
 10
379.197266
 20
350.879761
 30
0.000000
 70
40
  0
VERTEX
  8
STANDARDEBENE
 10
379.197266
 20
349.098938
 30
0.000000
 70
40
  0
VERTEX
  8
STANDARDEBENE
 10
379.197266
 20
347.596832
 30
0.000000
 70
40
  0
VERTEX
  8
STANDARDEBENE
 10
379.197296
 20
346.559296
 30
0.000000
 70
40
  0
VERTEX
  8
STANDARDEBENE
 10
379.197296
 20
346.172150
 30
0.000000
 70
40
  0
VERTEX
  8
STANDARDEBENE
 10
379.197235
 20
357.461090
 30
0.000000
 70
48
  0
VERTEX
  8
STANDARDEBENE
 10
379.197235
 20
346.172211
 30
0.000000
 70
48
  0
VERTEX
  8
STANDARDEBENE
 10
379.197235
 20
346.172211
 30
0.000000
 70
48
  0
SEQEND
  8
STANDARDEBENE
  0
POLYLINE
  8
STANDARDEBENE
 66
1
 10
0.000000
 20
0.000000
 30
0.000000
 62
7
 70
12
  0
VERTEX
  8
STANDARDEBENE
 10
379.197235
 20
377.216675
 30
0.000000
 70
48
  0
VERTEX
  8
STANDARDEBENE
 10
379.197235
 20
377.216675
 30
0.000000
 70
40
  0
VERTEX
  8
STANDARDEBENE
 10
379.197235
 20
376.829529
 30
0.000000
 70
40
  0
VERTEX
  8
STANDARDEBENE
 10
379.197235
 20
375.791992
 30
0.000000
 70
40
  0
VERTEX
  8
STANDARDEBENE
 10
379.197235
 20
374.289917
 30
0.000000
 70
40
  0
VERTEX
  8
STANDARDEBENE
 10
379.197235
 20
372.509064
 30
0.000000
 70
40
  0
VERTEX
  8
STANDARDEBENE
 10
379.197266
 20
370.635315
 30
0.000000
 70
40
  0
VERTEX
  8
STANDARDEBENE
 10
379.197266
 20
368.854492
 30
0.000000
 70
40
  0
VERTEX
  8
STANDARDEBENE
 10
379.197266
 20
367.352386
 30
0.000000
 70
40
  0
VERTEX
  8
STANDARDEBENE
 10
379.197296
 20
366.314819
 30
0.000000
 70
40
  0
VERTEX
  8
STANDARDEBENE
 10
379.197296
 20
365.927673
 30
0.000000
 70
40
  0
VERTEX
  8
STANDARDEBENE
 10
379.197235
 20
377.216675
 30
0.000000
 70
48
  0
VERTEX
  8
STANDARDEBENE
 10
379.197235
 20
365.927765
 30
0.000000
 70
48
  0
VERTEX
  8
STANDARDEBENE
 10
379.197235
 20
365.927765
 30
0.000000
 70
48
  0
SEQEND
  8
STANDARDEBENE
  0
POLYLINE
  8
STANDARDEBENE
 66
1
 10
0.000000
 20
0.000000
 30
0.000000
 62
7
 70
12
  0
VERTEX
  8
STANDARDEBENE
 10
379.197235
 20
395.561096
 30
0.000000
 70
48
  0
VERTEX
  8
STANDARDEBENE
 10
379.197235
 20
395.561096
 30
0.000000
 70
40
  0
VERTEX
  8
STANDARDEBENE
 10
379.197235
 20
395.173950
 30
0.000000
 70
40
  0
VERTEX
  8
STANDARDEBENE
 10
379.197235
 20
394.136444
 30
0.000000
 70
40
  0
VERTEX
  8
STANDARDEBENE
 10
379.197235
 20
392.634338
 30
0.000000
 70
40
  0
VERTEX
  8
STANDARDEBENE
 10
379.197235
 20
390.853516
 30
0.000000
 70
40
  0
VERTEX
  8
STANDARDEBENE
 10
379.197266
 20
388.979736
 30
0.000000
 70
40
  0
VERTEX
  8
STANDARDEBENE
 10
379.197266
 20
387.198914
 30
0.000000
 70
40
  0
VERTEX
  8
STANDARDEBENE
 10
379.197266
 20
385.696808
 30
0.000000
 70
40
  0
VERTEX
  8
STANDARDEBENE
 10
379.197296
 20
384.659271
 30
0.000000
 70
40
  0
VERTEX
  8
STANDARDEBENE
 10
379.197296
 20
384.272095
 30
0.000000
 70
40
  0
VERTEX
  8
STANDARDEBENE
 10
379.197235
 20
395.561096
 30
0.000000
 70
48
  0
VERTEX
  8
STANDARDEBENE
 10
379.197235
 20
384.272217
 30
0.000000
 70
48
  0
VERTEX
  8
STANDARDEBENE
 10
379.197235
 20
384.272217
 30
0.000000
 70
48
  0
SEQEND
  8
STANDARDEBENE
  0
POLYLINE
  8
STANDARDEBENE
 66
1
 10
0.000000
 20
0.000000
 30
0.000000
 62
7
 70
12
  0
VERTEX
  8
STANDARDEBENE
 10
379.197235
 20
416.727783
 30
0.000000
 70
48
  0
VERTEX
  8
STANDARDEBENE
 10
379.197235
 20
416.727783
 30
0.000000
 70
40
  0
VERTEX
  8
STANDARDEBENE
 10
379.197235
 20
416.340637
 30
0.000000
 70
40
  0
VERTEX
  8
STANDARDEBENE
 10
379.197235
 20
415.303101
 30
0.000000
 70
40
  0
VERTEX
  8
STANDARDEBENE
 10
379.197235
 20
413.801025
 30
0.000000
 70
40
  0
VERTEX
  8
STANDARDEBENE
 10
379.197235
 20
412.020172
 30
0.000000
 70
40
  0
VERTEX
  8
STANDARDEBENE
 10
379.197266
 20
410.146423
 30
0.000000
 70
40
  0
VERTEX
  8
STANDARDEBENE
 10
379.197266
 20
408.365601
 30
0.000000
 70
40
  0
VERTEX
  8
STANDARDEBENE
 10
379.197266
 20
406.863495
 30
0.000000
 70
40
  0
VERTEX
  8
STANDARDEBENE
 10
379.197296
 20
405.825928
 30
0.000000
 70
40
  0
VERTEX
  8
STANDARDEBENE
 10
379.197296
 20
405.438782
 30
0.000000
 70
40
  0
VERTEX
  8
STANDARDEBENE
 10
379.197235
 20
416.727783
 30
0.000000
 70
48
  0
VERTEX
  8
STANDARDEBENE
 10
379.197235
 20
405.438873
 30
0.000000
 70
48
  0
VERTEX
  8
STANDARDEBENE
 10
379.197235
 20
405.438873
 30
0.000000
 70
48
  0
SEQEND
  8
STANDARDEBENE
  0
POLYLINE
  8
STANDARDEBENE
 66
1
 10
0.000000
 20
0.000000
 30
0.000000
 62
7
 70
12
  0
VERTEX
  8
STANDARDEBENE
 10
379.197235
 20
432.426392
 30
0.000000
 70
48
  0
VERTEX
  8
STANDARDEBENE
 10
379.197235
 20
432.426392
 30
0.000000
 70
40
  0
VERTEX
  8
STANDARDEBENE
 10
379.197235
 20
432.178375
 30
0.000000
 70
40
  0
VERTEX
  8
STANDARDEBENE
 10
379.197235
 20
431.513733
 30
0.000000
 70
40
  0
VERTEX
  8
STANDARDEBENE
 10
379.197235
 20
430.551453
 30
0.000000
 70
40
  0
VERTEX
  8
STANDARDEBENE
 10
379.197235
 20
429.410614
 30
0.000000
 70
40
  0
VERTEX
  8
STANDARDEBENE
 10
379.197266
 20
428.210266
 30
0.000000
 70
40
  0
VERTEX
  8
STANDARDEBENE
 10
379.197266
 20
427.069427
 30
0.000000
 70
40
  0
VERTEX
  8
STANDARDEBENE
 10
379.197266
 20
426.107147
 30
0.000000
 70
40
  0
VERTEX
  8
STANDARDEBENE
 10
379.197296
 20
425.442505
 30
0.000000
 70
40
  0
VERTEX
  8
STANDARDEBENE
 10
379.197296
 20
425.194519
 30
0.000000
 70
40
  0
VERTEX
  8
STANDARDEBENE
 10
379.197235
 20
432.426392
 30
0.000000
 70
48
  0
VERTEX
  8
STANDARDEBENE
 10
379.197235
 20
425.194427
 30
0.000000
 70
48
  0
VERTEX
  8
STANDARDEBENE
 10
379.197235
 20
425.194427
 30
0.000000
 70
48
  0
SEQEND
  8
STANDARDEBENE
  0
POLYLINE
  8
STANDARDEBENE
 66
1
 10
0.000000
 20
0.000000
 30
0.000000
 62
5
 70
12
  0
VERTEX
  8
STANDARDEBENE
 10
592.275024
 20
587.472229
 30
0.000000
 70
48
  0
VERTEX
  8
STANDARDEBENE
 10
592.275024
 20
587.472229
 30
0.000000
 70
40
  0
VERTEX
  8
STANDARDEBENE
 10
592.275024
 20
587.085083
 30
0.000000
 70
40
  0
VERTEX
  8
STANDARDEBENE
 10
592.275024
 20
586.047546
 30
0.000000
 70
40
  0
VERTEX
  8
STANDARDEBENE
 10
592.275024
 20
584.545471
 30
0.000000
 70
40
  0
VERTEX
  8
STANDARDEBENE
 10
592.275024
 20
582.764587
 30
0.000000
 70
40
  0
VERTEX
  8
STANDARDEBENE
 10
592.275024
 20
580.890808
 30
0.000000
 70
40
  0
VERTEX
  8
STANDARDEBENE
 10
592.275024
 20
579.109985
 30
0.000000
 70
40
  0
VERTEX
  8
STANDARDEBENE
 10
592.275024
 20
577.607849
 30
0.000000
 70
40
  0
VERTEX
  8
STANDARDEBENE
 10
592.275024
 20
576.570251
 30
0.000000
 70
40
  0
VERTEX
  8
STANDARDEBENE
 10
592.275024
 20
576.183044
 30
0.000000
 70
40
  0
VERTEX
  8
STANDARDEBENE
 10
592.275024
 20
587.472229
 30
0.000000
 70
48
  0
VERTEX
  8
STANDARDEBENE
 10
592.275024
 20
576.183350
 30
0.000000
 70
48
  0
VERTEX
  8
STANDARDEBENE
 10
592.275024
 20
576.183350
 30
0.000000
 70
48
  0
SEQEND
  8
STANDARDEBENE
  0
POLYLINE
  8
STANDARDEBENE
 66
1
 10
0.000000
 20
0.000000
 30
0.000000
 62
5
 70
12
  0
VERTEX
  8
STANDARDEBENE
 10
592.275024
 20
608.638855
 30
0.000000
 70
48
  0
VERTEX
  8
STANDARDEBENE
 10
592.275024
 20
608.638855
 30
0.000000
 70
40
  0
VERTEX
  8
STANDARDEBENE
 10
592.275024
 20
608.251709
 30
0.000000
 70
40
  0
VERTEX
  8
STANDARDEBENE
 10
592.275024
 20
607.214172
 30
0.000000
 70
40
  0
VERTEX
  8
STANDARDEBENE
 10
592.275024
 20
605.712097
 30
0.000000
 70
40
  0
VERTEX
  8
STANDARDEBENE
 10
592.275024
 20
603.931274
 30
0.000000
 70
40
  0
VERTEX
  8
STANDARDEBENE
 10
592.275024
 20
602.057556
 30
0.000000
 70
40
  0
VERTEX
  8
STANDARDEBENE
 10
592.275024
 20
600.276672
 30
0.000000
 70
40
  0
VERTEX
  8
STANDARDEBENE
 10
592.275024
 20
598.774597
 30
0.000000
 70
40
  0
VERTEX
  8
STANDARDEBENE
 10
592.275024
 20
597.737061
 30
0.000000
 70
40
  0
VERTEX
  8
STANDARDEBENE
 10
592.275024
 20
597.349915
 30
0.000000
 70
40
  0
VERTEX
  8
STANDARDEBENE
 10
592.275024
 20
608.638855
 30
0.000000
 70
48
  0
VERTEX
  8
STANDARDEBENE
 10
592.275024
 20
597.349976
 30
0.000000
 70
48
  0
VERTEX
  8
STANDARDEBENE
 10
592.275024
 20
597.349976
 30
0.000000
 70
48
  0
SEQEND
  8
STANDARDEBENE
  0
POLYLINE
  8
STANDARDEBENE
 66
1
 10
0.000000
 20
0.000000
 30
0.000000
 62
5
 70
12
  0
VERTEX
  8
STANDARDEBENE
 10
592.275024
 20
629.805542
 30
0.000000
 70
48
  0
VERTEX
  8
STANDARDEBENE
 10
592.275024
 20
629.805542
 30
0.000000
 70
40
  0
VERTEX
  8
STANDARDEBENE
 10
592.275024
 20
629.418396
 30
0.000000
 70
40
  0
VERTEX
  8
STANDARDEBENE
 10
592.275024
 20
628.380920
 30
0.000000
 70
40
  0
VERTEX
  8
STANDARDEBENE
 10
592.275024
 20
626.878845
 30
0.000000
 70
40
  0
VERTEX
  8
STANDARDEBENE
 10
592.275024
 20
625.098022
 30
0.000000
 70
40
  0
VERTEX
  8
STANDARDEBENE
 10
592.275024
 20
623.224304
 30
0.000000
 70
40
  0
VERTEX
  8
STANDARDEBENE
 10
592.275024
 20
621.443481
 30
0.000000
 70
40
  0
VERTEX
  8
STANDARDEBENE
 10
592.275024
 20
619.941406
 30
0.000000
 70
40
  0
VERTEX
  8
STANDARDEBENE
 10
592.275024
 20
618.903931
 30
0.000000
 70
40
  0
VERTEX
  8
STANDARDEBENE
 10
592.275024
 20
618.516846
 30
0.000000
 70
40
  0
VERTEX
  8
STANDARDEBENE
 10
592.275024
 20
629.805542
 30
0.000000
 70
48
  0
VERTEX
  8
STANDARDEBENE
 10
592.275024
 20
618.516663
 30
0.000000
 70
48
  0
VERTEX
  8
STANDARDEBENE
 10
592.275024
 20
618.516663
 30
0.000000
 70
48
  0
SEQEND
  8
STANDARDEBENE
  0
POLYLINE
  8
STANDARDEBENE
 66
1
 10
0.000000
 20
0.000000
 30
0.000000
 62
5
 70
12
  0
VERTEX
  8
STANDARDEBENE
 10
592.275024
 20
650.972229
 30
0.000000
 70
48
  0
VERTEX
  8
STANDARDEBENE
 10
592.275024
 20
650.972229
 30
0.000000
 70
40
  0
VERTEX
  8
STANDARDEBENE
 10
592.275024
 20
650.585083
 30
0.000000
 70
40
  0
VERTEX
  8
STANDARDEBENE
 10
592.275024
 20
649.547546
 30
0.000000
 70
40
  0
VERTEX
  8
STANDARDEBENE
 10
592.275024
 20
648.045471
 30
0.000000
 70
40
  0
VERTEX
  8
STANDARDEBENE
 10
592.275024
 20
646.264587
 30
0.000000
 70
40
  0
VERTEX
  8
STANDARDEBENE
 10
592.275024
 20
644.390808
 30
0.000000
 70
40
  0
VERTEX
  8
STANDARDEBENE
 10
592.275024
 20
642.609985
 30
0.000000
 70
40
  0
VERTEX
  8
STANDARDEBENE
 10
592.275024
 20
641.107849
 30
0.000000
 70
40
  0
VERTEX
  8
STANDARDEBENE
 10
592.275024
 20
640.070251
 30
0.000000
 70
40
  0
VERTEX
  8
STANDARDEBENE
 10
592.275024
 20
639.683044
 30
0.000000
 70
40
  0
VERTEX
  8
STANDARDEBENE
 10
592.275024
 20
650.972229
 30
0.000000
 70
48
  0
VERTEX
  8
STANDARDEBENE
 10
592.275024
 20
639.683350
 30
0.000000
 70
48
  0
VERTEX
  8
STANDARDEBENE
 10
592.275024
 20
639.683350
 30
0.000000
 70
48
  0
SEQEND
  8
STANDARDEBENE
  0
POLYLINE
  8
STANDARDEBENE
 66
1
 10
0.000000
 20
0.000000
 30
0.000000
 62
7
 70
12
  0
VERTEX
  8
STANDARDEBENE
 10
98.209732
 20
-208.218063
 30
0.000000
 70
48
  0
VERTEX
  8
STANDARDEBENE
 10
98.209732
 20
-208.218063
 30
0.000000
 70
40
  0
VERTEX
  8
STANDARDEBENE
 10
98.209732
 20
-197.475037
 30
0.000000
 70
40
  0
VERTEX
  8
STANDARDEBENE
 10
98.209732
 20
-168.683731
 30
0.000000
 70
40
  0
VERTEX
  8
STANDARDEBENE
 10
98.209732
 20
-127.000778
 30
0.000000
 70
40
  0
VERTEX
  8
STANDARDEBENE
 10
98.209724
 20
-77.582855
 30
0.000000
 70
40
  0
VERTEX
  8
STANDARDEBENE
 10
98.209724
 20
-25.586607
 30
0.000000
 70
40
  0
VERTEX
  8
STANDARDEBENE
 10
98.209717
 20
23.831316
 30
0.000000
 70
40
  0
VERTEX
  8
STANDARDEBENE
 10
98.209717
 20
65.514259
 30
0.000000
 70
40
  0
VERTEX
  8
STANDARDEBENE
 10
98.209709
 20
94.305573
 30
0.000000
 70
40
  0
VERTEX
  8
STANDARDEBENE
 10
98.209702
 20
105.048599
 30
0.000000
 70
40
  0
VERTEX
  8
STANDARDEBENE
 10
98.209732
 20
-208.218063
 30
0.000000
 70
48
  0
VERTEX
  8
STANDARDEBENE
 10
98.209732
 20
105.048607
 30
0.000000
 70
48
  0
VERTEX
  8
STANDARDEBENE
 10
98.209732
 20
105.048607
 30
0.000000
 70
48
  0
SEQEND
  8
STANDARDEBENE
  0
POLYLINE
  8
STANDARDEBENE
 66
1
 10
0.000000
 20
0.000000
 30
0.000000
 62
7
 70
12
  0
VERTEX
  8
STANDARDEBENE
 10
274.598633
 20
-209.629181
 30
0.000000
 70
48
  0
VERTEX
  8
STANDARDEBENE
 10
274.598633
 20
-209.629181
 30
0.000000
 70
40
  0
VERTEX
  8
STANDARDEBENE
 10
278.034454
 20
-209.629181
 30
0.000000
 70
40
  0
VERTEX
  8
STANDARDEBENE
 10
287.242493
 20
-209.629181
 30
0.000000
 70
40
  0
VERTEX
  8
STANDARDEBENE
 10
300.573517
 20
-209.629181
 30
0.000000
 70
40
  0
VERTEX
  8
STANDARDEBENE
 10
316.378326
 20
-209.629166
 30
0.000000
 70
40
  0
VERTEX
  8
STANDARDEBENE
 10
333.007751
 20
-209.629166
 30
0.000000
 70
40
  0
VERTEX
  8
STANDARDEBENE
 10
348.812561
 20
-209.629150
 30
0.000000
 70
40
  0
VERTEX
  8
STANDARDEBENE
 10
362.143585
 20
-209.629150
 30
0.000000
 70
40
  0
VERTEX
  8
STANDARDEBENE
 10
371.351593
 20
-209.629135
 30
0.000000
 70
40
  0
VERTEX
  8
STANDARDEBENE
 10
374.787415
 20
-209.629120
 30
0.000000
 70
40
  0
VERTEX
  8
STANDARDEBENE
 10
274.598633
 20
-209.629181
 30
0.000000
 70
48
  0
VERTEX
  8
STANDARDEBENE
 10
374.787506
 20
-209.629181
 30
0.000000
 70
48
  0
VERTEX
  8
STANDARDEBENE
 10
374.787506
 20
-209.629181
 30
0.000000
 70
48
  0
VERTEX
  8
STANDARDEBENE
 10
374.787506
 20
-209.629181
 30
0.000000
 70
40
  0
VERTEX
  8
STANDARDEBENE
 10
373.916443
 20
-209.387222
 30
0.000000
 70
40
  0
VERTEX
  8
STANDARDEBENE
 10
371.582031
 20
-208.738770
 30
0.000000
 70
40
  0
VERTEX
  8
STANDARDEBENE
 10
368.202332
 20
-207.799957
 30
0.000000
 70
40
  0
VERTEX
  8
STANDARDEBENE
 10
364.195465
 20
-206.686935
 30
0.000000
 70
40
  0
VERTEX
  8
STANDARDEBENE
 10
359.979553
 20
-205.515854
 30
0.000000
 70
40
  0
VERTEX
  8
STANDARDEBENE
 10
355.972717
 20
-204.402832
 30
0.000000
 70
40
  0
VERTEX
  8
STANDARDEBENE
 10
352.593018
 20
-203.464035
 30
0.000000
 70
40
  0
VERTEX
  8
STANDARDEBENE
 10
350.258606
 20
-202.815567
 30
0.000000
 70
40
  0
VERTEX
  8
STANDARDEBENE
 10
349.387543
 20
-202.573608
 30
0.000000
 70
40
  0
VERTEX
  8
STANDARDEBENE
 10
374.787506
 20
-209.629181
 30
0.000000
 70
48
  0
VERTEX
  8
STANDARDEBENE
 10
349.387512
 20
-202.573624
 30
0.000000
 70
48
  0
VERTEX
  8
STANDARDEBENE
 10
349.387512
 20
-202.573624
 30
0.000000
 70
48
  0
SEQEND
  8
STANDARDEBENE
  0
POLYLINE
  8
STANDARDEBENE
 66
1
 10
0.000000
 20
0.000000
 30
0.000000
 62
7
 70
12
  0
VERTEX
  8
STANDARDEBENE
 10
96.798622
 20
-209.629181
 30
0.000000
 70
48
  0
VERTEX
  8
STANDARDEBENE
 10
96.798622
 20
-209.629181
 30
0.000000
 70
40
  0
VERTEX
  8
STANDARDEBENE
 10
100.137672
 20
-209.629181
 30
0.000000
 70
40
  0
VERTEX
  8
STANDARDEBENE
 10
109.086319
 20
-209.629181
 30
0.000000
 70
40
  0
VERTEX
  8
STANDARDEBENE
 10
122.041824
 20
-209.629181
 30
0.000000
 70
40
  0
VERTEX
  8
STANDARDEBENE
 10
137.401443
 20
-209.629166
 30
0.000000
 70
40
  0
VERTEX
  8
STANDARDEBENE
 10
153.562439
 20
-209.629166
 30
0.000000
 70
40
  0
VERTEX
  8
STANDARDEBENE
 10
168.922058
 20
-209.629150
 30
0.000000
 70
40
  0
VERTEX
  8
STANDARDEBENE
 10
181.877563
 20
-209.629150
 30
0.000000
 70
40
  0
VERTEX
  8
STANDARDEBENE
 10
190.826202
 20
-209.629135
 30
0.000000
 70
40
  0
VERTEX
  8
STANDARDEBENE
 10
194.165253
 20
-209.629120
 30
0.000000
 70
40
  0
VERTEX
  8
STANDARDEBENE
 10
96.798622
 20
-209.629181
 30
0.000000
 70
48
  0
VERTEX
  8
STANDARDEBENE
 10
194.165283
 20
-209.629181
 30
0.000000
 70
48
  0
VERTEX
  8
STANDARDEBENE
 10
194.165283
 20
-209.629181
 30
0.000000
 70
48
  0
SEQEND
  8
STANDARDEBENE
  0
POLYLINE
  8
STANDARDEBENE
 66
1
 10
0.000000
 20
0.000000
 30
0.000000
 62
7
 70
12
  0
VERTEX
  8
STANDARDEBENE
 10
98.209732
 20
191.126389
 30
0.000000
 70
48
  0
VERTEX
  8
STANDARDEBENE
 10
98.209732
 20
191.126389
 30
0.000000
 70
40
  0
VERTEX
  8
STANDARDEBENE
 10
98.209732
 20
200.466049
 30
0.000000
 70
40
  0
VERTEX
  8
STANDARDEBENE
 10
98.209732
 20
225.496338
 30
0.000000
 70
40
  0
VERTEX
  8
STANDARDEBENE
 10
98.209732
 20
261.734222
 30
0.000000
 70
40
  0
VERTEX
  8
STANDARDEBENE
 10
98.209724
 20
304.696655
 30
0.000000
 70
40
  0
VERTEX
  8
STANDARDEBENE
 10
98.209724
 20
349.900604
 30
0.000000
 70
40
  0
VERTEX
  8
STANDARDEBENE
 10
98.209717
 20
392.863037
 30
0.000000
 70
40
  0
VERTEX
  8
STANDARDEBENE
 10
98.209717
 20
429.100952
 30
0.000000
 70
40
  0
VERTEX
  8
STANDARDEBENE
 10
98.209709
 20
454.131256
 30
0.000000
 70
40
  0
VERTEX
  8
STANDARDEBENE
 10
98.209702
 20
463.470917
 30
0.000000
 70
40
  0
VERTEX
  8
STANDARDEBENE
 10
98.209732
 20
191.126389
 30
0.000000
 70
48
  0
VERTEX
  8
STANDARDEBENE
 10
98.209732
 20
463.470825
 30
0.000000
 70
48
  0
VERTEX
  8
STANDARDEBENE
 10
98.209732
 20
463.470825
 30
0.000000
 70
48
  0
VERTEX
  8
STANDARDEBENE
 10
98.209732
 20
463.470825
 30
0.000000
 70
40
  0
VERTEX
  8
STANDARDEBENE
 10
97.967773
 20
462.357819
 30
0.000000
 70
40
  0
VERTEX
  8
STANDARDEBENE
 10
97.319321
 20
459.374939
 30
0.000000
 70
40
  0
VERTEX
  8
STANDARDEBENE
 10
96.380508
 20
455.056427
 30
0.000000
 70
40
  0
VERTEX
  8
STANDARDEBENE
 10
95.267494
 20
449.936554
 30
0.000000
 70
40
  0
VERTEX
  8
STANDARDEBENE
 10
94.096397
 20
444.549530
 30
0.000000
 70
40
  0
VERTEX
  8
STANDARDEBENE
 10
92.983383
 20
439.429657
 30
0.000000
 70
40
  0
VERTEX
  8
STANDARDEBENE
 10
92.044571
 20
435.111145
 30
0.000000
 70
40
  0
VERTEX
  8
STANDARDEBENE
 10
91.396111
 20
432.128265
 30
0.000000
 70
40
  0
VERTEX
  8
STANDARDEBENE
 10
91.154144
 20
431.015259
 30
0.000000
 70
40
  0
VERTEX
  8
STANDARDEBENE
 10
98.209732
 20
463.470825
 30
0.000000
 70
48
  0
VERTEX
  8
STANDARDEBENE
 10
91.154175
 20
431.015259
 30
0.000000
 70
48
  0
VERTEX
  8
STANDARDEBENE
 10
91.154175
 20
431.015259
 30
0.000000
 70
48
  0
SEQEND
  8
STANDARDEBENE
  0
POLYLINE
  8
STANDARDEBENE
 66
1
 10
0.000000
 20
0.000000
 30
0.000000
 62
7
 70
12
  0
VERTEX
  8
STANDARDEBENE
 10
111.515213
 20
125.965866
 30
0.000000
 70
48
  0
VERTEX
  8
STANDARDEBENE
 10
111.515213
 20
125.965866
 30
0.000000
 70
40
  0
VERTEX
  8
STANDARDEBENE
 10
111.386154
 20
125.189049
 30
0.000000
 70
40
  0
VERTEX
  8
STANDARDEBENE
 10
111.029350
 20
124.584061
 30
0.000000
 70
40
  0
VERTEX
  8
STANDARDEBENE
 10
110.490334
 20
124.129425
 30
0.000000
 70
40
  0
VERTEX
  8
STANDARDEBENE
 10
109.814674
 20
123.803665
 30
0.000000
 70
40
  0
VERTEX
  8
STANDARDEBENE
 10
109.047913
 20
123.585304
 30
0.000000
 70
40
  0
VERTEX
  8
STANDARDEBENE
 10
108.235588
 20
123.452858
 30
0.000000
 70
40
  0
VERTEX
  8
STANDARDEBENE
 10
107.423264
 20
123.384842
 30
0.000000
 70
40
  0
VERTEX
  8
STANDARDEBENE
 10
106.656487
 20
123.359787
 30
0.000000
 70
40
  0
VERTEX
  8
STANDARDEBENE
 10
105.980797
 20
123.356216
 30
0.000000
 70
40
  0
VERTEX
  8
STANDARDEBENE
 10
111.515213
 20
123.356186
 30
0.000000
 70
48
  0
VERTEX
  8
STANDARDEBENE
 10
107.825684
 20
123.356186
 30
0.000000
 70
48
  0
VERTEX
  8
STANDARDEBENE
 10
105.980827
 20
123.356186
 30
0.000000
 70
48
  0
VERTEX
  8
STANDARDEBENE
 10
105.980827
 20
123.356186
 30
0.000000
 70
40
  0
VERTEX
  8
STANDARDEBENE
 10
104.723534
 20
123.365746
 30
0.000000
 70
40
  0
VERTEX
  8
STANDARDEBENE
 10
103.594734
 20
123.406044
 30
0.000000
 70
40
  0
VERTEX
  8
STANDARDEBENE
 10
102.599609
 20
123.494476
 30
0.000000
 70
40
  0
VERTEX
  8
STANDARDEBENE
 10
101.743355
 20
123.648453
 30
0.000000
 70
40
  0
VERTEX
  8
STANDARDEBENE
 10
101.031158
 20
123.885391
 30
0.000000
 70
40
  0
VERTEX
  8
STANDARDEBENE
 10
100.468193
 20
124.222687
 30
0.000000
 70
40
  0
VERTEX
  8
STANDARDEBENE
 10
100.059654
 20
124.677757
 30
0.000000
 70
40
  0
VERTEX
  8
STANDARDEBENE
 10
99.810730
 20
125.268013
 30
0.000000
 70
40
  0
VERTEX
  8
STANDARDEBENE
 10
99.726601
 20
126.010857
 30
0.000000
 70
40
  0
VERTEX
  8
STANDARDEBENE
 10
102.021385
 20
123.356186
 30
0.000000
 70
48
  0
VERTEX
  8
STANDARDEBENE
 10
99.726608
 20
123.536018
 30
0.000000
 70
48
  0
VERTEX
  8
STANDARDEBENE
 10
99.726608
 20
126.010803
 30
0.000000
 70
48
  0
VERTEX
  8
STANDARDEBENE
 10
99.726608
 20
126.010803
 30
0.000000
 70
40
  0
VERTEX
  8
STANDARDEBENE
 10
99.792213
 20
126.737671
 30
0.000000
 70
40
  0
VERTEX
  8
STANDARDEBENE
 10
99.991516
 20
127.336014
 30
0.000000
 70
40
  0
VERTEX
  8
STANDARDEBENE
 10
100.328201
 20
127.817314
 30
0.000000
 70
40
  0
VERTEX
  8
STANDARDEBENE
 10
100.805984
 20
128.193054
 30
0.000000
 70
40
  0
VERTEX
  8
STANDARDEBENE
 10
101.428574
 20
128.474716
 30
0.000000
 70
40
  0
VERTEX
  8
STANDARDEBENE
 10
102.199669
 20
128.673798
 30
0.000000
 70
40
  0
VERTEX
  8
STANDARDEBENE
 10
103.122971
 20
128.801773
 30
0.000000
 70
40
  0
VERTEX
  8
STANDARDEBENE
 10
104.202187
 20
128.870148
 30
0.000000
 70
40
  0
VERTEX
  8
STANDARDEBENE
 10
105.441025
 20
128.890381
 30
0.000000
 70
40
  0
VERTEX
  8
STANDARDEBENE
 10
99.726608
 20
128.395691
 30
0.000000
 70
48
  0
VERTEX
  8
STANDARDEBENE
 10
101.481361
 20
128.890381
 30
0.000000
 70
48
  0
VERTEX
  8
STANDARDEBENE
 10
105.440971
 20
128.890381
 30
0.000000
 70
48
  0
VERTEX
  8
STANDARDEBENE
 10
105.440971
 20
128.890381
 30
0.000000
 70
40
  0
VERTEX
  8
STANDARDEBENE
 10
106.929138
 20
128.861191
 30
0.000000
 70
40
  0
VERTEX
  8
STANDARDEBENE
 10
108.167328
 20
128.770157
 30
0.000000
 70
40
  0
VERTEX
  8
STANDARDEBENE
 10
109.175537
 20
128.612106
 30
0.000000
 70
40
  0
VERTEX
  8
STANDARDEBENE
 10
109.973770
 20
128.381836
 30
0.000000
 70
40
  0
VERTEX
  8
STANDARDEBENE
 10
110.582016
 20
128.074173
 30
0.000000
 70
40
  0
VERTEX
  8
STANDARDEBENE
 10
111.020279
 20
127.683929
 30
0.000000
 70
40
  0
VERTEX
  8
STANDARDEBENE
 10
111.308571
 20
127.205925
 30
0.000000
 70
40
  0
VERTEX
  8
STANDARDEBENE
 10
111.466873
 20
126.634964
 30
0.000000
 70
40
  0
VERTEX
  8
STANDARDEBENE
 10
111.515190
 20
125.965866
 30
0.000000
 70
40
  0
VERTEX
  8
STANDARDEBENE
 10
110.300446
 20
128.890381
 30
0.000000
 70
48
  0
VERTEX
  8
STANDARDEBENE
 10
111.515213
 20
128.125549
 30
0.000000
 70
48
  0
VERTEX
  8
STANDARDEBENE
 10
111.515213
 20
125.965866
 30
0.000000
 70
48
  0
SEQEND
  8
STANDARDEBENE
  0
POLYLINE
  8
STANDARDEBENE
 66
1
 10
0.000000
 20
0.000000
 30
0.000000
 62
7
 70
12
  0
VERTEX
  8
STANDARDEBENE
 10
91.087677
 20
134.919815
 30
0.000000
 70
48
  0
VERTEX
  8
STANDARDEBENE
 10
91.087677
 20
134.919815
 30
0.000000
 70
40
  0
VERTEX
  8
STANDARDEBENE
 10
89.477959
 20
134.804764
 30
0.000000
 70
40
  0
VERTEX
  8
STANDARDEBENE
 10
88.092293
 20
134.442688
 30
0.000000
 70
40
  0
VERTEX
  8
STANDARDEBENE
 10
86.921432
 20
133.853241
 30
0.000000
 70
40
  0
VERTEX
  8
STANDARDEBENE
 10
85.956100
 20
133.056046
 30
0.000000
 70
40
  0
VERTEX
  8
STANDARDEBENE
 10
85.187057
 20
132.070724
 30
0.000000
 70
40
  0
VERTEX
  8
STANDARDEBENE
 10
84.605026
 20
130.916901
 30
0.000000
 70
40
  0
VERTEX
  8
STANDARDEBENE
 10
84.200760
 20
129.614227
 30
0.000000
 70
40
  0
VERTEX
  8
STANDARDEBENE
 10
83.964981
 20
128.182297
 30
0.000000
 70
40
  0
VERTEX
  8
STANDARDEBENE
 10
83.888443
 20
126.640778
 30
0.000000
 70
40
  0
VERTEX
  8
STANDARDEBENE
 10
85.913162
 20
134.964798
 30
0.000000
 70
48
  0
VERTEX
  8
STANDARDEBENE
 10
83.888474
 20
131.410126
 30
0.000000
 70
48
  0
VERTEX
  8
STANDARDEBENE
 10
83.888474
 20
126.640762
 30
0.000000
 70
48
  0
VERTEX
  8
STANDARDEBENE
 10
83.888474
 20
126.640762
 30
0.000000
 70
40
  0
VERTEX
  8
STANDARDEBENE
 10
84.120110
 20
123.952301
 30
0.000000
 70
40
  0
VERTEX
  8
STANDARDEBENE
 10
84.815025
 20
121.814514
 30
0.000000
 70
40
  0
VERTEX
  8
STANDARDEBENE
 10
85.973221
 20
120.164833
 30
0.000000
 70
40
  0
VERTEX
  8
STANDARDEBENE
 10
87.594696
 20
118.940651
 30
0.000000
 70
40
  0
VERTEX
  8
STANDARDEBENE
 10
89.679451
 20
118.079391
 30
0.000000
 70
40
  0
VERTEX
  8
STANDARDEBENE
 10
92.227493
 20
117.518471
 30
0.000000
 70
40
  0
VERTEX
  8
STANDARDEBENE
 10
95.238815
 20
117.195305
 30
0.000000
 70
40
  0
VERTEX
  8
STANDARDEBENE
 10
98.713417
 20
117.047302
 30
0.000000
 70
40
  0
VERTEX
  8
STANDARDEBENE
 10
102.651314
 20
117.011871
 30
0.000000
 70
40
  0
VERTEX
  8
STANDARDEBENE
 10
83.888474
 20
117.686768
 30
0.000000
 70
48
  0
VERTEX
  8
STANDARDEBENE
 10
90.142700
 20
117.011871
 30
0.000000
 70
48
  0
VERTEX
  8
STANDARDEBENE
 10
102.651314
 20
117.011871
 30
0.000000
 70
48
  0
VERTEX
  8
STANDARDEBENE
 10
102.651314
 20
117.011871
 30
0.000000
 70
40
  0
VERTEX
  8
STANDARDEBENE
 10
104.807297
 20
117.043167
 30
0.000000
 70
40
  0
VERTEX
  8
STANDARDEBENE
 10
106.944023
 20
117.175560
 30
0.000000
 70
40
  0
VERTEX
  8
STANDARDEBENE
 10
108.998917
 20
117.466827
 30
0.000000
 70
40
  0
VERTEX
  8
STANDARDEBENE
 10
110.909378
 20
117.974739
 30
0.000000
 70
40
  0
VERTEX
  8
STANDARDEBENE
 10
112.612831
 20
118.757057
 30
0.000000
 70
40
  0
VERTEX
  8
STANDARDEBENE
 10
114.046684
 20
119.871552
 30
0.000000
 70
40
  0
VERTEX
  8
STANDARDEBENE
 10
115.148354
 20
121.376007
 30
0.000000
 70
40
  0
VERTEX
  8
STANDARDEBENE
 10
115.855255
 20
123.328171
 30
0.000000
 70
40
  0
VERTEX
  8
STANDARDEBENE
 10
116.104805
 20
125.785835
 30
0.000000
 70
40
  0
VERTEX
  8
STANDARDEBENE
 10
109.085556
 20
117.011871
 30
0.000000
 70
48
  0
VERTEX
  8
STANDARDEBENE
 10
116.104774
 20
117.596848
 30
0.000000
 70
48
  0
VERTEX
  8
STANDARDEBENE
 10
116.104774
 20
125.785835
 30
0.000000
 70
48
  0
VERTEX
  8
STANDARDEBENE
 10
116.104774
 20
125.785835
 30
0.000000
 70
40
  0
VERTEX
  8
STANDARDEBENE
 10
115.952324
 20
127.970398
 30
0.000000
 70
40
  0
VERTEX
  8
STANDARDEBENE
 10
115.505081
 20
129.827240
 30
0.000000
 70
40
  0
VERTEX
  8
STANDARDEBENE
 10
114.778244
 20
131.375214
 30
0.000000
 70
40
  0
VERTEX
  8
STANDARDEBENE
 10
113.786995
 20
132.633255
 30
0.000000
 70
40
  0
VERTEX
  8
STANDARDEBENE
 10
112.546516
 20
133.620193
 30
0.000000
 70
40
  0
VERTEX
  8
STANDARDEBENE
 10
111.071991
 20
134.354950
 30
0.000000
 70
40
  0
VERTEX
  8
STANDARDEBENE
 10
109.378609
 20
134.856400
 30
0.000000
 70
40
  0
VERTEX
  8
STANDARDEBENE
 10
107.481560
 20
135.143417
 30
0.000000
 70
40
  0
VERTEX
  8
STANDARDEBENE
 10
105.396019
 20
135.234894
 30
0.000000
 70
40
  0
VERTEX
  8
STANDARDEBENE
 10
116.104774
 20
132.850006
 30
0.000000
 70
48
  0
VERTEX
  8
STANDARDEBENE
 10
111.920189
 20
135.234879
 30
0.000000
 70
48
  0
VERTEX
  8
STANDARDEBENE
 10
105.396034
 20
135.234879
 30
0.000000
 70
48
  0
VERTEX
  8
STANDARDEBENE
 10
105.396034
 20
135.234879
 30
0.000000
 70
40
  0
VERTEX
  8
STANDARDEBENE
 10
103.785454
 20
135.188278
 30
0.000000
 70
40
  0
VERTEX
  8
STANDARDEBENE
 10
102.193771
 20
135.028717
 30
0.000000
 70
40
  0
VERTEX
  8
STANDARDEBENE
 10
100.666527
 20
134.726578
 30
0.000000
 70
40
  0
VERTEX
  8
STANDARDEBENE
 10
99.249283
 20
134.252228
 30
0.000000
 70
40
  0
VERTEX
  8
STANDARDEBENE
 10
97.987572
 20
133.576050
 30
0.000000
 70
40
  0
VERTEX
  8
STANDARDEBENE
 10
96.926956
 20
132.668427
 30
0.000000
 70
40
  0
VERTEX
  8
STANDARDEBENE
 10
96.112976
 20
131.499725
 30
0.000000
 70
40
  0
VERTEX
  8
STANDARDEBENE
 10
95.591187
 20
130.040329
 30
0.000000
 70
40
  0
VERTEX
  8
STANDARDEBENE
 10
95.407127
 20
128.260620
 30
0.000000
 70
40
  0
VERTEX
  8
STANDARDEBENE
 10
100.581497
 20
135.234879
 30
0.000000
 70
48
  0
VERTEX
  8
STANDARDEBENE
 10
95.407158
 20
134.109879
 30
0.000000
 70
48
  0
VERTEX
  8
STANDARDEBENE
 10
95.407158
 20
128.260651
 30
0.000000
 70
48
  0
VERTEX
  8
STANDARDEBENE
 10
95.407158
 20
128.260651
 30
0.000000
 70
40
  0
VERTEX
  8
STANDARDEBENE
 10
95.430862
 20
127.529366
 30
0.000000
 70
40
  0
VERTEX
  8
STANDARDEBENE
 10
95.503441
 20
126.883270
 30
0.000000
 70
40
  0
VERTEX
  8
STANDARDEBENE
 10
95.627136
 20
126.304207
 30
0.000000
 70
40
  0
VERTEX
  8
STANDARDEBENE
 10
95.804146
 20
125.774025
 30
0.000000
 70
40
  0
VERTEX
  8
STANDARDEBENE
 10
96.036713
 20
125.274582
 30
0.000000
 70
40
  0
VERTEX
  8
STANDARDEBENE
 10
96.327049
 20
124.787720
 30
0.000000
 70
40
  0
VERTEX
  8
STANDARDEBENE
 10
96.677376
 20
124.295303
 30
0.000000
 70
40
  0
VERTEX
  8
STANDARDEBENE
 10
97.089912
 20
123.779175
 30
0.000000
 70
40
  0
VERTEX
  8
STANDARDEBENE
 10
97.566887
 20
123.221191
 30
0.000000
 70
40
  0
VERTEX
  8
STANDARDEBENE
 10
95.407158
 20
125.920883
 30
0.000000
 70
48
  0
VERTEX
  8
STANDARDEBENE
 10
96.037086
 20
124.976067
 30
0.000000
 70
48
  0
VERTEX
  8
STANDARDEBENE
 10
97.566872
 20
123.221138
 30
0.000000
 70
48
  0
VERTEX
  8
STANDARDEBENE
 10
97.566872
 20
123.221138
 30
0.000000
 70
40
  0
VERTEX
  8
STANDARDEBENE
 10
95.148399
 20
123.228050
 30
0.000000
 70
40
  0
VERTEX
  8
STANDARDEBENE
 10
93.173943
 20
123.263100
 30
0.000000
 70
40
  0
VERTEX
  8
STANDARDEBENE
 10
91.600906
 20
123.347778
 30
0.000000
 70
40
  0
VERTEX
  8
STANDARDEBENE
 10
90.386726
 20
123.503555
 30
0.000000
 70
40
  0
VERTEX
  8
STANDARDEBENE
 10
89.488792
 20
123.751923
 30
0.000000
 70
40
  0
VERTEX
  8
STANDARDEBENE
 10
88.864532
 20
124.114357
 30
0.000000
 70
40
  0
VERTEX
  8
STANDARDEBENE
 10
88.471359
 20
124.612335
 30
0.000000
 70
40
  0
VERTEX
  8
STANDARDEBENE
 10
88.266685
 20
125.267349
 30
0.000000
 70
40
  0
VERTEX
  8
STANDARDEBENE
 10
88.207924
 20
126.100876
 30
0.000000
 70
40
  0
VERTEX
  8
STANDARDEBENE
 10
89.602844
 20
123.221138
 30
0.000000
 70
48
  0
VERTEX
  8
STANDARDEBENE
 10
88.207924
 20
123.311058
 30
0.000000
 70
48
  0
VERTEX
  8
STANDARDEBENE
 10
88.207924
 20
126.100891
 30
0.000000
 70
48
  0
VERTEX
  8
STANDARDEBENE
 10
88.207924
 20
126.100891
 30
0.000000
 70
40
  0
VERTEX
  8
STANDARDEBENE
 10
88.219467
 20
126.387764
 30
0.000000
 70
40
  0
VERTEX
  8
STANDARDEBENE
 10
88.253609
 20
126.649445
 30
0.000000
 70
40
  0
VERTEX
  8
STANDARDEBENE
 10
88.309601
 20
126.887421
 30
0.000000
 70
40
  0
VERTEX
  8
STANDARDEBENE
 10
88.386703
 20
127.103180
 30
0.000000
 70
40
  0
VERTEX
  8
STANDARDEBENE
 10
88.484169
 20
127.298195
 30
0.000000
 70
40
  0
VERTEX
  8
STANDARDEBENE
 10
88.601257
 20
127.473961
 30
0.000000
 70
40
  0
VERTEX
  8
STANDARDEBENE
 10
88.737221
 20
127.631958
 30
0.000000
 70
40
  0
VERTEX
  8
STANDARDEBENE
 10
88.891327
 20
127.773666
 30
0.000000
 70
40
  0
VERTEX
  8
STANDARDEBENE
 10
89.062828
 20
127.900574
 30
0.000000
 70
40
  0
VERTEX
  8
STANDARDEBENE
 10
88.207924
 20
127.000771
 30
0.000000
 70
48
  0
VERTEX
  8
STANDARDEBENE
 10
88.522987
 20
127.540573
 30
0.000000
 70
48
  0
VERTEX
  8
STANDARDEBENE
 10
89.062843
 20
127.900589
 30
0.000000
 70
48
  0
VERTEX
  8
STANDARDEBENE
 10
89.062843
 20
127.900589
 30
0.000000
 70
40
  0
VERTEX
  8
STANDARDEBENE
 10
89.235954
 20
127.998894
 30
0.000000
 70
40
  0
VERTEX
  8
STANDARDEBENE
 10
89.424637
 20
128.083878
 30
0.000000
 70
40
  0
VERTEX
  8
STANDARDEBENE
 10
89.627762
 20
128.155533
 30
0.000000
 70
40
  0
VERTEX
  8
STANDARDEBENE
 10
89.844231
 20
128.213867
 30
0.000000
 70
40
  0
VERTEX
  8
STANDARDEBENE
 10
90.072922
 20
128.258865
 30
0.000000
 70
40
  0
VERTEX
  8
STANDARDEBENE
 10
90.312729
 20
128.290527
 30
0.000000
 70
40
  0
VERTEX
  8
STANDARDEBENE
 10
90.562538
 20
128.308884
 30
0.000000
 70
40
  0
VERTEX
  8
STANDARDEBENE
 10
90.821236
 20
128.313889
 30
0.000000
 70
40
  0
VERTEX
  8
STANDARDEBENE
 10
91.087708
 20
128.305573
 30
0.000000
 70
40
  0
VERTEX
  8
STANDARDEBENE
 10
89.557724
 20
128.215500
 30
0.000000
 70
48
  0
VERTEX
  8
STANDARDEBENE
 10
90.277733
 20
128.350525
 30
0.000000
 70
48
  0
VERTEX
  8
STANDARDEBENE
 10
91.087677
 20
128.305588
 30
0.000000
 70
48
  0
VERTEX
  8
STANDARDEBENE
 10
91.087677
 20
128.305588
 30
0.000000
 70
40
  0
VERTEX
  8
STANDARDEBENE
 10
91.087677
 20
128.532410
 30
0.000000
 70
40
  0
VERTEX
  8
STANDARDEBENE
 10
91.087677
 20
129.140305
 30
0.000000
 70
40
  0
VERTEX
  8
STANDARDEBENE
 10
91.087677
 20
130.020386
 30
0.000000
 70
40
  0
VERTEX
  8
STANDARDEBENE
 10
91.087677
 20
131.063797
 30
0.000000
 70
40
  0
VERTEX
  8
STANDARDEBENE
 10
91.087677
 20
132.161621
 30
0.000000
 70
40
  0
VERTEX
  8
STANDARDEBENE
 10
91.087677
 20
133.205032
 30
0.000000
 70
40
  0
VERTEX
  8
STANDARDEBENE
 10
91.087677
 20
134.085114
 30
0.000000
 70
40
  0
VERTEX
  8
STANDARDEBENE
 10
91.087677
 20
134.693008
 30
0.000000
 70
40
  0
VERTEX
  8
STANDARDEBENE
 10
91.087677
 20
134.919846
 30
0.000000
 70
40
  0
VERTEX
  8
STANDARDEBENE
 10
91.087677
 20
128.305588
 30
0.000000
 70
48
  0
VERTEX
  8
STANDARDEBENE
 10
91.087677
 20
134.919815
 30
0.000000
 70
48
  0
VERTEX
  8
STANDARDEBENE
 10
91.087677
 20
134.919815
 30
0.000000
 70
48
  0
SEQEND
  8
STANDARDEBENE
  0
POLYLINE
  8
STANDARDEBENE
 66
1
 10
0.000000
 20
0.000000
 30
0.000000
 62
7
 70
12
  0
VERTEX
  8
STANDARDEBENE
 10
90.277733
 20
156.651489
 30
0.000000
 70
48
  0
VERTEX
  8
STANDARDEBENE
 10
90.277733
 20
156.651489
 30
0.000000
 70
40
  0
VERTEX
  8
STANDARDEBENE
 10
91.149544
 20
156.389175
 30
0.000000
 70
40
  0
VERTEX
  8
STANDARDEBENE
 10
93.486000
 20
155.686172
 30
0.000000
 70
40
  0
VERTEX
  8
STANDARDEBENE
 10
96.868637
 20
154.668381
 30
0.000000
 70
40
  0
VERTEX
  8
STANDARDEBENE
 10
100.878967
 20
153.461746
 30
0.000000
 70
40
  0
VERTEX
  8
STANDARDEBENE
 10
105.098541
 20
152.192139
 30
0.000000
 70
40
  0
VERTEX
  8
STANDARDEBENE
 10
109.108879
 20
150.985489
 30
0.000000
 70
40
  0
VERTEX
  8
STANDARDEBENE
 10
112.491508
 20
149.967712
 30
0.000000
 70
40
  0
VERTEX
  8
STANDARDEBENE
 10
114.827965
 20
149.264709
 30
0.000000
 70
40
  0
VERTEX
  8
STANDARDEBENE
 10
115.699776
 20
149.002411
 30
0.000000
 70
40
  0
VERTEX
  8
STANDARDEBENE
 10
90.277733
 20
156.651489
 30
0.000000
 70
48
  0
VERTEX
  8
STANDARDEBENE
 10
115.699783
 20
149.002365
 30
0.000000
 70
48
  0
VERTEX
  8
STANDARDEBENE
 10
115.699783
 20
149.002365
 30
0.000000
 70
48
  0
VERTEX
  8
STANDARDEBENE
 10
115.699783
 20
149.002365
 30
0.000000
 70
40
  0
VERTEX
  8
STANDARDEBENE
 10
115.699783
 20
148.760101
 30
0.000000
 70
40
  0
VERTEX
  8
STANDARDEBENE
 10
115.699783
 20
148.110855
 30
0.000000
 70
40
  0
VERTEX
  8
STANDARDEBENE
 10
115.699783
 20
147.170898
 30
0.000000
 70
40
  0
VERTEX
  8
STANDARDEBENE
 10
115.699776
 20
146.056519
 30
0.000000
 70
40
  0
VERTEX
  8
STANDARDEBENE
 10
115.699776
 20
144.883987
 30
0.000000
 70
40
  0
VERTEX
  8
STANDARDEBENE
 10
115.699768
 20
143.769592
 30
0.000000
 70
40
  0
VERTEX
  8
STANDARDEBENE
 10
115.699768
 20
142.829636
 30
0.000000
 70
40
  0
VERTEX
  8
STANDARDEBENE
 10
115.699760
 20
142.180389
 30
0.000000
 70
40
  0
VERTEX
  8
STANDARDEBENE
 10
115.699753
 20
141.938126
 30
0.000000
 70
40
  0
VERTEX
  8
STANDARDEBENE
 10
115.699783
 20
149.002365
 30
0.000000
 70
48
  0
VERTEX
  8
STANDARDEBENE
 10
115.699783
 20
141.938141
 30
0.000000
 70
48
  0
VERTEX
  8
STANDARDEBENE
 10
115.699783
 20
141.938141
 30
0.000000
 70
48
  0
VERTEX
  8
STANDARDEBENE
 10
115.699783
 20
141.938141
 30
0.000000
 70
40
  0
VERTEX
  8
STANDARDEBENE
 10
114.789398
 20
142.232864
 30
0.000000
 70
40
  0
VERTEX
  8
STANDARDEBENE
 10
112.349556
 20
143.022705
 30
0.000000
 70
40
  0
VERTEX
  8
STANDARDEBENE
 10
108.817261
 20
144.166214
 30
0.000000
 70
40
  0
VERTEX
  8
STANDARDEBENE
 10
104.629478
 20
145.521912
 30
0.000000
 70
40
  0
VERTEX
  8
STANDARDEBENE
 10
100.223206
 20
146.948364
 30
0.000000
 70
40
  0
VERTEX
  8
STANDARDEBENE
 10
96.035423
 20
148.304062
 30
0.000000
 70
40
  0
VERTEX
  8
STANDARDEBENE
 10
92.503120
 20
149.447571
 30
0.000000
 70
40
  0
VERTEX
  8
STANDARDEBENE
 10
90.063278
 20
150.237411
 30
0.000000
 70
40
  0
VERTEX
  8
STANDARDEBENE
 10
89.152893
 20
150.532135
 30
0.000000
 70
40
  0
VERTEX
  8
STANDARDEBENE
 10
115.699783
 20
141.938141
 30
0.000000
 70
48
  0
VERTEX
  8
STANDARDEBENE
 10
89.152901
 20
150.532135
 30
0.000000
 70
48
  0
VERTEX
  8
STANDARDEBENE
 10
89.152901
 20
150.532135
 30
0.000000
 70
48
  0
VERTEX
  8
STANDARDEBENE
 10
89.152901
 20
150.532135
 30
0.000000
 70
40
  0
VERTEX
  8
STANDARDEBENE
 10
89.152901
 20
150.163345
 30
0.000000
 70
40
  0
VERTEX
  8
STANDARDEBENE
 10
89.152901
 20
149.175018
 30
0.000000
 70
40
  0
VERTEX
  8
STANDARDEBENE
 10
89.152901
 20
147.744141
 30
0.000000
 70
40
  0
VERTEX
  8
STANDARDEBENE
 10
89.152901
 20
146.047745
 30
0.000000
 70
40
  0
VERTEX
  8
STANDARDEBENE
 10
89.152893
 20
144.262833
 30
0.000000
 70
40
  0
VERTEX
  8
STANDARDEBENE
 10
89.152893
 20
142.566437
 30
0.000000
 70
40
  0
VERTEX
  8
STANDARDEBENE
 10
89.152893
 20
141.135559
 30
0.000000
 70
40
  0
VERTEX
  8
STANDARDEBENE
 10
89.152885
 20
140.147232
 30
0.000000
 70
40
  0
VERTEX
  8
STANDARDEBENE
 10
89.152885
 20
139.778442
 30
0.000000
 70
40
  0
VERTEX
  8
STANDARDEBENE
 10
89.152901
 20
150.532135
 30
0.000000
 70
48
  0
VERTEX
  8
STANDARDEBENE
 10
89.152901
 20
139.778442
 30
0.000000
 70
48
  0
VERTEX
  8
STANDARDEBENE
 10
89.152901
 20
139.778442
 30
0.000000
 70
48
  0
VERTEX
  8
STANDARDEBENE
 10
89.152901
 20
139.778442
 30
0.000000
 70
40
  0
VERTEX
  8
STANDARDEBENE
 10
88.986252
 20
139.778442
 30
0.000000
 70
40
  0
VERTEX
  8
STANDARDEBENE
 10
88.539635
 20
139.778442
 30
0.000000
 70
40
  0
VERTEX
  8
STANDARDEBENE
 10
87.893036
 20
139.778442
 30
0.000000
 70
40
  0
VERTEX
  8
STANDARDEBENE
 10
87.126450
 20
139.778442
 30
0.000000
 70
40
  0
VERTEX
  8
STANDARDEBENE
 10
86.319862
 20
139.778442
 30
0.000000
 70
40
  0
VERTEX
  8
STANDARDEBENE
 10
85.553276
 20
139.778442
 30
0.000000
 70
40
  0
VERTEX
  8
STANDARDEBENE
 10
84.906677
 20
139.778442
 30
0.000000
 70
40
  0
VERTEX
  8
STANDARDEBENE
 10
84.460052
 20
139.778442
 30
0.000000
 70
40
  0
VERTEX
  8
STANDARDEBENE
 10
84.293404
 20
139.778442
 30
0.000000
 70
40
  0
VERTEX
  8
STANDARDEBENE
 10
89.152901
 20
139.778442
 30
0.000000
 70
48
  0
VERTEX
  8
STANDARDEBENE
 10
84.293419
 20
139.778442
 30
0.000000
 70
48
  0
VERTEX
  8
STANDARDEBENE
 10
84.293419
 20
139.778442
 30
0.000000
 70
48
  0
VERTEX
  8
STANDARDEBENE
 10
84.293419
 20
139.778442
 30
0.000000
 70
40
  0
VERTEX
  8
STANDARDEBENE
 10
84.293419
 20
140.357086
 30
0.000000
 70
40
  0
VERTEX
  8
STANDARDEBENE
 10
84.293419
 20
141.907822
 30
0.000000
 70
40
  0
VERTEX
  8
STANDARDEBENE
 10
84.293419
 20
144.152939
 30
0.000000
 70
40
  0
VERTEX
  8
STANDARDEBENE
 10
84.293419
 20
146.814667
 30
0.000000
 70
40
  0
VERTEX
  8
STANDARDEBENE
 10
84.293427
 20
149.615265
 30
0.000000
 70
40
  0
VERTEX
  8
STANDARDEBENE
 10
84.293427
 20
152.276993
 30
0.000000
 70
40
  0
VERTEX
  8
STANDARDEBENE
 10
84.293427
 20
154.522110
 30
0.000000
 70
40
  0
VERTEX
  8
STANDARDEBENE
 10
84.293434
 20
156.072845
 30
0.000000
 70
40
  0
VERTEX
  8
STANDARDEBENE
 10
84.293434
 20
156.651489
 30
0.000000
 70
40
  0
VERTEX
  8
STANDARDEBENE
 10
84.293419
 20
139.778442
 30
0.000000
 70
48
  0
VERTEX
  8
STANDARDEBENE
 10
84.293419
 20
156.651489
 30
0.000000
 70
48
  0
VERTEX
  8
STANDARDEBENE
 10
84.293419
 20
156.651489
 30
0.000000
 70
48
  0
VERTEX
  8
STANDARDEBENE
 10
84.293419
 20
156.651489
 30
0.000000
 70
40
  0
VERTEX
  8
STANDARDEBENE
 10
84.498642
 20
156.651489
 30
0.000000
 70
40
  0
VERTEX
  8
STANDARDEBENE
 10
85.048645
 20
156.651489
 30
0.000000
 70
40
  0
VERTEX
  8
STANDARDEBENE
 10
85.844910
 20
156.651489
 30
0.000000
 70
40
  0
VERTEX
  8
STANDARDEBENE
 10
86.788940
 20
156.651489
 30
0.000000
 70
40
  0
VERTEX
  8
STANDARDEBENE
 10
87.782219
 20
156.651489
 30
0.000000
 70
40
  0
VERTEX
  8
STANDARDEBENE
 10
88.726250
 20
156.651489
 30
0.000000
 70
40
  0
VERTEX
  8
STANDARDEBENE
 10
89.522522
 20
156.651489
 30
0.000000
 70
40
  0
VERTEX
  8
STANDARDEBENE
 10
90.072525
 20
156.651489
 30
0.000000
 70
40
  0
VERTEX
  8
STANDARDEBENE
 10
90.277748
 20
156.651489
 30
0.000000
 70
40
  0
VERTEX
  8
STANDARDEBENE
 10
84.293419
 20
156.651489
 30
0.000000
 70
48
  0
VERTEX
  8
STANDARDEBENE
 10
90.277733
 20
156.651489
 30
0.000000
 70
48
  0
VERTEX
  8
STANDARDEBENE
 10
90.277733
 20
156.651489
 30
0.000000
 70
48
  0
SEQEND
  8
STANDARDEBENE
  0
POLYLINE
  8
STANDARDEBENE
 66
1
 10
0.000000
 20
0.000000
 30
0.000000
 62
7
 70
12
  0
VERTEX
  8
STANDARDEBENE
 10
88.477867
 20
170.599121
 30
0.000000
 70
48
  0
VERTEX
  8
STANDARDEBENE
 10
88.477867
 20
170.599121
 30
0.000000
 70
40
  0
VERTEX
  8
STANDARDEBENE
 10
88.554405
 20
171.404251
 30
0.000000
 70
40
  0
VERTEX
  8
STANDARDEBENE
 10
88.816849
 20
172.034225
 30
0.000000
 70
40
  0
VERTEX
  8
STANDARDEBENE
 10
89.314453
 20
172.510529
 30
0.000000
 70
40
  0
VERTEX
  8
STANDARDEBENE
 10
90.096466
 20
172.854630
 30
0.000000
 70
40
  0
VERTEX
  8
STANDARDEBENE
 10
91.212143
 20
173.088028
 30
0.000000
 70
40
  0
VERTEX
  8
STANDARDEBENE
 10
92.710739
 20
173.232162
 30
0.000000
 70
40
  0
VERTEX
  8
STANDARDEBENE
 10
94.641502
 20
173.308533
 30
0.000000
 70
40
  0
VERTEX
  8
STANDARDEBENE
 10
97.053680
 20
173.338608
 30
0.000000
 70
40
  0
VERTEX
  8
STANDARDEBENE
 10
99.996536
 20
173.343872
 30
0.000000
 70
40
  0
VERTEX
  8
STANDARDEBENE
 10
88.477867
 20
173.298691
 30
0.000000
 70
48
  0
VERTEX
  8
STANDARDEBENE
 10
90.322716
 20
173.343842
 30
0.000000
 70
48
  0
VERTEX
  8
STANDARDEBENE
 10
99.996521
 20
173.343842
 30
0.000000
 70
48
  0
VERTEX
  8
STANDARDEBENE
 10
99.996521
 20
173.343842
 30
0.000000
 70
40
  0
VERTEX
  8
STANDARDEBENE
 10
102.892021
 20
173.332672
 30
0.000000
 70
40
  0
VERTEX
  8
STANDARDEBENE
 10
105.279045
 20
173.287796
 30
0.000000
 70
40
  0
VERTEX
  8
STANDARDEBENE
 10
107.202415
 20
173.192200
 30
0.000000
 70
40
  0
VERTEX
  8
STANDARDEBENE
 10
108.706932
 20
173.028824
 30
0.000000
 70
40
  0
VERTEX
  8
STANDARDEBENE
 10
109.837410
 20
172.780640
 30
0.000000
 70
40
  0
VERTEX
  8
STANDARDEBENE
 10
110.638664
 20
172.430618
 30
0.000000
 70
40
  0
VERTEX
  8
STANDARDEBENE
 10
111.155502
 20
171.961716
 30
0.000000
 70
40
  0
VERTEX
  8
STANDARDEBENE
 10
111.432747
 20
171.356903
 30
0.000000
 70
40
  0
VERTEX
  8
STANDARDEBENE
 10
111.515198
 20
170.599136
 30
0.000000
 70
40
  0
VERTEX
  8
STANDARDEBENE
 10
109.490547
 20
173.343842
 30
0.000000
 70
48
  0
VERTEX
  8
STANDARDEBENE
 10
111.515213
 20
173.118881
 30
0.000000
 70
48
  0
VERTEX
  8
STANDARDEBENE
 10
111.515213
 20
170.599121
 30
0.000000
 70
48
  0
VERTEX
  8
STANDARDEBENE
 10
111.515213
 20
170.599121
 30
0.000000
 70
40
  0
VERTEX
  8
STANDARDEBENE
 10
111.432755
 20
169.841354
 30
0.000000
 70
40
  0
VERTEX
  8
STANDARDEBENE
 10
111.155510
 20
169.236542
 30
0.000000
 70
40
  0
VERTEX
  8
STANDARDEBENE
 10
110.638672
 20
168.767639
 30
0.000000
 70
40
  0
VERTEX
  8
STANDARDEBENE
 10
109.837410
 20
168.417618
 30
0.000000
 70
40
  0
VERTEX
  8
STANDARDEBENE
 10
108.706932
 20
168.169434
 30
0.000000
 70
40
  0
VERTEX
  8
STANDARDEBENE
 10
107.202415
 20
168.006058
 30
0.000000
 70
40
  0
VERTEX
  8
STANDARDEBENE
 10
105.279045
 20
167.910446
 30
0.000000
 70
40
  0
VERTEX
  8
STANDARDEBENE
 10
102.892014
 20
167.865570
 30
0.000000
 70
40
  0
VERTEX
  8
STANDARDEBENE
 10
99.996513
 20
167.854401
 30
0.000000
 70
40
  0
VERTEX
  8
STANDARDEBENE
 10
111.515213
 20
168.079376
 30
0.000000
 70
48
  0
VERTEX
  8
STANDARDEBENE
 10
109.490547
 20
167.854401
 30
0.000000
 70
48
  0
VERTEX
  8
STANDARDEBENE
 10
99.996521
 20
167.854401
 30
0.000000
 70
48
  0
VERTEX
  8
STANDARDEBENE
 10
99.996521
 20
167.854401
 30
0.000000
 70
40
  0
VERTEX
  8
STANDARDEBENE
 10
97.053673
 20
167.859650
 30
0.000000
 70
40
  0
VERTEX
  8
STANDARDEBENE
 10
94.641495
 20
167.889709
 30
0.000000
 70
40
  0
VERTEX
  8
STANDARDEBENE
 10
92.710739
 20
167.966049
 30
0.000000
 70
40
  0
VERTEX
  8
STANDARDEBENE
 10
91.212151
 20
168.110168
 30
0.000000
 70
40
  0
VERTEX
  8
STANDARDEBENE
 10
90.096474
 20
168.343536
 30
0.000000
 70
40
  0
VERTEX
  8
STANDARDEBENE
 10
89.314468
 20
168.687637
 30
0.000000
 70
40
  0
VERTEX
  8
STANDARDEBENE
 10
88.816872
 20
169.163956
 30
0.000000
 70
40
  0
VERTEX
  8
STANDARDEBENE
 10
88.554436
 20
169.793945
 30
0.000000
 70
40
  0
VERTEX
  8
STANDARDEBENE
 10
88.477905
 20
170.599121
 30
0.000000
 70
40
  0
VERTEX
  8
STANDARDEBENE
 10
90.322716
 20
167.854401
 30
0.000000
 70
48
  0
VERTEX
  8
STANDARDEBENE
 10
88.477867
 20
167.899384
 30
0.000000
 70
48
  0
VERTEX
  8
STANDARDEBENE
 10
88.477867
 20
170.599121
 30
0.000000
 70
48
  0
SEQEND
  8
STANDARDEBENE
  0
POLYLINE
  8
STANDARDEBENE
 66
1
 10
0.000000
 20
0.000000
 30
0.000000
 62
7
 70
12
  0
VERTEX
  8
STANDARDEBENE
 10
83.888474
 20
170.599121
 30
0.000000
 70
48
  0
VERTEX
  8
STANDARDEBENE
 10
83.888474
 20
170.599121
 30
0.000000
 70
40
  0
VERTEX
  8
STANDARDEBENE
 10
84.042282
 20
168.249115
 30
0.000000
 70
40
  0
VERTEX
  8
STANDARDEBENE
 10
84.525688
 20
166.330917
 30
0.000000
 70
40
  0
VERTEX
  8
STANDARDEBENE
 10
85.371643
 20
164.803040
 30
0.000000
 70
40
  0
VERTEX
  8
STANDARDEBENE
 10
86.613106
 20
163.624023
 30
0.000000
 70
40
  0
VERTEX
  8
STANDARDEBENE
 10
88.283043
 20
162.752396
 30
0.000000
 70
40
  0
VERTEX
  8
STANDARDEBENE
 10
90.414398
 20
162.146652
 30
0.000000
 70
40
  0
VERTEX
  8
STANDARDEBENE
 10
93.040138
 20
161.765335
 30
0.000000
 70
40
  0
VERTEX
  8
STANDARDEBENE
 10
96.193222
 20
161.566956
 30
0.000000
 70
40
  0
VERTEX
  8
STANDARDEBENE
 10
99.906601
 20
161.510040
 30
0.000000
 70
40
  0
VERTEX
  8
STANDARDEBENE
 10
83.888474
 20
162.859894
 30
0.000000
 70
48
  0
VERTEX
  8
STANDARDEBENE
 10
87.893059
 20
161.510086
 30
0.000000
 70
48
  0
VERTEX
  8
STANDARDEBENE
 10
99.906624
 20
161.510086
 30
0.000000
 70
48
  0
VERTEX
  8
STANDARDEBENE
 10
99.906624
 20
161.510086
 30
0.000000
 70
40
  0
VERTEX
  8
STANDARDEBENE
 10
103.057365
 20
161.543289
 30
0.000000
 70
40
  0
VERTEX
  8
STANDARDEBENE
 10
105.924805
 20
161.682419
 30
0.000000
 70
40
  0
VERTEX
  8
STANDARDEBENE
 10
108.485619
 20
161.986710
 30
0.000000
 70
40
  0
VERTEX
  8
STANDARDEBENE
 10
110.716476
 20
162.515427
 30
0.000000
 70
40
  0
VERTEX
  8
STANDARDEBENE
 10
112.594040
 20
163.327805
 30
0.000000
 70
40
  0
VERTEX
  8
STANDARDEBENE
 10
114.094978
 20
164.483124
 30
0.000000
 70
40
  0
VERTEX
  8
STANDARDEBENE
 10
115.195969
 20
166.040619
 30
0.000000
 70
40
  0
VERTEX
  8
STANDARDEBENE
 10
115.873665
 20
168.059540
 30
0.000000
 70
40
  0
VERTEX
  8
STANDARDEBENE
 10
116.104744
 20
170.599136
 30
0.000000
 70
40
  0
VERTEX
  8
STANDARDEBENE
 10
109.760452
 20
161.510086
 30
0.000000
 70
48
  0
VERTEX
  8
STANDARDEBENE
 10
116.104774
 20
162.140045
 30
0.000000
 70
48
  0
VERTEX
  8
STANDARDEBENE
 10
116.104774
 20
170.599121
 30
0.000000
 70
48
  0
VERTEX
  8
STANDARDEBENE
 10
116.104774
 20
170.599121
 30
0.000000
 70
40
  0
VERTEX
  8
STANDARDEBENE
 10
115.873688
 20
173.138672
 30
0.000000
 70
40
  0
VERTEX
  8
STANDARDEBENE
 10
115.195984
 20
175.157547
 30
0.000000
 70
40
  0
VERTEX
  8
STANDARDEBENE
 10
114.094994
 20
176.715012
 30
0.000000
 70
40
  0
VERTEX
  8
STANDARDEBENE
 10
112.594048
 20
177.870300
 30
0.000000
 70
40
  0
VERTEX
  8
STANDARDEBENE
 10
110.716484
 20
178.682678
 30
0.000000
 70
40
  0
VERTEX
  8
STANDARDEBENE
 10
108.485626
 20
179.211380
 30
0.000000
 70
40
  0
VERTEX
  8
STANDARDEBENE
 10
105.924812
 20
179.515671
 30
0.000000
 70
40
  0
VERTEX
  8
STANDARDEBENE
 10
103.057365
 20
179.654800
 30
0.000000
 70
40
  0
VERTEX
  8
STANDARDEBENE
 10
99.906631
 20
179.688019
 30
0.000000
 70
40
  0
VERTEX
  8
STANDARDEBENE
 10
116.104774
 20
179.058029
 30
0.000000
 70
48
  0
VERTEX
  8
STANDARDEBENE
 10
109.760452
 20
179.687988
 30
0.000000
 70
48
  0
VERTEX
  8
STANDARDEBENE
 10
99.906624
 20
179.687988
 30
0.000000
 70
48
  0
VERTEX
  8
STANDARDEBENE
 10
99.906624
 20
179.687988
 30
0.000000
 70
40
  0
VERTEX
  8
STANDARDEBENE
 10
96.193237
 20
179.631088
 30
0.000000
 70
40
  0
VERTEX
  8
STANDARDEBENE
 10
93.040154
 20
179.432724
 30
0.000000
 70
40
  0
VERTEX
  8
STANDARDEBENE
 10
90.414413
 20
179.051407
 30
0.000000
 70
40
  0
VERTEX
  8
STANDARDEBENE
 10
88.283058
 20
178.445694
 30
0.000000
 70
40
  0
VERTEX
  8
STANDARDEBENE
 10
86.613121
 20
177.574081
 30
0.000000
 70
40
  0
VERTEX
  8
STANDARDEBENE
 10
85.371666
 20
176.395096
 30
0.000000
 70
40
  0
VERTEX
  8
STANDARDEBENE
 10
84.525711
 20
174.867264
 30
0.000000
 70
40
  0
VERTEX
  8
STANDARDEBENE
 10
84.042313
 20
172.949112
 30
0.000000
 70
40
  0
VERTEX
  8
STANDARDEBENE
 10
83.888512
 20
170.599167
 30
0.000000
 70
40
  0
VERTEX
  8
STANDARDEBENE
 10
87.893059
 20
179.687988
 30
0.000000
 70
48
  0
VERTEX
  8
STANDARDEBENE
 10
83.888474
 20
178.338181
 30
0.000000
 70
48
  0
VERTEX
  8
STANDARDEBENE
 10
83.888474
 20
170.599121
 30
0.000000
 70
48
  0
SEQEND
  8
STANDARDEBENE
  0
POLYLINE
  8
STANDARDEBENE
 66
1
 10
0.000000
 20
0.000000
 30
0.000000
 62
7
 70
12
  0
VERTEX
  8
STANDARDEBENE
 10
204.762421
 20
-200.719635
 30
0.000000
 70
48
  0
VERTEX
  8
STANDARDEBENE
 10
204.762421
 20
-200.719635
 30
0.000000
 70
40
  0
VERTEX
  8
STANDARDEBENE
 10
204.789078
 20
-199.682602
 30
0.000000
 70
40
  0
VERTEX
  8
STANDARDEBENE
 10
204.869080
 20
-198.729279
 30
0.000000
 70
40
  0
VERTEX
  8
STANDARDEBENE
 10
205.002396
 20
-197.856689
 30
0.000000
 70
40
  0
VERTEX
  8
STANDARDEBENE
 10
205.189056
 20
-197.061859
 30
0.000000
 70
40
  0
VERTEX
  8
STANDARDEBENE
 10
205.429031
 20
-196.341843
 30
0.000000
 70
40
  0
VERTEX
  8
STANDARDEBENE
 10
205.722351
 20
-195.693665
 30
0.000000
 70
40
  0
VERTEX
  8
STANDARDEBENE
 10
206.069000
 20
-195.114365
 30
0.000000
 70
40
  0
VERTEX
  8
STANDARDEBENE
 10
206.468979
 20
-194.600967
 30
0.000000
 70
40
  0
VERTEX
  8
STANDARDEBENE
 10
206.922287
 20
-194.150528
 30
0.000000
 70
40
  0
VERTEX
  8
STANDARDEBENE
 10
204.762421
 20
-197.480042
 30
0.000000
 70
48
  0
VERTEX
  8
STANDARDEBENE
 10
205.482330
 20
-195.410400
 30
0.000000
 70
48
  0
VERTEX
  8
STANDARDEBENE
 10
206.922226
 20
-194.150528
 30
0.000000
 70
48
  0
VERTEX
  8
STANDARDEBENE
 10
206.922226
 20
-194.150528
 30
0.000000
 70
40
  0
VERTEX
  8
STANDARDEBENE
 10
207.432281
 20
-193.773453
 30
0.000000
 70
40
  0
VERTEX
  8
STANDARDEBENE
 10
208.003067
 20
-193.450470
 30
0.000000
 70
40
  0
VERTEX
  8
STANDARDEBENE
 10
208.635330
 20
-193.178940
 30
0.000000
 70
40
  0
VERTEX
  8
STANDARDEBENE
 10
209.329819
 20
-192.956314
 30
0.000000
 70
40
  0
VERTEX
  8
STANDARDEBENE
 10
210.087265
 20
-192.779984
 30
0.000000
 70
40
  0
VERTEX
  8
STANDARDEBENE
 10
210.908401
 20
-192.647339
 30
0.000000
 70
40
  0
VERTEX
  8
STANDARDEBENE
 10
211.793991
 20
-192.555817
 30
0.000000
 70
40
  0
VERTEX
  8
STANDARDEBENE
 10
212.744751
 20
-192.502792
 30
0.000000
 70
40
  0
VERTEX
  8
STANDARDEBENE
 10
213.761444
 20
-192.485703
 30
0.000000
 70
40
  0
VERTEX
  8
STANDARDEBENE
 10
208.362015
 20
-192.935623
 30
0.000000
 70
48
  0
VERTEX
  8
STANDARDEBENE
 10
210.611755
 20
-192.485687
 30
0.000000
 70
48
  0
VERTEX
  8
STANDARDEBENE
 10
213.761429
 20
-192.485687
 30
0.000000
 70
48
  0
VERTEX
  8
STANDARDEBENE
 10
213.761429
 20
-192.485687
 30
0.000000
 70
40
  0
VERTEX
  8
STANDARDEBENE
 10
215.596710
 20
-192.575684
 30
0.000000
 70
40
  0
VERTEX
  8
STANDARDEBENE
 10
217.204987
 20
-192.852310
 30
0.000000
 70
40
  0
VERTEX
  8
STANDARDEBENE
 10
218.589203
 20
-193.325592
 30
0.000000
 70
40
  0
VERTEX
  8
STANDARDEBENE
 10
219.752335
 20
-194.005508
 30
0.000000
 70
40
  0
VERTEX
  8
STANDARDEBENE
 10
220.697342
 20
-194.902084
 30
0.000000
 70
40
  0
VERTEX
  8
STANDARDEBENE
 10
221.427200
 20
-196.025284
 30
0.000000
 70
40
  0
VERTEX
  8
STANDARDEBENE
 10
221.944855
 20
-197.385132
 30
0.000000
 70
40
  0
VERTEX
  8
STANDARDEBENE
 10
222.253296
 20
-198.991623
 30
0.000000
 70
40
  0
VERTEX
  8
STANDARDEBENE
 10
222.355453
 20
-200.854752
 30
0.000000
 70
40
  0
VERTEX
  8
STANDARDEBENE
 10
219.610764
 20
-192.485687
 30
0.000000
 70
48
  0
VERTEX
  8
STANDARDEBENE
 10
222.355377
 20
-194.870392
 30
0.000000
 70
48
  0
VERTEX
  8
STANDARDEBENE
 10
222.355377
 20
-200.854691
 30
0.000000
 70
48
  0
VERTEX
  8
STANDARDEBENE
 10
222.355377
 20
-200.854691
 30
0.000000
 70
40
  0
VERTEX
  8
STANDARDEBENE
 10
222.321365
 20
-201.859695
 30
0.000000
 70
40
  0
VERTEX
  8
STANDARDEBENE
 10
222.209961
 20
-202.875443
 30
0.000000
 70
40
  0
VERTEX
  8
STANDARDEBENE
 10
222.007080
 20
-203.872665
 30
0.000000
 70
40
  0
VERTEX
  8
STANDARDEBENE
 10
221.698654
 20
-204.822113
 30
0.000000
 70
40
  0
VERTEX
  8
STANDARDEBENE
 10
221.270615
 20
-205.694534
 30
0.000000
 70
40
  0
VERTEX
  8
STANDARDEBENE
 10
220.708878
 20
-206.460678
 30
0.000000
 70
40
  0
VERTEX
  8
STANDARDEBENE
 10
219.999390
 20
-207.091293
 30
0.000000
 70
40
  0
VERTEX
  8
STANDARDEBENE
 10
219.128052
 20
-207.557114
 30
0.000000
 70
40
  0
VERTEX
  8
STANDARDEBENE
 10
218.080811
 20
-207.828903
 30
0.000000
 70
40
  0
VERTEX
  8
STANDARDEBENE
 10
222.355377
 20
-203.824356
 30
0.000000
 70
48
  0
VERTEX
  8
STANDARDEBENE
 10
221.500488
 20
-207.333878
 30
0.000000
 70
48
  0
VERTEX
  8
STANDARDEBENE
 10
218.080872
 20
-207.828934
 30
0.000000
 70
48
  0
VERTEX
  8
STANDARDEBENE
 10
218.080872
 20
-207.828934
 30
0.000000
 70
40
  0
VERTEX
  8
STANDARDEBENE
 10
218.080872
 20
-207.832016
 30
0.000000
 70
40
  0
VERTEX
  8
STANDARDEBENE
 10
218.080872
 20
-207.840286
 30
0.000000
 70
40
  0
VERTEX
  8
STANDARDEBENE
 10
218.080872
 20
-207.852249
 30
0.000000
 70
40
  0
VERTEX
  8
STANDARDEBENE
 10
218.080872
 20
-207.866440
 30
0.000000
 70
40
  0
VERTEX
  8
STANDARDEBENE
 10
218.080872
 20
-207.881363
 30
0.000000
 70
40
  0
VERTEX
  8
STANDARDEBENE
 10
218.080872
 20
-207.895554
 30
0.000000
 70
40
  0
VERTEX
  8
STANDARDEBENE
 10
218.080872
 20
-207.907516
 30
0.000000
 70
40
  0
VERTEX
  8
STANDARDEBENE
 10
218.080872
 20
-207.915787
 30
0.000000
 70
40
  0
VERTEX
  8
STANDARDEBENE
 10
218.080872
 20
-207.918869
 30
0.000000
 70
40
  0
VERTEX
  8
STANDARDEBENE
 10
218.080872
 20
-207.828934
 30
0.000000
 70
48
  0
VERTEX
  8
STANDARDEBENE
 10
218.080872
 20
-207.918854
 30
0.000000
 70
48
  0
VERTEX
  8
STANDARDEBENE
 10
218.080872
 20
-207.918854
 30
0.000000
 70
48
  0
VERTEX
  8
STANDARDEBENE
 10
218.080872
 20
-207.918854
 30
0.000000
 70
40
  0
VERTEX
  8
STANDARDEBENE
 10
219.322845
 20
-208.262665
 30
0.000000
 70
40
  0
VERTEX
  8
STANDARDEBENE
 10
220.334091
 20
-208.772736
 30
0.000000
 70
40
  0
VERTEX
  8
STANDARDEBENE
 10
221.137222
 20
-209.432053
 30
0.000000
 70
40
  0
VERTEX
  8
STANDARDEBENE
 10
221.754807
 20
-210.223572
 30
0.000000
 70
40
  0
VERTEX
  8
STANDARDEBENE
 10
222.209442
 20
-211.130264
 30
0.000000
 70
40
  0
VERTEX
  8
STANDARDEBENE
 10
222.523727
 20
-212.135086
 30
0.000000
 70
40
  0
VERTEX
  8
STANDARDEBENE
 10
222.720245
 20
-213.220993
 30
0.000000
 70
40
  0
VERTEX
  8
STANDARDEBENE
 10
222.821579
 20
-214.370987
 30
0.000000
 70
40
  0
VERTEX
  8
STANDARDEBENE
 10
222.850342
 20
-215.568008
 30
0.000000
 70
40
  0
VERTEX
  8
STANDARDEBENE
 10
222.175461
 20
-208.683838
 30
0.000000
 70
48
  0
VERTEX
  8
STANDARDEBENE
 10
222.850357
 20
-211.923431
 30
0.000000
 70
48
  0
VERTEX
  8
STANDARDEBENE
 10
222.850357
 20
-215.568008
 30
0.000000
 70
48
  0
VERTEX
  8
STANDARDEBENE
 10
222.850357
 20
-215.568008
 30
0.000000
 70
40
  0
VERTEX
  8
STANDARDEBENE
 10
222.722839
 20
-217.587692
 30
0.000000
 70
40
  0
VERTEX
  8
STANDARDEBENE
 10
222.343506
 20
-219.333725
 30
0.000000
 70
40
  0
VERTEX
  8
STANDARDEBENE
 10
221.717163
 20
-220.815704
 30
0.000000
 70
40
  0
VERTEX
  8
STANDARDEBENE
 10
220.848618
 20
-222.043289
 30
0.000000
 70
40
  0
VERTEX
  8
STANDARDEBENE
 10
219.742691
 20
-223.026077
 30
0.000000
 70
40
  0
VERTEX
  8
STANDARDEBENE
 10
218.404190
 20
-223.773712
 30
0.000000
 70
40
  0
VERTEX
  8
STANDARDEBENE
 10
216.837936
 20
-224.295822
 30
0.000000
 70
40
  0
VERTEX
  8
STANDARDEBENE
 10
215.048737
 20
-224.602020
 30
0.000000
 70
40
  0
VERTEX
  8
STANDARDEBENE
 10
213.041397
 20
-224.701950
 30
0.000000
 70
40
  0
VERTEX
  8
STANDARDEBENE
 10
222.850357
 20
-222.047195
 30
0.000000
 70
48
  0
VERTEX
  8
STANDARDEBENE
 10
219.385803
 20
-224.701981
 30
0.000000
 70
48
  0
VERTEX
  8
STANDARDEBENE
 10
213.041473
 20
-224.701981
 30
0.000000
 70
48
  0
VERTEX
  8
STANDARDEBENE
 10
213.041473
 20
-224.701981
 30
0.000000
 70
40
  0
VERTEX
  8
STANDARDEBENE
 10
211.109848
 20
-224.617172
 30
0.000000
 70
40
  0
VERTEX
  8
STANDARDEBENE
 10
209.447083
 20
-224.350174
 30
0.000000
 70
40
  0
VERTEX
  8
STANDARDEBENE
 10
208.042068
 20
-223.882080
 30
0.000000
 70
40
  0
VERTEX
  8
STANDARDEBENE
 10
206.883682
 20
-223.194016
 30
0.000000
 70
40
  0
VERTEX
  8
STANDARDEBENE
 10
205.960846
 20
-222.267090
 30
0.000000
 70
40
  0
VERTEX
  8
STANDARDEBENE
 10
205.262421
 20
-221.082397
 30
0.000000
 70
40
  0
VERTEX
  8
STANDARDEBENE
 10
204.777298
 20
-219.621078
 30
0.000000
 70
40
  0
VERTEX
  8
STANDARDEBENE
 10
204.494385
 20
-217.864212
 30
0.000000
 70
40
  0
VERTEX
  8
STANDARDEBENE
 10
204.402557
 20
-215.792938
 30
0.000000
 70
40
  0
VERTEX
  8
STANDARDEBENE
 10
206.832199
 20
-224.701981
 30
0.000000
 70
48
  0
VERTEX
  8
STANDARDEBENE
 10
204.402481
 20
-222.497299
 30
0.000000
 70
48
  0
VERTEX
  8
STANDARDEBENE
 10
204.402481
 20
-215.792969
 30
0.000000
 70
48
  0
VERTEX
  8
STANDARDEBENE
 10
204.402481
 20
-215.792969
 30
0.000000
 70
40
  0
VERTEX
  8
STANDARDEBENE
 10
204.620041
 20
-215.792969
 30
0.000000
 70
40
  0
VERTEX
  8
STANDARDEBENE
 10
205.203125
 20
-215.792969
 30
0.000000
 70
40
  0
VERTEX
  8
STANDARDEBENE
 10
206.047272
 20
-215.792969
 30
0.000000
 70
40
  0
VERTEX
  8
STANDARDEBENE
 10
207.048065
 20
-215.792969
 30
0.000000
 70
40
  0
VERTEX
  8
STANDARDEBENE
 10
208.101089
 20
-215.792969
 30
0.000000
 70
40
  0
VERTEX
  8
STANDARDEBENE
 10
209.101883
 20
-215.792969
 30
0.000000
 70
40
  0
VERTEX
  8
STANDARDEBENE
 10
209.946030
 20
-215.792969
 30
0.000000
 70
40
  0
VERTEX
  8
STANDARDEBENE
 10
210.529099
 20
-215.792969
 30
0.000000
 70
40
  0
VERTEX
  8
STANDARDEBENE
 10
210.746658
 20
-215.792969
 30
0.000000
 70
40
  0
VERTEX
  8
STANDARDEBENE
 10
204.402481
 20
-215.792969
 30
0.000000
 70
48
  0
VERTEX
  8
STANDARDEBENE
 10
210.746689
 20
-215.792969
 30
0.000000
 70
48
  0
VERTEX
  8
STANDARDEBENE
 10
210.746689
 20
-215.792969
 30
0.000000
 70
48
  0
VERTEX
  8
STANDARDEBENE
 10
210.746689
 20
-215.792969
 30
0.000000
 70
40
  0
VERTEX
  8
STANDARDEBENE
 10
210.747375
 20
-216.486237
 30
0.000000
 70
40
  0
VERTEX
  8
STANDARDEBENE
 10
210.765472
 20
-217.172821
 30
0.000000
 70
40
  0
VERTEX
  8
STANDARDEBENE
 10
210.825043
 20
-217.832748
 30
0.000000
 70
40
  0
VERTEX
  8
STANDARDEBENE
 10
210.950180
 20
-218.445999
 30
0.000000
 70
40
  0
VERTEX
  8
STANDARDEBENE
 10
211.164917
 20
-218.992599
 30
0.000000
 70
40
  0
VERTEX
  8
STANDARDEBENE
 10
211.493362
 20
-219.452545
 30
0.000000
 70
40
  0
VERTEX
  8
STANDARDEBENE
 10
211.959549
 20
-219.805832
 30
0.000000
 70
40
  0
VERTEX
  8
STANDARDEBENE
 10
212.587570
 20
-220.032471
 30
0.000000
 70
40
  0
VERTEX
  8
STANDARDEBENE
 10
213.401489
 20
-220.112457
 30
0.000000
 70
40
  0
VERTEX
  8
STANDARDEBENE
 10
210.746689
 20
-217.862778
 30
0.000000
 70
48
  0
VERTEX
  8
STANDARDEBENE
 10
210.656799
 20
-220.112427
 30
0.000000
 70
48
  0
VERTEX
  8
STANDARDEBENE
 10
213.401413
 20
-220.112427
 30
0.000000
 70
48
  0
VERTEX
  8
STANDARDEBENE
 10
213.401413
 20
-220.112427
 30
0.000000
 70
40
  0
VERTEX
  8
STANDARDEBENE
 10
214.266312
 20
-220.018372
 30
0.000000
 70
40
  0
VERTEX
  8
STANDARDEBENE
 10
214.954559
 20
-219.753220
 30
0.000000
 70
40
  0
VERTEX
  8
STANDARDEBENE
 10
215.486176
 20
-219.342545
 30
0.000000
 70
40
  0
VERTEX
  8
STANDARDEBENE
 10
215.881119
 20
-218.811890
 30
0.000000
 70
40
  0
VERTEX
  8
STANDARDEBENE
 10
216.159424
 20
-218.186798
 30
0.000000
 70
40
  0
VERTEX
  8
STANDARDEBENE
 10
216.341080
 20
-217.492828
 30
0.000000
 70
40
  0
VERTEX
  8
STANDARDEBENE
 10
216.446075
 20
-216.755539
 30
0.000000
 70
40
  0
VERTEX
  8
STANDARDEBENE
 10
216.494415
 20
-216.000458
 30
0.000000
 70
40
  0
VERTEX
  8
STANDARDEBENE
 10
216.506088
 20
-215.253174
 30
0.000000
 70
40
  0
VERTEX
  8
STANDARDEBENE
 10
216.281067
 20
-220.112427
 30
0.000000
 70
48
  0
VERTEX
  8
STANDARDEBENE
 10
216.506042
 20
-217.457809
 30
0.000000
 70
48
  0
VERTEX
  8
STANDARDEBENE
 10
216.506042
 20
-215.253128
 30
0.000000
 70
48
  0
VERTEX
  8
STANDARDEBENE
 10
216.506042
 20
-215.253128
 30
0.000000
 70
40
  0
VERTEX
  8
STANDARDEBENE
 10
216.449081
 20
-213.891083
 30
0.000000
 70
40
  0
VERTEX
  8
STANDARDEBENE
 10
216.270279
 20
-212.812729
 30
0.000000
 70
40
  0
VERTEX
  8
STANDARDEBENE
 10
215.957794
 20
-211.985077
 30
0.000000
 70
40
  0
VERTEX
  8
STANDARDEBENE
 10
215.499771
 20
-211.375198
 30
0.000000
 70
40
  0
VERTEX
  8
STANDARDEBENE
 10
214.884354
 20
-210.950104
 30
0.000000
 70
40
  0
VERTEX
  8
STANDARDEBENE
 10
214.099701
 20
-210.676849
 30
0.000000
 70
40
  0
VERTEX
  8
STANDARDEBENE
 10
213.133957
 20
-210.522476
 30
0.000000
 70
40
  0
VERTEX
  8
STANDARDEBENE
 10
211.975250
 20
-210.454010
 30
0.000000
 70
40
  0
VERTEX
  8
STANDARDEBENE
 10
210.611755
 20
-210.438492
 30
0.000000
 70
40
  0
VERTEX
  8
STANDARDEBENE
 10
216.506042
 20
-210.708527
 30
0.000000
 70
48
  0
VERTEX
  8
STANDARDEBENE
 10
215.021301
 20
-210.438599
 30
0.000000
 70
48
  0
VERTEX
  8
STANDARDEBENE
 10
210.611755
 20
-210.438599
 30
0.000000
 70
48
  0
VERTEX
  8
STANDARDEBENE
 10
210.611755
 20
-210.438599
 30
0.000000
 70
40
  0
VERTEX
  8
STANDARDEBENE
 10
210.611755
 20
-210.267319
 30
0.000000
 70
40
  0
VERTEX
  8
STANDARDEBENE
 10
210.611755
 20
-209.808304
 30
0.000000
 70
40
  0
VERTEX
  8
STANDARDEBENE
 10
210.611755
 20
-209.143768
 30
0.000000
 70
40
  0
VERTEX
  8
STANDARDEBENE
 10
210.611755
 20
-208.355911
 30
0.000000
 70
40
  0
VERTEX
  8
STANDARDEBENE
 10
210.611755
 20
-207.526932
 30
0.000000
 70
40
  0
VERTEX
  8
STANDARDEBENE
 10
210.611755
 20
-206.739075
 30
0.000000
 70
40
  0
VERTEX
  8
STANDARDEBENE
 10
210.611755
 20
-206.074539
 30
0.000000
 70
40
  0
VERTEX
  8
STANDARDEBENE
 10
210.611755
 20
-205.615524
 30
0.000000
 70
40
  0
VERTEX
  8
STANDARDEBENE
 10
210.611755
 20
-205.444244
 30
0.000000
 70
40
  0
VERTEX
  8
STANDARDEBENE
 10
210.611755
 20
-210.438599
 30
0.000000
 70
48
  0
VERTEX
  8
STANDARDEBENE
 10
210.611755
 20
-205.444244
 30
0.000000
 70
48
  0
VERTEX
  8
STANDARDEBENE
 10
210.611755
 20
-205.444244
 30
0.000000
 70
48
  0
VERTEX
  8
STANDARDEBENE
 10
210.611755
 20
-205.444244
 30
0.000000
 70
40
  0
VERTEX
  8
STANDARDEBENE
 10
211.887161
 20
-205.476364
 30
0.000000
 70
40
  0
VERTEX
  8
STANDARDEBENE
 10
212.962601
 20
-205.434799
 30
0.000000
 70
40
  0
VERTEX
  8
STANDARDEBENE
 10
213.851395
 20
-205.292511
 30
0.000000
 70
40
  0
VERTEX
  8
STANDARDEBENE
 10
214.566879
 20
-205.022476
 30
0.000000
 70
40
  0
VERTEX
  8
STANDARDEBENE
 10
215.122375
 20
-204.597641
 30
0.000000
 70
40
  0
VERTEX
  8
STANDARDEBENE
 10
215.531219
 20
-203.990997
 30
0.000000
 70
40
  0
VERTEX
  8
STANDARDEBENE
 10
215.806763
 20
-203.175491
 30
0.000000
 70
40
  0
VERTEX
  8
STANDARDEBENE
 10
215.962311
 20
-202.124100
 30
0.000000
 70
40
  0
VERTEX
  8
STANDARDEBENE
 10
216.011200
 20
-200.809784
 30
0.000000
 70
40
  0
VERTEX
  8
STANDARDEBENE
 10
214.751282
 20
-205.624084
 30
0.000000
 70
48
  0
VERTEX
  8
STANDARDEBENE
 10
216.011154
 20
-205.174149
 30
0.000000
 70
48
  0
VERTEX
  8
STANDARDEBENE
 10
216.011154
 20
-200.809738
 30
0.000000
 70
48
  0
VERTEX
  8
STANDARDEBENE
 10
216.011154
 20
-200.809738
 30
0.000000
 70
40
  0
VERTEX
  8
STANDARDEBENE
 10
215.998932
 20
-200.231339
 30
0.000000
 70
40
  0
VERTEX
  8
STANDARDEBENE
 10
215.953384
 20
-199.648865
 30
0.000000
 70
40
  0
VERTEX
  8
STANDARDEBENE
 10
215.861176
 20
-199.081573
 30
0.000000
 70
40
  0
VERTEX
  8
STANDARDEBENE
 10
215.708969
 20
-198.548721
 30
0.000000
 70
40
  0
VERTEX
  8
STANDARDEBENE
 10
215.483444
 20
-198.069565
 30
0.000000
 70
40
  0
VERTEX
  8
STANDARDEBENE
 10
215.171265
 20
-197.663376
 30
0.000000
 70
40
  0
VERTEX
  8
STANDARDEBENE
 10
214.759094
 20
-197.349380
 30
0.000000
 70
40
  0
VERTEX
  8
STANDARDEBENE
 10
214.233612
 20
-197.146866
 30
0.000000
 70
40
  0
VERTEX
  8
STANDARDEBENE
 10
213.581482
 20
-197.075089
 30
0.000000
 70
40
  0
VERTEX
  8
STANDARDEBENE
 10
216.011154
 20
-199.099930
 30
0.000000
 70
48
  0
VERTEX
  8
STANDARDEBENE
 10
215.741150
 20
-197.075073
 30
0.000000
 70
48
  0
VERTEX
  8
STANDARDEBENE
 10
213.581406
 20
-197.075073
 30
0.000000
 70
48
  0
VERTEX
  8
STANDARDEBENE
 10
213.581406
 20
-197.075073
 30
0.000000
 70
40
  0
VERTEX
  8
STANDARDEBENE
 10
212.892181
 20
-197.140808
 30
0.000000
 70
40
  0
VERTEX
  8
STANDARDEBENE
 10
212.343674
 20
-197.327637
 30
0.000000
 70
40
  0
VERTEX
  8
STANDARDEBENE
 10
211.919968
 20
-197.620026
 30
0.000000
 70
40
  0
VERTEX
  8
STANDARDEBENE
 10
211.605133
 20
-198.002396
 30
0.000000
 70
40
  0
VERTEX
  8
STANDARDEBENE
 10
211.383240
 20
-198.459198
 30
0.000000
 70
40
  0
VERTEX
  8
STANDARDEBENE
 10
211.238373
 20
-198.974869
 30
0.000000
 70
40
  0
VERTEX
  8
STANDARDEBENE
 10
211.154617
 20
-199.533875
 30
0.000000
 70
40
  0
VERTEX
  8
STANDARDEBENE
 10
211.116043
 20
-200.120651
 30
0.000000
 70
40
  0
VERTEX
  8
STANDARDEBENE
 10
211.106735
 20
-200.719635
 30
0.000000
 70
40
  0
VERTEX
  8
STANDARDEBENE
 10
211.286728
 20
-197.075073
 30
0.000000
 70
48
  0
VERTEX
  8
STANDARDEBENE
 10
211.106705
 20
-198.919922
 30
0.000000
 70
48
  0
VERTEX
  8
STANDARDEBENE
 10
211.106705
 20
-200.719635
 30
0.000000
 70
48
  0
VERTEX
  8
STANDARDEBENE
 10
211.106705
 20
-200.719635
 30
0.000000
 70
40
  0
VERTEX
  8
STANDARDEBENE
 10
210.889130
 20
-200.719635
 30
0.000000
 70
40
  0
VERTEX
  8
STANDARDEBENE
 10
210.306061
 20
-200.719635
 30
0.000000
 70
40
  0
VERTEX
  8
STANDARDEBENE
 10
209.461899
 20
-200.719635
 30
0.000000
 70
40
  0
VERTEX
  8
STANDARDEBENE
 10
208.461075
 20
-200.719620
 30
0.000000
 70
40
  0
VERTEX
  8
STANDARDEBENE
 10
207.408051
 20
-200.719620
 30
0.000000
 70
40
  0
VERTEX
  8
STANDARDEBENE
 10
206.407242
 20
-200.719604
 30
0.000000
 70
40
  0
VERTEX
  8
STANDARDEBENE
 10
205.563080
 20
-200.719604
 30
0.000000
 70
40
  0
VERTEX
  8
STANDARDEBENE
 10
204.979996
 20
-200.719589
 30
0.000000
 70
40
  0
VERTEX
  8
STANDARDEBENE
 10
204.762436
 20
-200.719574
 30
0.000000
 70
40
  0
VERTEX
  8
STANDARDEBENE
 10
211.106705
 20
-200.719635
 30
0.000000
 70
48
  0
VERTEX
  8
STANDARDEBENE
 10
204.762421
 20
-200.719635
 30
0.000000
 70
48
  0
VERTEX
  8
STANDARDEBENE
 10
204.762421
 20
-200.719635
 30
0.000000
 70
48
  0
SEQEND
  8
STANDARDEBENE
  0
POLYLINE
  8
STANDARDEBENE
 66
1
 10
0.000000
 20
0.000000
 30
0.000000
 62
7
 70
12
  0
VERTEX
  8
STANDARDEBENE
 10
236.077972
 20
-197.075073
 30
0.000000
 70
48
  0
VERTEX
  8
STANDARDEBENE
 10
236.077972
 20
-197.075073
 30
0.000000
 70
40
  0
VERTEX
  8
STANDARDEBENE
 10
236.883148
 20
-197.151611
 30
0.000000
 70
40
  0
VERTEX
  8
STANDARDEBENE
 10
237.513138
 20
-197.414047
 30
0.000000
 70
40
  0
VERTEX
  8
STANDARDEBENE
 10
237.989456
 20
-197.911652
 30
0.000000
 70
40
  0
VERTEX
  8
STANDARDEBENE
 10
238.333557
 20
-198.693680
 30
0.000000
 70
40
  0
VERTEX
  8
STANDARDEBENE
 10
238.566925
 20
-199.809357
 30
0.000000
 70
40
  0
VERTEX
  8
STANDARDEBENE
 10
238.711044
 20
-201.307953
 30
0.000000
 70
40
  0
VERTEX
  8
STANDARDEBENE
 10
238.787384
 20
-203.238708
 30
0.000000
 70
40
  0
VERTEX
  8
STANDARDEBENE
 10
238.817444
 20
-205.650894
 30
0.000000
 70
40
  0
VERTEX
  8
STANDARDEBENE
 10
238.822693
 20
-208.593750
 30
0.000000
 70
40
  0
VERTEX
  8
STANDARDEBENE
 10
238.777710
 20
-197.075073
 30
0.000000
 70
48
  0
VERTEX
  8
STANDARDEBENE
 10
238.822693
 20
-198.919922
 30
0.000000
 70
48
  0
VERTEX
  8
STANDARDEBENE
 10
238.822693
 20
-208.593750
 30
0.000000
 70
48
  0
VERTEX
  8
STANDARDEBENE
 10
238.822693
 20
-208.593750
 30
0.000000
 70
40
  0
VERTEX
  8
STANDARDEBENE
 10
238.811523
 20
-211.489243
 30
0.000000
 70
40
  0
VERTEX
  8
STANDARDEBENE
 10
238.766647
 20
-213.876266
 30
0.000000
 70
40
  0
VERTEX
  8
STANDARDEBENE
 10
238.671036
 20
-215.799637
 30
0.000000
 70
40
  0
VERTEX
  8
STANDARDEBENE
 10
238.507660
 20
-217.304153
 30
0.000000
 70
40
  0
VERTEX
  8
STANDARDEBENE
 10
238.259476
 20
-218.434631
 30
0.000000
 70
40
  0
VERTEX
  8
STANDARDEBENE
 10
237.909454
 20
-219.235901
 30
0.000000
 70
40
  0
VERTEX
  8
STANDARDEBENE
 10
237.440552
 20
-219.752747
 30
0.000000
 70
40
  0
VERTEX
  8
STANDARDEBENE
 10
236.835739
 20
-220.029999
 30
0.000000
 70
40
  0
VERTEX
  8
STANDARDEBENE
 10
236.077972
 20
-220.112457
 30
0.000000
 70
40
  0
VERTEX
  8
STANDARDEBENE
 10
238.822693
 20
-218.087753
 30
0.000000
 70
48
  0
VERTEX
  8
STANDARDEBENE
 10
238.597717
 20
-220.112427
 30
0.000000
 70
48
  0
VERTEX
  8
STANDARDEBENE
 10
236.077972
 20
-220.112427
 30
0.000000
 70
48
  0
VERTEX
  8
STANDARDEBENE
 10
236.077972
 20
-220.112427
 30
0.000000
 70
40
  0
VERTEX
  8
STANDARDEBENE
 10
235.320206
 20
-220.029968
 30
0.000000
 70
40
  0
VERTEX
  8
STANDARDEBENE
 10
234.715393
 20
-219.752731
 30
0.000000
 70
40
  0
VERTEX
  8
STANDARDEBENE
 10
234.246490
 20
-219.235886
 30
0.000000
 70
40
  0
VERTEX
  8
STANDARDEBENE
 10
233.896469
 20
-218.434631
 30
0.000000
 70
40
  0
VERTEX
  8
STANDARDEBENE
 10
233.648285
 20
-217.304153
 30
0.000000
 70
40
  0
VERTEX
  8
STANDARDEBENE
 10
233.484909
 20
-215.799652
 30
0.000000
 70
40
  0
VERTEX
  8
STANDARDEBENE
 10
233.389297
 20
-213.876297
 30
0.000000
 70
40
  0
VERTEX
  8
STANDARDEBENE
 10
233.344421
 20
-211.489288
 30
0.000000
 70
40
  0
VERTEX
  8
STANDARDEBENE
 10
233.333252
 20
-208.593796
 30
0.000000
 70
40
  0
VERTEX
  8
STANDARDEBENE
 10
233.558228
 20
-220.112427
 30
0.000000
 70
48
  0
VERTEX
  8
STANDARDEBENE
 10
233.333252
 20
-218.087753
 30
0.000000
 70
48
  0
VERTEX
  8
STANDARDEBENE
 10
233.333252
 20
-208.593750
 30
0.000000
 70
48
  0
VERTEX
  8
STANDARDEBENE
 10
233.333252
 20
-208.593750
 30
0.000000
 70
40
  0
VERTEX
  8
STANDARDEBENE
 10
233.338501
 20
-205.650894
 30
0.000000
 70
40
  0
VERTEX
  8
STANDARDEBENE
 10
233.368576
 20
-203.238708
 30
0.000000
 70
40
  0
VERTEX
  8
STANDARDEBENE
 10
233.444946
 20
-201.307953
 30
0.000000
 70
40
  0
VERTEX
  8
STANDARDEBENE
 10
233.589096
 20
-199.809357
 30
0.000000
 70
40
  0
VERTEX
  8
STANDARDEBENE
 10
233.822479
 20
-198.693680
 30
0.000000
 70
40
  0
VERTEX
  8
STANDARDEBENE
 10
234.166595
 20
-197.911652
 30
0.000000
 70
40
  0
VERTEX
  8
STANDARDEBENE
 10
234.642899
 20
-197.414047
 30
0.000000
 70
40
  0
VERTEX
  8
STANDARDEBENE
 10
235.272888
 20
-197.151611
 30
0.000000
 70
40
  0
VERTEX
  8
STANDARDEBENE
 10
236.078018
 20
-197.075073
 30
0.000000
 70
40
  0
VERTEX
  8
STANDARDEBENE
 10
233.333252
 20
-198.919922
 30
0.000000
 70
48
  0
VERTEX
  8
STANDARDEBENE
 10
233.378403
 20
-197.075073
 30
0.000000
 70
48
  0
VERTEX
  8
STANDARDEBENE
 10
236.077972
 20
-197.075073
 30
0.000000
 70
48
  0
SEQEND
  8
STANDARDEBENE
  0
POLYLINE
  8
STANDARDEBENE
 66
1
 10
0.000000
 20
0.000000
 30
0.000000
 62
7
 70
12
  0
VERTEX
  8
STANDARDEBENE
 10
236.077972
 20
-192.485687
 30
0.000000
 70
48
  0
VERTEX
  8
STANDARDEBENE
 10
236.077972
 20
-192.485687
 30
0.000000
 70
40
  0
VERTEX
  8
STANDARDEBENE
 10
233.728012
 20
-192.639496
 30
0.000000
 70
40
  0
VERTEX
  8
STANDARDEBENE
 10
231.809860
 20
-193.122910
 30
0.000000
 70
40
  0
VERTEX
  8
STANDARDEBENE
 10
230.282028
 20
-193.968872
 30
0.000000
 70
40
  0
VERTEX
  8
STANDARDEBENE
 10
229.103043
 20
-195.210342
 30
0.000000
 70
40
  0
VERTEX
  8
STANDARDEBENE
 10
228.231415
 20
-196.880280
 30
0.000000
 70
40
  0
VERTEX
  8
STANDARDEBENE
 10
227.625702
 20
-199.011642
 30
0.000000
 70
40
  0
VERTEX
  8
STANDARDEBENE
 10
227.244400
 20
-201.637390
 30
0.000000
 70
40
  0
VERTEX
  8
STANDARDEBENE
 10
227.046036
 20
-204.790497
 30
0.000000
 70
40
  0
VERTEX
  8
STANDARDEBENE
 10
226.989136
 20
-208.503891
 30
0.000000
 70
40
  0
VERTEX
  8
STANDARDEBENE
 10
228.338913
 20
-192.485687
 30
0.000000
 70
48
  0
VERTEX
  8
STANDARDEBENE
 10
226.989105
 20
-196.490265
 30
0.000000
 70
48
  0
VERTEX
  8
STANDARDEBENE
 10
226.989105
 20
-208.503830
 30
0.000000
 70
48
  0
VERTEX
  8
STANDARDEBENE
 10
226.989105
 20
-208.503830
 30
0.000000
 70
40
  0
VERTEX
  8
STANDARDEBENE
 10
227.022308
 20
-211.654572
 30
0.000000
 70
40
  0
VERTEX
  8
STANDARDEBENE
 10
227.161438
 20
-214.522018
 30
0.000000
 70
40
  0
VERTEX
  8
STANDARDEBENE
 10
227.465729
 20
-217.082840
 30
0.000000
 70
40
  0
VERTEX
  8
STANDARDEBENE
 10
227.994431
 20
-219.313690
 30
0.000000
 70
40
  0
VERTEX
  8
STANDARDEBENE
 10
228.806793
 20
-221.191254
 30
0.000000
 70
40
  0
VERTEX
  8
STANDARDEBENE
 10
229.962097
 20
-222.692200
 30
0.000000
 70
40
  0
VERTEX
  8
STANDARDEBENE
 10
231.519547
 20
-223.793198
 30
0.000000
 70
40
  0
VERTEX
  8
STANDARDEBENE
 10
233.538437
 20
-224.470901
 30
0.000000
 70
40
  0
VERTEX
  8
STANDARDEBENE
 10
236.077988
 20
-224.701981
 30
0.000000
 70
40
  0
VERTEX
  8
STANDARDEBENE
 10
226.989105
 20
-218.357666
 30
0.000000
 70
48
  0
VERTEX
  8
STANDARDEBENE
 10
227.619064
 20
-224.701981
 30
0.000000
 70
48
  0
VERTEX
  8
STANDARDEBENE
 10
236.077972
 20
-224.701981
 30
0.000000
 70
48
  0
VERTEX
  8
STANDARDEBENE
 10
236.077972
 20
-224.701981
 30
0.000000
 70
40
  0
VERTEX
  8
STANDARDEBENE
 10
238.617569
 20
-224.470886
 30
0.000000
 70
40
  0
VERTEX
  8
STANDARDEBENE
 10
240.636490
 20
-223.793182
 30
0.000000
 70
40
  0
VERTEX
  8
STANDARDEBENE
 10
242.193985
 20
-222.692200
 30
0.000000
 70
40
  0
VERTEX
  8
STANDARDEBENE
 10
243.349304
 20
-221.191238
 30
0.000000
 70
40
  0
VERTEX
  8
STANDARDEBENE
 10
244.161682
 20
-219.313675
 30
0.000000
 70
40
  0
VERTEX
  8
STANDARDEBENE
 10
244.690399
 20
-217.082794
 30
0.000000
 70
40
  0
VERTEX
  8
STANDARDEBENE
 10
244.994705
 20
-214.521973
 30
0.000000
 70
40
  0
VERTEX
  8
STANDARDEBENE
 10
245.133835
 20
-211.654510
 30
0.000000
 70
40
  0
VERTEX
  8
STANDARDEBENE
 10
245.167053
 20
-208.503754
 30
0.000000
 70
40
  0
VERTEX
  8
STANDARDEBENE
 10
244.537048
 20
-224.701981
 30
0.000000
 70
48
  0
VERTEX
  8
STANDARDEBENE
 10
245.167007
 20
-218.357666
 30
0.000000
 70
48
  0
VERTEX
  8
STANDARDEBENE
 10
245.167007
 20
-208.503830
 30
0.000000
 70
48
  0
VERTEX
  8
STANDARDEBENE
 10
245.167007
 20
-208.503830
 30
0.000000
 70
40
  0
VERTEX
  8
STANDARDEBENE
 10
245.110107
 20
-204.790436
 30
0.000000
 70
40
  0
VERTEX
  8
STANDARDEBENE
 10
244.911728
 20
-201.637360
 30
0.000000
 70
40
  0
VERTEX
  8
STANDARDEBENE
 10
244.530426
 20
-199.011597
 30
0.000000
 70
40
  0
VERTEX
  8
STANDARDEBENE
 10
243.924683
 20
-196.880234
 30
0.000000
 70
40
  0
VERTEX
  8
STANDARDEBENE
 10
243.053055
 20
-195.210297
 30
0.000000
 70
40
  0
VERTEX
  8
STANDARDEBENE
 10
241.874039
 20
-193.968811
 30
0.000000
 70
40
  0
VERTEX
  8
STANDARDEBENE
 10
240.346176
 20
-193.122833
 30
0.000000
 70
40
  0
VERTEX
  8
STANDARDEBENE
 10
238.427963
 20
-192.639420
 30
0.000000
 70
40
  0
VERTEX
  8
STANDARDEBENE
 10
236.077942
 20
-192.485580
 30
0.000000
 70
40
  0
VERTEX
  8
STANDARDEBENE
 10
245.167007
 20
-196.490265
 30
0.000000
 70
48
  0
VERTEX
  8
STANDARDEBENE
 10
243.817215
 20
-192.485687
 30
0.000000
 70
48
  0
VERTEX
  8
STANDARDEBENE
 10
236.077972
 20
-192.485687
 30
0.000000
 70
48
  0
SEQEND
  8
STANDARDEBENE
  0
POLYLINE
  8
STANDARDEBENE
 66
1
 10
0.000000
 20
0.000000
 30
0.000000
 62
7
 70
12
  0
VERTEX
  8
STANDARDEBENE
 10
258.304688
 20
-197.075073
 30
0.000000
 70
48
  0
VERTEX
  8
STANDARDEBENE
 10
258.304688
 20
-197.075073
 30
0.000000
 70
40
  0
VERTEX
  8
STANDARDEBENE
 10
259.109802
 20
-197.151611
 30
0.000000
 70
40
  0
VERTEX
  8
STANDARDEBENE
 10
259.739807
 20
-197.414047
 30
0.000000
 70
40
  0
VERTEX
  8
STANDARDEBENE
 10
260.216095
 20
-197.911652
 30
0.000000
 70
40
  0
VERTEX
  8
STANDARDEBENE
 10
260.560211
 20
-198.693680
 30
0.000000
 70
40
  0
VERTEX
  8
STANDARDEBENE
 10
260.793610
 20
-199.809357
 30
0.000000
 70
40
  0
VERTEX
  8
STANDARDEBENE
 10
260.937775
 20
-201.307953
 30
0.000000
 70
40
  0
VERTEX
  8
STANDARDEBENE
 10
261.014130
 20
-203.238708
 30
0.000000
 70
40
  0
VERTEX
  8
STANDARDEBENE
 10
261.044220
 20
-205.650894
 30
0.000000
 70
40
  0
VERTEX
  8
STANDARDEBENE
 10
261.049500
 20
-208.593750
 30
0.000000
 70
40
  0
VERTEX
  8
STANDARDEBENE
 10
261.004272
 20
-197.075073
 30
0.000000
 70
48
  0
VERTEX
  8
STANDARDEBENE
 10
261.049408
 20
-198.919922
 30
0.000000
 70
48
  0
VERTEX
  8
STANDARDEBENE
 10
261.049408
 20
-208.593750
 30
0.000000
 70
48
  0
VERTEX
  8
STANDARDEBENE
 10
261.049408
 20
-208.593750
 30
0.000000
 70
40
  0
VERTEX
  8
STANDARDEBENE
 10
261.038239
 20
-211.489243
 30
0.000000
 70
40
  0
VERTEX
  8
STANDARDEBENE
 10
260.993378
 20
-213.876266
 30
0.000000
 70
40
  0
VERTEX
  8
STANDARDEBENE
 10
260.897766
 20
-215.799637
 30
0.000000
 70
40
  0
VERTEX
  8
STANDARDEBENE
 10
260.734406
 20
-217.304153
 30
0.000000
 70
40
  0
VERTEX
  8
STANDARDEBENE
 10
260.486267
 20
-218.434631
 30
0.000000
 70
40
  0
VERTEX
  8
STANDARDEBENE
 10
260.136261
 20
-219.235901
 30
0.000000
 70
40
  0
VERTEX
  8
STANDARDEBENE
 10
259.667358
 20
-219.752747
 30
0.000000
 70
40
  0
VERTEX
  8
STANDARDEBENE
 10
259.062592
 20
-220.029999
 30
0.000000
 70
40
  0
VERTEX
  8
STANDARDEBENE
 10
258.304840
 20
-220.112457
 30
0.000000
 70
40
  0
VERTEX
  8
STANDARDEBENE
 10
261.049408
 20
-218.087753
 30
0.000000
 70
48
  0
VERTEX
  8
STANDARDEBENE
 10
260.824463
 20
-220.112427
 30
0.000000
 70
48
  0
VERTEX
  8
STANDARDEBENE
 10
258.304688
 20
-220.112427
 30
0.000000
 70
48
  0
VERTEX
  8
STANDARDEBENE
 10
258.304688
 20
-220.112427
 30
0.000000
 70
40
  0
VERTEX
  8
STANDARDEBENE
 10
257.546936
 20
-220.029968
 30
0.000000
 70
40
  0
VERTEX
  8
STANDARDEBENE
 10
256.942108
 20
-219.752731
 30
0.000000
 70
40
  0
VERTEX
  8
STANDARDEBENE
 10
256.473206
 20
-219.235886
 30
0.000000
 70
40
  0
VERTEX
  8
STANDARDEBENE
 10
256.123169
 20
-218.434631
 30
0.000000
 70
40
  0
VERTEX
  8
STANDARDEBENE
 10
255.875000
 20
-217.304153
 30
0.000000
 70
40
  0
VERTEX
  8
STANDARDEBENE
 10
255.711624
 20
-215.799652
 30
0.000000
 70
40
  0
VERTEX
  8
STANDARDEBENE
 10
255.616013
 20
-213.876297
 30
0.000000
 70
40
  0
VERTEX
  8
STANDARDEBENE
 10
255.571136
 20
-211.489288
 30
0.000000
 70
40
  0
VERTEX
  8
STANDARDEBENE
 10
255.559967
 20
-208.593796
 30
0.000000
 70
40
  0
VERTEX
  8
STANDARDEBENE
 10
255.784943
 20
-220.112427
 30
0.000000
 70
48
  0
VERTEX
  8
STANDARDEBENE
 10
255.559982
 20
-218.087753
 30
0.000000
 70
48
  0
VERTEX
  8
STANDARDEBENE
 10
255.559982
 20
-208.593750
 30
0.000000
 70
48
  0
VERTEX
  8
STANDARDEBENE
 10
255.559982
 20
-208.593750
 30
0.000000
 70
40
  0
VERTEX
  8
STANDARDEBENE
 10
255.565231
 20
-205.650894
 30
0.000000
 70
40
  0
VERTEX
  8
STANDARDEBENE
 10
255.595291
 20
-203.238708
 30
0.000000
 70
40
  0
VERTEX
  8
STANDARDEBENE
 10
255.671631
 20
-201.307953
 30
0.000000
 70
40
  0
VERTEX
  8
STANDARDEBENE
 10
255.815765
 20
-199.809357
 30
0.000000
 70
40
  0
VERTEX
  8
STANDARDEBENE
 10
256.049133
 20
-198.693680
 30
0.000000
 70
40
  0
VERTEX
  8
STANDARDEBENE
 10
256.393250
 20
-197.911652
 30
0.000000
 70
40
  0
VERTEX
  8
STANDARDEBENE
 10
256.869537
 20
-197.414047
 30
0.000000
 70
40
  0
VERTEX
  8
STANDARDEBENE
 10
257.499542
 20
-197.151611
 30
0.000000
 70
40
  0
VERTEX
  8
STANDARDEBENE
 10
258.304718
 20
-197.075073
 30
0.000000
 70
40
  0
VERTEX
  8
STANDARDEBENE
 10
255.559982
 20
-198.919922
 30
0.000000
 70
48
  0
VERTEX
  8
STANDARDEBENE
 10
255.604965
 20
-197.075073
 30
0.000000
 70
48
  0
VERTEX
  8
STANDARDEBENE
 10
258.304688
 20
-197.075073
 30
0.000000
 70
48
  0
SEQEND
  8
STANDARDEBENE
  0
POLYLINE
  8
STANDARDEBENE
 66
1
 10
0.000000
 20
0.000000
 30
0.000000
 62
7
 70
12
  0
VERTEX
  8
STANDARDEBENE
 10
258.304688
 20
-192.485687
 30
0.000000
 70
48
  0
VERTEX
  8
STANDARDEBENE
 10
258.304688
 20
-192.485687
 30
0.000000
 70
40
  0
VERTEX
  8
STANDARDEBENE
 10
255.954681
 20
-192.639496
 30
0.000000
 70
40
  0
VERTEX
  8
STANDARDEBENE
 10
254.036484
 20
-193.122910
 30
0.000000
 70
40
  0
VERTEX
  8
STANDARDEBENE
 10
252.508606
 20
-193.968872
 30
0.000000
 70
40
  0
VERTEX
  8
STANDARDEBENE
 10
251.329605
 20
-195.210342
 30
0.000000
 70
40
  0
VERTEX
  8
STANDARDEBENE
 10
250.457962
 20
-196.880280
 30
0.000000
 70
40
  0
VERTEX
  8
STANDARDEBENE
 10
249.852219
 20
-199.011642
 30
0.000000
 70
40
  0
VERTEX
  8
STANDARDEBENE
 10
249.470901
 20
-201.637390
 30
0.000000
 70
40
  0
VERTEX
  8
STANDARDEBENE
 10
249.272522
 20
-204.790497
 30
0.000000
 70
40
  0
VERTEX
  8
STANDARDEBENE
 10
249.215607
 20
-208.503891
 30
0.000000
 70
40
  0
VERTEX
  8
STANDARDEBENE
 10
250.565460
 20
-192.485687
 30
0.000000
 70
48
  0
VERTEX
  8
STANDARDEBENE
 10
249.215668
 20
-196.490265
 30
0.000000
 70
48
  0
VERTEX
  8
STANDARDEBENE
 10
249.215668
 20
-208.503830
 30
0.000000
 70
48
  0
VERTEX
  8
STANDARDEBENE
 10
249.215668
 20
-208.503830
 30
0.000000
 70
40
  0
VERTEX
  8
STANDARDEBENE
 10
249.248871
 20
-211.654572
 30
0.000000
 70
40
  0
VERTEX
  8
STANDARDEBENE
 10
249.388000
 20
-214.522018
 30
0.000000
 70
40
  0
VERTEX
  8
STANDARDEBENE
 10
249.692291
 20
-217.082840
 30
0.000000
 70
40
  0
VERTEX
  8
STANDARDEBENE
 10
250.221008
 20
-219.313690
 30
0.000000
 70
40
  0
VERTEX
  8
STANDARDEBENE
 10
251.033401
 20
-221.191254
 30
0.000000
 70
40
  0
VERTEX
  8
STANDARDEBENE
 10
252.188705
 20
-222.692200
 30
0.000000
 70
40
  0
VERTEX
  8
STANDARDEBENE
 10
253.746216
 20
-223.793198
 30
0.000000
 70
40
  0
VERTEX
  8
STANDARDEBENE
 10
255.765137
 20
-224.470901
 30
0.000000
 70
40
  0
VERTEX
  8
STANDARDEBENE
 10
258.304749
 20
-224.701981
 30
0.000000
 70
40
  0
VERTEX
  8
STANDARDEBENE
 10
249.215668
 20
-218.357666
 30
0.000000
 70
48
  0
VERTEX
  8
STANDARDEBENE
 10
249.845612
 20
-224.701981
 30
0.000000
 70
48
  0
VERTEX
  8
STANDARDEBENE
 10
258.304688
 20
-224.701981
 30
0.000000
 70
48
  0
VERTEX
  8
STANDARDEBENE
 10
258.304688
 20
-224.701981
 30
0.000000
 70
40
  0
VERTEX
  8
STANDARDEBENE
 10
260.844238
 20
-224.470886
 30
0.000000
 70
40
  0
VERTEX
  8
STANDARDEBENE
 10
262.863129
 20
-223.793182
 30
0.000000
 70
40
  0
VERTEX
  8
STANDARDEBENE
 10
264.420593
 20
-222.692200
 30
0.000000
 70
40
  0
VERTEX
  8
STANDARDEBENE
 10
265.575867
 20
-221.191238
 30
0.000000
 70
40
  0
VERTEX
  8
STANDARDEBENE
 10
266.388245
 20
-219.313675
 30
0.000000
 70
40
  0
VERTEX
  8
STANDARDEBENE
 10
266.916931
 20
-217.082794
 30
0.000000
 70
40
  0
VERTEX
  8
STANDARDEBENE
 10
267.221222
 20
-214.521973
 30
0.000000
 70
40
  0
VERTEX
  8
STANDARDEBENE
 10
267.360352
 20
-211.654510
 30
0.000000
 70
40
  0
VERTEX
  8
STANDARDEBENE
 10
267.393555
 20
-208.503754
 30
0.000000
 70
40
  0
VERTEX
  8
STANDARDEBENE
 10
266.763611
 20
-224.701981
 30
0.000000
 70
48
  0
VERTEX
  8
STANDARDEBENE
 10
267.393555
 20
-218.357666
 30
0.000000
 70
48
  0
VERTEX
  8
STANDARDEBENE
 10
267.393555
 20
-208.503830
 30
0.000000
 70
48
  0
VERTEX
  8
STANDARDEBENE
 10
267.393555
 20
-208.503830
 30
0.000000
 70
40
  0
VERTEX
  8
STANDARDEBENE
 10
267.336639
 20
-204.790436
 30
0.000000
 70
40
  0
VERTEX
  8
STANDARDEBENE
 10
267.138275
 20
-201.637360
 30
0.000000
 70
40
  0
VERTEX
  8
STANDARDEBENE
 10
266.756989
 20
-199.011597
 30
0.000000
 70
40
  0
VERTEX
  8
STANDARDEBENE
 10
266.151245
 20
-196.880234
 30
0.000000
 70
40
  0
VERTEX
  8
STANDARDEBENE
 10
265.279633
 20
-195.210297
 30
0.000000
 70
40
  0
VERTEX
  8
STANDARDEBENE
 10
264.100647
 20
-193.968811
 30
0.000000
 70
40
  0
VERTEX
  8
STANDARDEBENE
 10
262.572815
 20
-193.122833
 30
0.000000
 70
40
  0
VERTEX
  8
STANDARDEBENE
 10
260.654663
 20
-192.639420
 30
0.000000
 70
40
  0
VERTEX
  8
STANDARDEBENE
 10
258.304688
 20
-192.485580
 30
0.000000
 70
40
  0
VERTEX
  8
STANDARDEBENE
 10
267.393555
 20
-196.490265
 30
0.000000
 70
48
  0
VERTEX
  8
STANDARDEBENE
 10
266.043762
 20
-192.485687
 30
0.000000
 70
48
  0
VERTEX
  8
STANDARDEBENE
 10
258.304688
 20
-192.485687
 30
0.000000
 70
48
  0
SEQEND
  8
STANDARDEBENE
  0
POLYLINE
  8
STANDARDEBENE
 66
1
 10
0.000000
 20
0.000000
 30
0.000000
 62
7
 70
12
  0
VERTEX
  8
STANDARDEBENE
 10
98.209732
 20
463.470825
 30
0.000000
 70
48
  0
VERTEX
  8
STANDARDEBENE
 10
98.209732
 20
463.470825
 30
0.000000
 70
40
  0
VERTEX
  8
STANDARDEBENE
 10
98.403297
 20
462.406189
 30
0.000000
 70
40
  0
VERTEX
  8
STANDARDEBENE
 10
98.922058
 20
459.553009
 30
0.000000
 70
40
  0
VERTEX
  8
STANDARDEBENE
 10
99.673103
 20
455.422272
 30
0.000000
 70
40
  0
VERTEX
  8
STANDARDEBENE
 10
100.563507
 20
450.524994
 30
0.000000
 70
40
  0
VERTEX
  8
STANDARDEBENE
 10
101.500374
 20
445.372223
 30
0.000000
 70
40
  0
VERTEX
  8
STANDARDEBENE
 10
102.390778
 20
440.474945
 30
0.000000
 70
40
  0
VERTEX
  8
STANDARDEBENE
 10
103.141815
 20
436.344208
 30
0.000000
 70
40
  0
VERTEX
  8
STANDARDEBENE
 10
103.660568
 20
433.491028
 30
0.000000
 70
40
  0
VERTEX
  8
STANDARDEBENE
 10
103.854126
 20
432.426392
 30
0.000000
 70
40
  0
VERTEX
  8
STANDARDEBENE
 10
98.209732
 20
463.470825
 30
0.000000
 70
48
  0
VERTEX
  8
STANDARDEBENE
 10
103.854179
 20
432.426392
 30
0.000000
 70
48
  0
VERTEX
  8
STANDARDEBENE
 10
103.854179
 20
432.426392
 30
0.000000
 70
48
  0
SEQEND
  8
STANDARDEBENE
  0
POLYLINE
  8
STANDARDEBENE
 66
1
 10
0.000000
 20
0.000000
 30
0.000000
 62
7
 70
12
  0
VERTEX
  8
STANDARDEBENE
 10
374.787506
 20
-209.629181
 30
0.000000
 70
48
  0
VERTEX
  8
STANDARDEBENE
 10
374.787506
 20
-209.629181
 30
0.000000
 70
40
  0
VERTEX
  8
STANDARDEBENE
 10
373.964844
 20
-209.822754
 30
0.000000
 70
40
  0
VERTEX
  8
STANDARDEBENE
 10
371.760101
 20
-210.341507
 30
0.000000
 70
40
  0
VERTEX
  8
STANDARDEBENE
 10
368.568146
 20
-211.092545
 30
0.000000
 70
40
  0
VERTEX
  8
STANDARDEBENE
 10
364.783905
 20
-211.982956
 30
0.000000
 70
40
  0
VERTEX
  8
STANDARDEBENE
 10
360.802185
 20
-212.919815
 30
0.000000
 70
40
  0
VERTEX
  8
STANDARDEBENE
 10
357.017944
 20
-213.810226
 30
0.000000
 70
40
  0
VERTEX
  8
STANDARDEBENE
 10
353.825989
 20
-214.561249
 30
0.000000
 70
40
  0
VERTEX
  8
STANDARDEBENE
 10
351.621216
 20
-215.080002
 30
0.000000
 70
40
  0
VERTEX
  8
STANDARDEBENE
 10
350.798553
 20
-215.273560
 30
0.000000
 70
40
  0
VERTEX
  8
STANDARDEBENE
 10
374.787506
 20
-209.629181
 30
0.000000
 70
48
  0
VERTEX
  8
STANDARDEBENE
 10
350.798615
 20
-215.273621
 30
0.000000
 70
48
  0
VERTEX
  8
STANDARDEBENE
 10
350.798615
 20
-215.273621
 30
0.000000
 70
48
  0
SEQEND
  8
STANDARDEBENE
  0
POLYLINE
  8
STANDARDEBENE
 66
1
 10
0.000000
 20
0.000000
 30
0.000000
 62
7
 70
12
  0
VERTEX
  8
STANDARDEBENE
 10
105.435822
 20
-207.852707
 30
0.000000
 70
48
  0
VERTEX
  8
STANDARDEBENE
 10
105.435822
 20
-207.852707
 30
0.000000
 70
40
  0
VERTEX
  8
STANDARDEBENE
 10
105.320335
 20
-209.141159
 30
0.000000
 70
40
  0
VERTEX
  8
STANDARDEBENE
 10
104.987366
 20
-210.353836
 30
0.000000
 70
40
  0
VERTEX
  8
STANDARDEBENE
 10
104.457161
 20
-211.470490
 30
0.000000
 70
40
  0
VERTEX
  8
STANDARDEBENE
 10
103.749977
 20
-212.470901
 30
0.000000
 70
40
  0
VERTEX
  8
STANDARDEBENE
 10
102.886040
 20
-213.334793
 30
0.000000
 70
40
  0
VERTEX
  8
STANDARDEBENE
 10
101.885612
 20
-214.041962
 30
0.000000
 70
40
  0
VERTEX
  8
STANDARDEBENE
 10
100.768936
 20
-214.572128
 30
0.000000
 70
40
  0
VERTEX
  8
STANDARDEBENE
 10
99.556252
 20
-214.905075
 30
0.000000
 70
40
  0
VERTEX
  8
STANDARDEBENE
 10
98.267807
 20
-215.020554
 30
0.000000
 70
40
  0
VERTEX
  8
STANDARDEBENE
 10
105.435822
 20
-211.811478
 30
0.000000
 70
48
  0
VERTEX
  8
STANDARDEBENE
 10
102.226532
 20
-215.020584
 30
0.000000
 70
48
  0
VERTEX
  8
STANDARDEBENE
 10
98.267807
 20
-215.020584
 30
0.000000
 70
48
  0
VERTEX
  8
STANDARDEBENE
 10
98.267807
 20
-215.020584
 30
0.000000
 70
40
  0
VERTEX
  8
STANDARDEBENE
 10
96.979347
 20
-214.905106
 30
0.000000
 70
40
  0
VERTEX
  8
STANDARDEBENE
 10
95.766655
 20
-214.572144
 30
0.000000
 70
40
  0
VERTEX
  8
STANDARDEBENE
 10
94.649963
 20
-214.041962
 30
0.000000
 70
40
  0
VERTEX
  8
STANDARDEBENE
 10
93.649529
 20
-213.334808
 30
0.000000
 70
40
  0
VERTEX
  8
STANDARDEBENE
 10
92.785591
 20
-212.470901
 30
0.000000
 70
40
  0
VERTEX
  8
STANDARDEBENE
 10
92.078392
 20
-211.470490
 30
0.000000
 70
40
  0
VERTEX
  8
STANDARDEBENE
 10
91.548187
 20
-210.353821
 30
0.000000
 70
40
  0
VERTEX
  8
STANDARDEBENE
 10
91.215210
 20
-209.141129
 30
0.000000
 70
40
  0
VERTEX
  8
STANDARDEBENE
 10
91.099716
 20
-207.852676
 30
0.000000
 70
40
  0
VERTEX
  8
STANDARDEBENE
 10
94.309036
 20
-215.020584
 30
0.000000
 70
48
  0
VERTEX
  8
STANDARDEBENE
 10
91.099747
 20
-211.811478
 30
0.000000
 70
48
  0
VERTEX
  8
STANDARDEBENE
 10
91.099747
 20
-207.852707
 30
0.000000
 70
48
  0
VERTEX
  8
STANDARDEBENE
 10
91.099747
 20
-207.852707
 30
0.000000
 70
40
  0
VERTEX
  8
STANDARDEBENE
 10
91.215233
 20
-206.564209
 30
0.000000
 70
40
  0
VERTEX
  8
STANDARDEBENE
 10
91.548203
 20
-205.351501
 30
0.000000
 70
40
  0
VERTEX
  8
STANDARDEBENE
 10
92.078400
 20
-204.234818
 30
0.000000
 70
40
  0
VERTEX
  8
STANDARDEBENE
 10
92.785591
 20
-203.234390
 30
0.000000
 70
40
  0
VERTEX
  8
STANDARDEBENE
 10
93.649521
 20
-202.370468
 30
0.000000
 70
40
  0
VERTEX
  8
STANDARDEBENE
 10
94.649956
 20
-201.663315
 30
0.000000
 70
40
  0
VERTEX
  8
STANDARDEBENE
 10
95.766640
 20
-201.133133
 30
0.000000
 70
40
  0
VERTEX
  8
STANDARDEBENE
 10
96.979324
 20
-200.800186
 30
0.000000
 70
40
  0
VERTEX
  8
STANDARDEBENE
 10
98.267776
 20
-200.684708
 30
0.000000
 70
40
  0
VERTEX
  8
STANDARDEBENE
 10
91.099747
 20
-203.893784
 30
0.000000
 70
48
  0
VERTEX
  8
STANDARDEBENE
 10
94.309036
 20
-200.684677
 30
0.000000
 70
48
  0
VERTEX
  8
STANDARDEBENE
 10
98.267807
 20
-200.684677
 30
0.000000
 70
48
  0
VERTEX
  8
STANDARDEBENE
 10
98.267807
 20
-200.684677
 30
0.000000
 70
40
  0
VERTEX
  8
STANDARDEBENE
 10
99.556252
 20
-200.800156
 30
0.000000
 70
40
  0
VERTEX
  8
STANDARDEBENE
 10
100.768936
 20
-201.133118
 30
0.000000
 70
40
  0
VERTEX
  8
STANDARDEBENE
 10
101.885612
 20
-201.663300
 30
0.000000
 70
40
  0
VERTEX
  8
STANDARDEBENE
 10
102.886040
 20
-202.370468
 30
0.000000
 70
40
  0
VERTEX
  8
STANDARDEBENE
 10
103.749977
 20
-203.234390
 30
0.000000
 70
40
  0
VERTEX
  8
STANDARDEBENE
 10
104.457161
 20
-204.234818
 30
0.000000
 70
40
  0
VERTEX
  8
STANDARDEBENE
 10
104.987366
 20
-205.351517
 30
0.000000
 70
40
  0
VERTEX
  8
STANDARDEBENE
 10
105.320335
 20
-206.564240
 30
0.000000
 70
40
  0
VERTEX
  8
STANDARDEBENE
 10
105.435822
 20
-207.852737
 30
0.000000
 70
40
  0
VERTEX
  8
STANDARDEBENE
 10
102.226532
 20
-200.684677
 30
0.000000
 70
48
  0
VERTEX
  8
STANDARDEBENE
 10
105.435822
 20
-203.893784
 30
0.000000
 70
48
  0
VERTEX
  8
STANDARDEBENE
 10
105.435822
 20
-207.852707
 30
0.000000
 70
48
  0
SEQEND
  8
STANDARDEBENE
  0
ENDSEC
  0
EOF
