  0
SECTION
  2
HEADER
  9
$ACADVER
  1
AC1021
  9
$ACADMAINTVER
 70
    25
  9
$DWGCODEPAGE
  3
UNDEFINED
  9
$INSBASE
 10
0.0
 20
0.0
 30
0.0
  9
$EXTMIN
 10
1.000000000000000E+20
 20
1.000000000000000E+20
 30
1.000000000000000E+20
  9
$EXTMAX
 10
-1.000000000000000E+20
 20
-1.000000000000000E+20
 30
-1.000000000000000E+20
  9
$LIMMIN
 10
0.0
 20
0.0
  9
$LIMMAX
 10
12.0
 20
9.0
  9
$ORTHOMODE
 70
     0
  9
$REGENMODE
 70
     1
  9
$FILLMODE
 70
     1
  9
$QTEXTMODE
 70
     0
  9
$MIRRTEXT
 70
     1
  9
$LTSCALE
 40
1.0
  9
$ATTMODE
 70
     1
  9
$TEXTSIZE
 40
0.2
  9
$TRACEWID
 40
0.05
  9
$TEXTSTYLE
  7
Standard
  9
$CLAYER
  8
0
  9
$CELTYPE
  6
ByLayer
  9
$CECOLOR
 62
   256
  9
$CELTSCALE
 40
1.0
  9
$DISPSILH
 70
     0
  9
$DIMSCALE
 40
1.0
  9
$DIMASZ
 40
0.18
  9
$DIMEXO
 40
0.0625
  9
$DIMDLI
 40
0.38
  9
$DIMRND
 40
0.0
  9
$DIMDLE
 40
0.0
  9
$DIMEXE
 40
0.18
  9
$DIMTP
 40
0.0
  9
$DIMTM
 40
0.0
  9
$DIMTXT
 40
0.18
  9
$DIMCEN
 40
0.09
  9
$DIMTSZ
 40
0.0
  9
$DIMTOL
 70
     0
  9
$DIMLIM
 70
     0
  9
$DIMTIH
 70
     1
  9
$DIMTOH
 70
     1
  9
$DIMSE1
 70
     0
  9
$DIMSE2
 70
     0
  9
$DIMTAD
 70
     0
  9
$DIMZIN
 70
     0
  9
$DIMBLK
  1

  9
$DIMASO
 70
     1
  9
$DIMSHO
 70
     1
  9
$DIMPOST
  1

  9
$DIMAPOST
  1

  9
$DIMALT
 70
     0
  9
$DIMALTD
 70
     2
  9
$DIMALTF
 40
25.4
  9
$DIMLFAC
 40
1.0
  9
$DIMTOFL
 70
     0
  9
$DIMTVP
 40
0.0
  9
$DIMTIX
 70
     0
  9
$DIMSOXD
 70
     0
  9
$DIMSAH
 70
     0
  9
$DIMBLK1
  1

  9
$DIMBLK2
  1

  9
$DIMSTYLE
  2
Standard
  9
$DIMCLRD
 70
     0
  9
$DIMCLRE
 70
     0
  9
$DIMCLRT
 70
     0
  9
$DIMTFAC
 40
1.0
  9
$DIMGAP
 40
0.09
  9
$DIMJUST
 70
     0
  9
$DIMSD1
 70
     0
  9
$DIMSD2
 70
     0
  9
$DIMTOLJ
 70
     1
  9
$DIMTZIN
 70
     0
  9
$DIMALTZ
 70
     0
  9
$DIMALTTZ
 70
     0
  9
$DIMUPT
 70
     0
  9
$DIMDEC
 70
     4
  9
$DIMTDEC
 70
     4
  9
$DIMALTU
 70
     2
  9
$DIMALTTD
 70
     2
  9
$DIMTXSTY
  7
Standard
  9
$DIMAUNIT
 70
     0
  9
$DIMADEC
 70
     0
  9
$DIMALTRND
 40
0.0
  9
$DIMAZIN
 70
     0
  9
$DIMDSEP
 70
    46
  9
$DIMATFIT
 70
     3
  9
$DIMFRAC
 70
     0
  9
$DIMLDRBLK
  1

  9
$DIMLUNIT
 70
     2
  9
$DIMLWD
 70
    -2
  9
$DIMLWE
 70
    -2
  9
$DIMTMOVE
 70
     0
  9
$DIMFXL
 40
1.0
  9
$DIMFXLON
 70
     0
  9
$DIMJOGANG
 40
0.7853981633974483
  9
$DIMTFILL
 70
     0
  9
$DIMTFILLCLR
 70
     0
  9
$DIMARCSYM
 70
     0
  9
$DIMLTYPE
  6

  9
$DIMLTEX1
  6

  9
$DIMLTEX2
  6

  9
$LUNITS
 70
     2
  9
$LUPREC
 70
     4
  9
$SKETCHINC
 40
0.1
  9
$FILLETRAD
 40
0.5
  9
$AUNITS
 70
     0
  9
$AUPREC
 70
     0
  9
$MENU
  1
.
  9
$ELEVATION
 40
0.0
  9
$PELEVATION
 40
0.0
  9
$THICKNESS
 40
0.0
  9
$LIMCHECK
 70
     0
  9
$CHAMFERA
 40
0.5
  9
$CHAMFERB
 40
0.5
  9
$CHAMFERC
 40
1.0
  9
$CHAMFERD
 40
0.0
  9
$SKPOLY
 70
     0
  9
$TDCREATE
 40
2459906.434861099
  9
$TDUCREATE
 40
2459906.393194444
  9
$TDUPDATE
 40
2459906.434861099
  9
$TDUUPDATE
 40
2459906.393194444
  9
$TDINDWG
 40
0.0000000116
  9
$TDUSRTIMER
 40
0.0000000116
  9
$USRTIMER
 70
     1
  9
$ANGBASE
 50
0.0
  9
$ANGDIR
 70
     0
  9
$PDMODE
 70
     0
  9
$PDSIZE
 40
0.0
  9
$PLINEWID
 40
0.0
  9
$SPLFRAME
 70
     0
  9
$SPLINETYPE
 70
     6
  9
$SPLINESEGS
 70
     8
  9
$HANDSEED
  5
158
  9
$SURFTAB1
 70
     6
  9
$SURFTAB2
 70
     6
  9
$SURFTYPE
 70
     6
  9
$SURFU
 70
     6
  9
$SURFV
 70
     6
  9
$UCSBASE
  2

  9
$UCSNAME
  2

  9
$UCSORG
 10
0.0
 20
0.0
 30
0.0
  9
$UCSXDIR
 10
1.0
 20
0.0
 30
0.0
  9
$UCSYDIR
 10
0.0
 20
1.0
 30
0.0
  9
$UCSORTHOREF
  2

  9
$UCSORTHOVIEW
 70
     0
  9
$UCSORGTOP
 10
0.0
 20
0.0
 30
0.0
  9
$UCSORGBOTTOM
 10
0.0
 20
0.0
 30
0.0
  9
$UCSORGLEFT
 10
0.0
 20
0.0
 30
0.0
  9
$UCSORGRIGHT
 10
0.0
 20
0.0
 30
0.0
  9
$UCSORGFRONT
 10
0.0
 20
0.0
 30
0.0
  9
$UCSORGBACK
 10
0.0
 20
0.0
 30
0.0
  9
$PUCSBASE
  2

  9
$PUCSNAME
  2

  9
$PUCSORG
 10
0.0
 20
0.0
 30
0.0
  9
$PUCSXDIR
 10
1.0
 20
0.0
 30
0.0
  9
$PUCSYDIR
 10
0.0
 20
1.0
 30
0.0
  9
$PUCSORTHOREF
  2

  9
$PUCSORTHOVIEW
 70
     0
  9
$PUCSORGTOP
 10
0.0
 20
0.0
 30
0.0
  9
$PUCSORGBOTTOM
 10
0.0
 20
0.0
 30
0.0
  9
$PUCSORGLEFT
 10
0.0
 20
0.0
 30
0.0
  9
$PUCSORGRIGHT
 10
0.0
 20
0.0
 30
0.0
  9
$PUCSORGFRONT
 10
0.0
 20
0.0
 30
0.0
  9
$PUCSORGBACK
 10
0.0
 20
0.0
 30
0.0
  9
$USERI1
 70
     0
  9
$USERI2
 70
     0
  9
$USERI3
 70
     0
  9
$USERI4
 70
     0
  9
$USERI5
 70
     0
  9
$USERR1
 40
0.0
  9
$USERR2
 40
0.0
  9
$USERR3
 40
0.0
  9
$USERR4
 40
0.0
  9
$USERR5
 40
0.0
  9
$WORLDVIEW
 70
     1
  9
$SHADEDGE
 70
     3
  9
$SHADEDIF
 70
    70
  9
$TILEMODE
 70
     1
  9
$MAXACTVP
 70
    64
  9
$PINSBASE
 10
0.0
 20
0.0
 30
0.0
  9
$PLIMCHECK
 70
     0
  9
$PEXTMIN
 10
1.000000000000000E+20
 20
1.000000000000000E+20
 30
1.000000000000000E+20
  9
$PEXTMAX
 10
-1.000000000000000E+20
 20
-1.000000000000000E+20
 30
-1.000000000000000E+20
  9
$PLIMMIN
 10
0.0
 20
0.0
  9
$PLIMMAX
 10
12.0
 20
9.0
  9
$UNITMODE
 70
     0
  9
$VISRETAIN
 70
     1
  9
$PLINEGEN
 70
     0
  9
$PSLTSCALE
 70
     1
  9
$TREEDEPTH
 70
  3020
  9
$CMLSTYLE
  2
Standard
  9
$CMLJUST
 70
     0
  9
$CMLSCALE
 40
1.0
  9
$PROXYGRAPHICS
 70
     1
  9
$MEASUREMENT
 70
     0
  9
$CELWEIGHT
370
    -1
  9
$ENDCAPS
280
     0
  9
$JOINSTYLE
280
     0
  9
$LWDISPLAY
290
     1
  9
$INSUNITS
 70
     1
  9
$HYPERLINKBASE
  1

  9
$STYLESHEET
  1

  9
$XEDIT
290
     1
  9
$CEPSNTYPE
380
     0
  9
$PSTYLEMODE
290
     1
  9
$FINGERPRINTGUID
  2
{023D379C-82F2-1DAD-5BF4-23FBD9AC4379}
  9
$VERSIONGUID
  2
{FAEB1C32-E019-11D5-929B-00C0DF256EC4}
  9
$EXTNAMES
290
     1
  9
$PSVPSCALE
 40
0.0
  9
$OLESTARTUP
290
     0
  9
$SORTENTS
280
   127
  9
$INDEXCTL
280
     0
  9
$HIDETEXT
280
     1
  9
$XCLIPFRAME
290
     0
  9
$HALOGAP
280
     0
  9
$OBSCOLOR
 70
   257
  9
$OBSLTYPE
280
     0
  9
$INTERSECTIONDISPLAY
280
     0
  9
$INTERSECTIONCOLOR
 70
   257
  9
$DIMASSOC
280
     2
  9
$PROJECTNAME
  1

  9
$CAMERADISPLAY
290
     0
  9
$LENSLENGTH
 40
50.0
  9
$CAMERAHEIGHT
 40
0.0
  9
$STEPSPERSEC
 40
2.0
  9
$STEPSIZE
 40
6.0
  9
$3DDWFPREC
 40
2.0
  9
$PSOLWIDTH
 40
0.25
  9
$PSOLHEIGHT
 40
4.0
  9
$LOFTANG1
 40
1.570796326794897
  9
$LOFTANG2
 40
1.570796326794897
  9
$LOFTMAG1
 40
0.0
  9
$LOFTMAG2
 40
0.0
  9
$LOFTPARAM
 70
     7
  9
$LOFTNORMALS
280
     1
  9
$LATITUDE
 40
37.795
  9
$LONGITUDE
 40
-122.394
  9
$NORTHDIRECTION
 40
0.0
  9
$TIMEZONE
 70
 -8000
  9
$LIGHTGLYPHDISPLAY
280
     1
  9
$TILEMODELIGHTSYNCH
280
     1
  9
$CMATERIAL
347
3C
  9
$SOLIDHIST
280
     1
  9
$SHOWHIST
280
     1
  9
$DWFFRAME
280
     2
  9
$DGNFRAME
280
     2
  9
$REALWORLDSCALE
290
     1
  9
$INTERFERECOLOR
 62
   256
  9
$CSHADOW
280
     0
  9
$SHADOWPLANELOCATION
 40
0.0
  0
ENDSEC
  0
SECTION
  2
CLASSES
  0
CLASS
  1
ACDBDICTIONARYWDFLT
  2
AcDbDictionaryWithDefault
  3
ObjectDBX Classes
 90
        0
 91
        4
280
     0
281
     0
  0
CLASS
  1
VISUALSTYLE
  2
AcDbVisualStyle
  3
ObjectDBX Classes
 90
     4095
 91
        4
280
     0
281
     0
  0
CLASS
  1
MATERIAL
  2
AcDbMaterial
  3
ObjectDBX Classes
 90
     1153
 91
        4
280
     0
281
     0
  0
CLASS
  1
SUN
  2
AcDbSun
  3
SCENEOE
 90
     1024
 91
        4
280
     0
281
     0
  0
ENDSEC
  0
SECTION
  2
TABLES
  0
TABLE
  2
VPORT
  5
8
330
0
100
AcDbSymbolTable
 70
     1
  0
VPORT
  5
29
330
8
100
AcDbSymbolTableRecord
100
AcDbViewportTableRecord
  2
*Active
 70
     0
 10
0.0
 20
0.0
 11
1.0
 21
1.0
 12
0.0
 22
0.0
 13
0.0
 23
0.0
 14
0.5
 24
0.5
 15
0.5
 25
0.5
 16
0.0
 26
0.0
 36
1.0
 17
105.0007777515277
 27
148.5000416295417
 37
0.0
 40
297.0000832590835
 41
0.7070757462376325
 42
50.0
 43
0.0
 44
0.0
 50
0.0
 51
0.0
 71
     0
 72
   100
 73
     1
 74
     3
 75
     0
 76
     0
 77
     0
 78
     0
281
     0
 65
     1
110
0.0
120
0.0
130
0.0
111
1.0
121
0.0
131
0.0
112
0.0
122
1.0
132
0.0
 79
     0
146
0.0
 60
     3
 61
     5
292
     1
282
     1
141
0.0
142
0.0
 63
   250
361
3F
  0
ENDTAB
  0
TABLE
  2
LTYPE
  5
5
330
0
100
AcDbSymbolTable
 70
     5
  0
LTYPE
  5
14
330
5
100
AcDbSymbolTableRecord
100
AcDbLinetypeTableRecord
  2
ByBlock
 70
     0
  3

 72
    65
 73
     0
 40
0.0
  0
LTYPE
  5
15
330
5
100
AcDbSymbolTableRecord
100
AcDbLinetypeTableRecord
  2
ByLayer
 70
     0
  3

 72
    65
 73
     0
 40
0.0
  0
LTYPE
  5
16
330
5
100
AcDbSymbolTableRecord
100
AcDbLinetypeTableRecord
  2
Continuous
 70
     0
  3
Solid line
 72
    65
 73
     0
 40
0.0
  0
LTYPE
  5
101
330
5
100
AcDbSymbolTableRecord
100
AcDbLinetypeTableRecord
  2
AI-Linetype-1
 70
     0
  3
Adobe Illustrator Linetype No. 1
 72
    65
 73
     2
 40
7.148196997444925
 49
3.574098498722463
 74
     0
 49
-3.574098498722463
 74
     0
  0
LTYPE
  5
10A
330
5
100
AcDbSymbolTableRecord
100
AcDbLinetypeTableRecord
  2
AI-Linetype-2
 70
     0
  3
Adobe Illustrator Linetype No. 2
 72
    65
 73
     4
 40
32.1670459587424
 49
21.44475046257501
 74
     0
 49
-3.574098498722463
 74
     0
 49
3.574098498722463
 74
     0
 49
-3.574098498722463
 74
     0
  0
LTYPE
  5
123
330
5
100
AcDbSymbolTableRecord
100
AcDbLinetypeTableRecord
  2
AI-Linetype-3
 70
     0
  3
Adobe Illustrator Linetype No. 3
 72
    65
 73
     2
 40
7.148182867170474
 49
3.574091433585237
 74
     0
 49
-3.574091433585237
 74
     0
  0
LTYPE
  5
12C
330
5
100
AcDbSymbolTableRecord
100
AcDbLinetypeTableRecord
  2
AI-Linetype-4
 70
     0
  3
Adobe Illustrator Linetype No. 4
 72
    65
 73
     4
 40
32.16698169963716
 49
21.44470739888144
 74
     0
 49
-3.574091433585237
 74
     0
 49
3.574091433585237
 74
     0
 49
-3.574091433585237
 74
     0
  0
ENDTAB
  0
TABLE
  2
LAYER
  5
2
330
0
100
AcDbSymbolTable
 70
     1
  0
LAYER
  5
10
330
2
100
AcDbSymbolTableRecord
100
AcDbLayerTableRecord
  2
0
 70
     0
 62
     7
  6
Continuous
370
    -3
390
F
347
3E
  0
ENDTAB
  0
TABLE
  2
STYLE
  5
3
330
0
100
AcDbSymbolTable
 70
     1
  0
STYLE
  5
11
330
3
100
AcDbSymbolTableRecord
100
AcDbTextStyleTableRecord
  2
Standard
 70
     0
 40
0.0
 41
1.0
 50
0.0
 71
     0
 42
0.2
  3
txt
  4

  0
ENDTAB
  0
TABLE
  2
VIEW
  5
6
330
0
100
AcDbSymbolTable
 70
     0
  0
ENDTAB
  0
TABLE
  2
UCS
  5
7
330
0
100
AcDbSymbolTable
 70
     0
  0
ENDTAB
  0
TABLE
  2
APPID
  5
9
330
0
100
AcDbSymbolTable
 70
     1
  0
APPID
  5
12
330
9
100
AcDbSymbolTableRecord
100
AcDbRegAppTableRecord
  2
ACAD
 70
     0
  0
ENDTAB
  0
TABLE
  2
DIMSTYLE
  5
A
330
0
100
AcDbSymbolTable
 70
     1
100
AcDbDimStyleTable
  0
DIMSTYLE
105
27
330
A
100
AcDbSymbolTableRecord
100
AcDbDimStyleTableRecord
  2
Standard
 70
     0
178
     0
340
11
  0
ENDTAB
  0
TABLE
  2
BLOCK_RECORD
  5
1
330
0
100
AcDbSymbolTable
 70
    41
  0
BLOCK_RECORD
  5
1F
330
1
100
AcDbSymbolTableRecord
100
AcDbBlockTableRecord
  2
*Model_Space
340
22
 70
     0
280
     1
281
     0
  0
BLOCK_RECORD
  5
1B
330
1
100
AcDbSymbolTableRecord
100
AcDbBlockTableRecord
  2
*Paper_Space
340
1E
 70
     0
280
     1
281
     0
  0
BLOCK_RECORD
  5
23
330
1
100
AcDbSymbolTableRecord
100
AcDbBlockTableRecord
  2
*Paper_Space0
340
26
 70
     0
280
     1
281
     0
  0
BLOCK_RECORD
  5
40
330
1
100
AcDbSymbolTableRecord
100
AcDbBlockTableRecord
  2
block 2
340
0
102
{BLKREFS
331
41
102
}
 70
     0
280
     1
281
     0
  0
BLOCK_RECORD
  5
45
330
1
100
AcDbSymbolTableRecord
100
AcDbBlockTableRecord
  2
block 3
340
0
102
{BLKREFS
331
46
102
}
 70
     0
280
     1
281
     0
  0
BLOCK_RECORD
  5
4A
330
1
100
AcDbSymbolTableRecord
100
AcDbBlockTableRecord
  2
block 4
340
0
102
{BLKREFS
331
4B
102
}
 70
     0
280
     1
281
     0
  0
BLOCK_RECORD
  5
4F
330
1
100
AcDbSymbolTableRecord
100
AcDbBlockTableRecord
  2
block 5
340
0
102
{BLKREFS
331
50
102
}
 70
     0
280
     1
281
     0
  0
BLOCK_RECORD
  5
54
330
1
100
AcDbSymbolTableRecord
100
AcDbBlockTableRecord
  2
block 6
340
0
102
{BLKREFS
331
55
102
}
 70
     0
280
     1
281
     0
  0
BLOCK_RECORD
  5
5C
330
1
100
AcDbSymbolTableRecord
100
AcDbBlockTableRecord
  2
block 7
340
0
102
{BLKREFS
331
5D
102
}
 70
     0
280
     1
281
     0
  0
BLOCK_RECORD
  5
61
330
1
100
AcDbSymbolTableRecord
100
AcDbBlockTableRecord
  2
block 8
340
0
102
{BLKREFS
331
62
102
}
 70
     0
280
     1
281
     0
  0
BLOCK_RECORD
  5
69
330
1
100
AcDbSymbolTableRecord
100
AcDbBlockTableRecord
  2
block 9
340
0
102
{BLKREFS
331
6A
102
}
 70
     0
280
     1
281
     0
  0
BLOCK_RECORD
  5
71
330
1
100
AcDbSymbolTableRecord
100
AcDbBlockTableRecord
  2
block 10
340
0
102
{BLKREFS
331
72
102
}
 70
     0
280
     1
281
     0
  0
BLOCK_RECORD
  5
76
330
1
100
AcDbSymbolTableRecord
100
AcDbBlockTableRecord
  2
block 11
340
0
102
{BLKREFS
331
77
102
}
 70
     0
280
     1
281
     0
  0
BLOCK_RECORD
  5
7B
330
1
100
AcDbSymbolTableRecord
100
AcDbBlockTableRecord
  2
block 12
340
0
102
{BLKREFS
331
7C
102
}
 70
     0
280
     1
281
     0
  0
BLOCK_RECORD
  5
83
330
1
100
AcDbSymbolTableRecord
100
AcDbBlockTableRecord
  2
block 13
340
0
102
{BLKREFS
331
84
102
}
 70
     0
280
     1
281
     0
  0
BLOCK_RECORD
  5
88
330
1
100
AcDbSymbolTableRecord
100
AcDbBlockTableRecord
  2
block 14
340
0
102
{BLKREFS
331
89
102
}
 70
     0
280
     1
281
     0
  0
BLOCK_RECORD
  5
8D
330
1
100
AcDbSymbolTableRecord
100
AcDbBlockTableRecord
  2
block 15
340
0
102
{BLKREFS
331
8E
102
}
 70
     0
280
     1
281
     0
  0
BLOCK_RECORD
  5
92
330
1
100
AcDbSymbolTableRecord
100
AcDbBlockTableRecord
  2
block 16
340
0
102
{BLKREFS
331
93
102
}
 70
     0
280
     1
281
     0
  0
BLOCK_RECORD
  5
97
330
1
100
AcDbSymbolTableRecord
100
AcDbBlockTableRecord
  2
block 17
340
0
102
{BLKREFS
331
98
102
}
 70
     0
280
     1
281
     0
  0
BLOCK_RECORD
  5
9C
330
1
100
AcDbSymbolTableRecord
100
AcDbBlockTableRecord
  2
block 18
340
0
102
{BLKREFS
331
9D
102
}
 70
     0
280
     1
281
     0
  0
BLOCK_RECORD
  5
A1
330
1
100
AcDbSymbolTableRecord
100
AcDbBlockTableRecord
  2
block 19
340
0
102
{BLKREFS
331
A2
102
}
 70
     0
280
     1
281
     0
  0
BLOCK_RECORD
  5
A6
330
1
100
AcDbSymbolTableRecord
100
AcDbBlockTableRecord
  2
block 20
340
0
102
{BLKREFS
331
A7
102
}
 70
     0
280
     1
281
     0
  0
BLOCK_RECORD
  5
AB
330
1
100
AcDbSymbolTableRecord
100
AcDbBlockTableRecord
  2
block 21
340
0
102
{BLKREFS
331
AC
102
}
 70
     0
280
     1
281
     0
  0
BLOCK_RECORD
  5
B0
330
1
100
AcDbSymbolTableRecord
100
AcDbBlockTableRecord
  2
block 22
340
0
102
{BLKREFS
331
B1
102
}
 70
     0
280
     1
281
     0
  0
BLOCK_RECORD
  5
B5
330
1
100
AcDbSymbolTableRecord
100
AcDbBlockTableRecord
  2
block 23
340
0
102
{BLKREFS
331
B6
102
}
 70
     0
280
     1
281
     0
  0
BLOCK_RECORD
  5
BA
330
1
100
AcDbSymbolTableRecord
100
AcDbBlockTableRecord
  2
block 24
340
0
102
{BLKREFS
331
BB
102
}
 70
     0
280
     1
281
     0
  0
BLOCK_RECORD
  5
BF
330
1
100
AcDbSymbolTableRecord
100
AcDbBlockTableRecord
  2
block 25
340
0
102
{BLKREFS
331
C0
102
}
 70
     0
280
     1
281
     0
  0
BLOCK_RECORD
  5
C4
330
1
100
AcDbSymbolTableRecord
100
AcDbBlockTableRecord
  2
block 26
340
0
102
{BLKREFS
331
C5
102
}
 70
     0
280
     1
281
     0
  0
BLOCK_RECORD
  5
C9
330
1
100
AcDbSymbolTableRecord
100
AcDbBlockTableRecord
  2
block 27
340
0
102
{BLKREFS
331
CA
102
}
 70
     0
280
     1
281
     0
  0
BLOCK_RECORD
  5
CE
330
1
100
AcDbSymbolTableRecord
100
AcDbBlockTableRecord
  2
block 28
340
0
102
{BLKREFS
331
CF
102
}
 70
     0
280
     1
281
     0
  0
BLOCK_RECORD
  5
D6
330
1
100
AcDbSymbolTableRecord
100
AcDbBlockTableRecord
  2
block 29
340
0
102
{BLKREFS
331
D7
102
}
 70
     0
280
     1
281
     0
  0
BLOCK_RECORD
  5
DE
330
1
100
AcDbSymbolTableRecord
100
AcDbBlockTableRecord
  2
block 30
340
0
102
{BLKREFS
331
DF
102
}
 70
     0
280
     1
281
     0
  0
BLOCK_RECORD
  5
E3
330
1
100
AcDbSymbolTableRecord
100
AcDbBlockTableRecord
  2
block 31
340
0
102
{BLKREFS
331
E4
102
}
 70
     0
280
     1
281
     0
  0
BLOCK_RECORD
  5
E8
330
1
100
AcDbSymbolTableRecord
100
AcDbBlockTableRecord
  2
block 32
340
0
102
{BLKREFS
331
E9
102
}
 70
     0
280
     1
281
     0
  0
BLOCK_RECORD
  5
ED
330
1
100
AcDbSymbolTableRecord
100
AcDbBlockTableRecord
  2
block 33
340
0
102
{BLKREFS
331
EE
102
}
 70
     0
280
     1
281
     0
  0
BLOCK_RECORD
  5
F2
330
1
100
AcDbSymbolTableRecord
100
AcDbBlockTableRecord
  2
block 34
340
0
102
{BLKREFS
331
F3
102
}
 70
     0
280
     1
281
     0
  0
BLOCK_RECORD
  5
FA
330
1
100
AcDbSymbolTableRecord
100
AcDbBlockTableRecord
  2
block 35
340
0
102
{BLKREFS
331
FB
102
}
 70
     0
280
     1
281
     0
  0
BLOCK_RECORD
  5
103
330
1
100
AcDbSymbolTableRecord
100
AcDbBlockTableRecord
  2
block 36
340
0
102
{BLKREFS
331
104
102
}
 70
     0
280
     1
281
     0
  0
BLOCK_RECORD
  5
10C
330
1
100
AcDbSymbolTableRecord
100
AcDbBlockTableRecord
  2
block 37
340
0
102
{BLKREFS
331
10D
102
}
 70
     0
280
     1
281
     0
  0
BLOCK_RECORD
  5
114
330
1
100
AcDbSymbolTableRecord
100
AcDbBlockTableRecord
  2
block 38
340
0
102
{BLKREFS
331
115
102
}
 70
     0
280
     1
281
     0
  0
BLOCK_RECORD
  5
11C
330
1
100
AcDbSymbolTableRecord
100
AcDbBlockTableRecord
  2
block 39
340
0
102
{BLKREFS
331
11D
102
}
 70
     0
280
     1
281
     0
  0
BLOCK_RECORD
  5
125
330
1
100
AcDbSymbolTableRecord
100
AcDbBlockTableRecord
  2
block 40
340
0
102
{BLKREFS
331
126
102
}
 70
     0
280
     1
281
     0
  0
BLOCK_RECORD
  5
12E
330
1
100
AcDbSymbolTableRecord
100
AcDbBlockTableRecord
  2
block 41
340
0
102
{BLKREFS
331
12F
102
}
 70
     0
280
     1
281
     0
  0
ENDTAB
  0
ENDSEC
  0
SECTION
  2
BLOCKS
  0
BLOCK
  5
20
330
1F
100
AcDbEntity
  8
0
100
AcDbBlockBegin
  2
*Model_Space
 70
     0
 10
0.0
 20
0.0
 30
0.0
  3
*Model_Space
  1

  0
ENDBLK
  5
21
330
1F
100
AcDbEntity
  8
0
100
AcDbBlockEnd
  0
BLOCK
  5
1C
330
1B
100
AcDbEntity
 67
     1
  8
0
100
AcDbBlockBegin
  2
*Paper_Space
 70
     0
 10
0.0
 20
0.0
 30
0.0
  3
*Paper_Space
  1

  0
ENDBLK
  5
1D
330
1B
100
AcDbEntity
 67
     1
  8
0
100
AcDbBlockEnd
  0
BLOCK
  5
24
330
23
100
AcDbEntity
  8
0
100
AcDbBlockBegin
  2
*Paper_Space0
 70
     0
 10
0.0
 20
0.0
 30
0.0
  3
*Paper_Space0
  1

  0
ENDBLK
  5
25
330
23
100
AcDbEntity
  8
0
100
AcDbBlockEnd
  0
BLOCK
  5
42
330
40
100
AcDbEntity
  8
0
100
AcDbBlockBegin
  2
block 2
 70
     0
 10
0.0
 20
0.0
 30
0.0
  3
block 2
  1

  0
SPLINE
  5
44
330
40
100
AcDbEntity
  8
0
 62
   250
370
    25
100
AcDbSpline
210
0.0
220
0.0
230
1.0
 70
     8
 71
     3
 72
    35
 73
    31
 74
     0
 42
0.0000000001
 43
0.0000000001
 12
1.0
 22
0.0
 32
0.0
 13
1.0
 23
0.0
 33
0.0
 40
0.0
 40
0.0
 40
0.0
 40
0.0
 40
1.0
 40
1.0
 40
1.0
 40
2.0
 40
2.0
 40
2.0
 40
3.0
 40
3.0
 40
3.0
 40
4.0
 40
4.0
 40
4.0
 40
5.0
 40
5.0
 40
5.0
 40
6.0
 40
6.0
 40
6.0
 40
7.0
 40
7.0
 40
7.0
 40
8.0
 40
8.0
 40
8.0
 40
9.0
 40
9.0
 40
9.0
 40
10.0
 40
10.0
 40
10.0
 40
10.0
 10
793.6203207745364
 20
122.6958029902452
 30
0.0
 10
793.5383352208632
 20
122.6932277126018
 30
0.0
 10
793.4636874447942
 20
122.7301282663856
 30
0.0
 10
793.3990585573821
 20
122.7775768752113
 30
0.0
 10
793.2841235600038
 20
122.8618907600465
 30
0.0
 10
793.2008327285714
 20
122.9795068654882
 30
0.0
 10
793.1286191191031
 20
123.1024146373633
 30
0.0
 10
793.0220449548749
 20
123.2837776841863
 30
0.0
 10
792.9396360678696
 20
123.4766412860187
 30
0.0
 10
792.8669991250813
 20
123.6731032210142
 30
0.0
 10
792.7688563495487
 20
123.9384979304722
 30
0.0
 10
792.6884935736114
 20
124.2104543062857
 30
0.0
 10
792.6166327419156
 20
124.4843509597691
 30
0.0
 10
792.5258630217614
 20
124.8303553875646
 30
0.0
 10
792.4485694124105
 20
125.1794995374437
 30
0.0
 10
792.3790016362241
 20
125.5301606316857
 30
0.0
 10
792.2953933048049
 20
125.951518389198
 30
0.0
 10
792.2228974731356
 20
126.3750633688196
 30
0.0
 10
792.1567163635365
 20
126.7995697685482
 30
0.0
 10
791.9934508117002
 20
127.8466847446242
 30
0.0
 10
791.8686380367839
 20
128.8993383316892
 30
0.0
 10
791.762240261435
 20
129.9537205298341
 30
0.0
 10
791.632065264398
 20
131.2437935559243
 30
0.0
 10
791.5294774889718
 20
132.53647713751
 30
0.0
 10
791.4437524909252
 20
133.8302190524019
 30
0.0
 10
791.3456097153933
 20
135.3111095741278
 30
0.0
 10
791.2695508282434
 20
136.7934464847139
 30
0.0
 10
791.2089083296332
 20
138.2763478397141
 30
0.0
 10
791.0669505550966
 20
141.7475047048706
 30
0.0
 10
791.0095183341817
 20
145.2219071255218
 30
0.0
 10
791.0078602786614
 20
148.6958156572658
 30
0.0
  0
ENDBLK
  5
43
330
40
100
AcDbEntity
  8
0
100
AcDbBlockEnd
  0
BLOCK
  5
47
330
45
100
AcDbEntity
  8
0
100
AcDbBlockBegin
  2
block 3
 70
     0
 10
0.0
 20
0.0
 30
0.0
  3
block 3
  1

  0
SPLINE
  5
49
330
45
100
AcDbEntity
  8
0
 62
   250
370
    25
100
AcDbSpline
210
0.0
220
0.0
230
1.0
 70
     8
 71
     3
 72
    35
 73
    31
 74
     0
 42
0.0000000001
 43
0.0000000001
 12
1.0
 22
0.0
 32
0.0
 13
1.0
 23
0.0
 33
0.0
 40
0.0
 40
0.0
 40
0.0
 40
0.0
 40
1.0
 40
1.0
 40
1.0
 40
2.0
 40
2.0
 40
2.0
 40
3.0
 40
3.0
 40
3.0
 40
4.0
 40
4.0
 40
4.0
 40
5.0
 40
5.0
 40
5.0
 40
6.0
 40
6.0
 40
6.0
 40
7.0
 40
7.0
 40
7.0
 40
8.0
 40
8.0
 40
8.0
 40
9.0
 40
9.0
 40
9.0
 40
10.0
 40
10.0
 40
10.0
 40
10.0
 10
791.0078602786614
 20
148.6958156572658
 30
0.0
 10
791.0078602786614
 20
150.449756172752
 30
0.0
 10
791.024017500508
 20
152.2036614104773
 30
0.0
 10
791.0574608330805
 20
153.9572491481895
 30
0.0
 10
791.0893166656929
 20
155.6283574433491
 30
0.0
 10
791.1369063868191
 20
157.2992187940693
 30
0.0
 10
791.203898885298
 20
158.9693040337085
 30
0.0
 10
791.2647883283481
 20
160.4861778879414
 30
0.0
 10
791.3417291599252
 20
162.0024167422008
 30
0.0
 10
791.4413536020962
 20
163.5172797631593
 30
0.0
 10
791.5270433223569
 20
164.8201233445147
 30
0.0
 10
791.6294899866775
 20
166.1219791481039
 30
0.0
 10
791.7603352614752
 20
167.421048007305
 30
0.0
 10
791.8659569257296
 20
168.469679927808
 30
0.0
 10
791.990064145111
 20
169.5165126816708
 30
0.0
 10
792.150542752561
 20
170.5583007134376
 30
0.0
 10
792.2687938609665
 20
171.326050973671
 30
0.0
 10
792.4068358022614
 20
172.0910848450899
 30
0.0
 10
792.5996288534157
 20
172.8437362167843
 30
0.0
 10
792.6694788518178
 20
173.1164334327713
 30
0.0
 10
792.7464902389409
 20
173.3875078710239
 30
0.0
 10
792.8411405145638
 20
173.6524792538606
 30
0.0
 10
792.9119782907256
 20
173.8508461937647
 30
0.0
 10
792.9926585666639
 20
174.0457911893213
 30
0.0
 10
793.0940468976762
 20
174.23107007398
 30
0.0
 10
793.1640732849577
 20
174.3590578488429
 30
0.0
 10
793.2439774498014
 20
174.4824595126719
 30
0.0
 10
793.3540088361783
 20
174.5788031215831
 30
0.0
 10
793.4289035567009
 20
174.6443845089817
 30
0.0
 10
793.5177329991083
 20
174.697442285549
 30
0.0
 10
793.6203207745364
 20
174.6958195078017
 30
0.0
  0
ENDBLK
  5
48
330
45
100
AcDbEntity
  8
0
100
AcDbBlockEnd
  0
BLOCK
  5
4C
330
4A
100
AcDbEntity
  8
0
100
AcDbBlockBegin
  2
block 4
 70
     0
 10
0.0
 20
0.0
 30
0.0
  3
block 4
  1

  0
SPLINE
  5
4E
330
4A
100
AcDbEntity
  8
0
 62
   250
370
    25
100
AcDbSpline
210
0.0
220
0.0
230
1.0
 70
     8
 71
     3
 72
    20
 73
    16
 74
     0
 42
0.0000000001
 43
0.0000000001
 12
1.0
 22
0.0
 32
0.0
 13
1.0
 23
0.0
 33
0.0
 40
0.0
 40
0.0
 40
0.0
 40
0.0
 40
1.0
 40
1.0
 40
1.0
 40
2.0
 40
2.0
 40
2.0
 40
3.0
 40
3.0
 40
3.0
 40
4.0
 40
4.0
 40
4.0
 40
5.0
 40
5.0
 40
5.0
 40
5.0
 10
793.6203207745364
 20
174.6958195078017
 30
0.0
 10
793.9711935442989
 20
174.6958195078017
 30
0.0
 10
794.1973946502545
 20
174.1919470193244
 30
0.0
 10
794.3042157589227
 20
173.965393135609
 30
0.0
 10
794.6322990847581
 20
173.2694331514977
 30
0.0
 10
794.8086879696127
 20
172.5431695569868
 30
0.0
 10
794.9785151879598
 20
171.8029006849913
 30
0.0
 10
795.2261651823097
 20
170.7235065429829
 30
0.0
 10
795.4068932337275
 20
169.6353282345044
 30
0.0
 10
795.5649023967891
 20
168.5404118706359
 30
0.0
 10
795.8810618340063
 20
166.3499088651131
 30
0.0
 10
796.0931871069422
 20
164.1526678042002
 30
0.0
 10
796.2593101586998
 20
161.9469953545788
 30
0.0
 10
796.5918384844429
 20
157.5326518443067
 30
0.0
 10
796.726634870256
 20
153.1211305561829
 30
0.0
 10
796.7265995924702
 20
148.6958156572658
 30
0.0
  0
ENDBLK
  5
4D
330
4A
100
AcDbEntity
  8
0
100
AcDbBlockEnd
  0
BLOCK
  5
51
330
4F
100
AcDbEntity
  8
0
100
AcDbBlockBegin
  2
block 5
 70
     0
 10
0.0
 20
0.0
 30
0.0
  3
block 5
  1

  0
SPLINE
  5
53
330
4F
100
AcDbEntity
  8
0
 62
   250
370
    25
100
AcDbSpline
210
0.0
220
0.0
230
1.0
 70
     8
 71
     3
 72
    35
 73
    31
 74
     0
 42
0.0000000001
 43
0.0000000001
 12
1.0
 22
0.0
 32
0.0
 13
1.0
 23
0.0
 33
0.0
 40
0.0
 40
0.0
 40
0.0
 40
0.0
 40
1.0
 40
1.0
 40
1.0
 40
2.0
 40
2.0
 40
2.0
 40
3.0
 40
3.0
 40
3.0
 40
4.0
 40
4.0
 40
4.0
 40
5.0
 40
5.0
 40
5.0
 40
6.0
 40
6.0
 40
6.0
 40
7.0
 40
7.0
 40
7.0
 40
8.0
 40
8.0
 40
8.0
 40
9.0
 40
9.0
 40
9.0
 40
10.0
 40
10.0
 40
10.0
 40
10.0
 10
796.7265995924702
 20
148.6958156572658
 30
0.0
 10
796.7255059813896
 20
147.1041529158441
 30
0.0
 10
796.7080082040094
 20
145.5119257299949
 30
0.0
 10
796.6694495937812
 20
143.9204746552396
 30
0.0
 10
796.6284920947113
 20
142.2306691382861
 30
0.0
 10
796.5638279295263
 20
140.5417455657396
 30
0.0
 10
796.4754218204382
 20
138.853703937646
 30
0.0
 10
796.3317707126089
 20
136.1111742780672
 30
0.0
 10
796.125395717315
 20
133.3710787851032
 30
0.0
 10
795.7994996136532
 20
130.6443182918375
 30
0.0
 10
795.6683015610963
 20
129.5464385947009
 30
0.0
 10
795.517700731197
 20
128.4506755641668
 30
0.0
 10
795.3294937910568
 20
127.3609097557275
 30
0.0
 10
795.1762471278904
 20
126.4734883640754
 30
0.0
 10
794.9980943541802
 20
125.590027017701
 30
0.0
 10
794.7577821374472
 20
124.7221231705683
 30
0.0
 10
794.6786188059224
 20
124.4363026287557
 30
0.0
 10
794.5927526967696
 20
124.1521754201927
 30
0.0
 10
794.4899179769027
 20
123.8740807113571
 30
0.0
 10
794.4115660342454
 20
123.6621318326658
 30
0.0
 10
794.323371591811
 20
123.4537107315794
 30
0.0
 10
794.2166563164753
 20
123.2541796300526
 30
0.0
 10
794.1413382626449
 20
123.1132801923856
 30
0.0
 10
794.0567774312392
 20
122.9768257545109
 30
0.0
 10
793.9447352115693
 20
122.8625963155674
 30
0.0
 10
793.8965457682305
 20
122.8134896512605
 30
0.0
 10
793.843276325009
 20
122.7684752089848
 30
0.0
 10
793.7821046597322
 20
122.7373602104755
 30
0.0
 10
793.7320807719925
 20
122.7118896561472
 30
0.0
 10
793.6767652177032
 20
122.6956971569248
 30
0.0
 10
793.6203207745364
 20
122.6958029902452
 30
0.0
  0
ENDBLK
  5
52
330
4F
100
AcDbEntity
  8
0
100
AcDbBlockEnd
  0
BLOCK
  5
56
330
54
100
AcDbEntity
  8
0
100
AcDbBlockBegin
  2
block 6
 70
     0
 10
0.0
 20
0.0
 30
0.0
  3
block 6
  1

  0
POLYLINE
  5
58
330
54
100
AcDbEntity
  8
0
 62
   250
370
    25
100
AcDb2dPolyline
 66
     1
 10
0.0
 20
0.0
 30
0.0
  0
VERTEX
  5
59
330
58
100
AcDbEntity
  8
0
 62
   250
370
    25
100
AcDbVertex
100
AcDb2dVertex
 10
-644.8722044221175
 20
517.6958241727978
 30
0.0
  0
VERTEX
  5
5A
330
58
100
AcDbEntity
  8
0
 62
   250
370
    25
100
AcDbVertex
100
AcDb2dVertex
 10
-644.8722044221175
 20
-220.3041575804789
 30
0.0
  0
SEQEND
  5
5B
330
58
100
AcDbEntity
  8
0
 62
   250
370
    25
  0
ENDBLK
  5
57
330
54
100
AcDbEntity
  8
0
100
AcDbBlockEnd
  0
BLOCK
  5
5E
330
5C
100
AcDbEntity
  8
0
100
AcDbBlockBegin
  2
block 7
 70
     0
 10
0.0
 20
0.0
 30
0.0
  3
block 7
  1

  0
SPLINE
  5
60
330
5C
100
AcDbEntity
  8
0
 62
   250
370
    25
100
AcDbSpline
210
0.0
220
0.0
230
1.0
 70
     8
 71
     3
 72
     8
 73
     4
 74
     0
 42
0.0000000001
 43
0.0000000001
 12
1.0
 22
0.0
 32
0.0
 13
1.0
 23
0.0
 33
0.0
 40
0.0
 40
0.0
 40
0.0
 40
0.0
 40
1.0
 40
1.0
 40
1.0
 40
1.0
 10
-638.8721953925058
 20
523.6958332024095
 30
0.0
 10
-642.1859075390407
 20
523.6958332024095
 30
0.0
 10
-644.8722044221175
 20
521.0095363193262
 30
0.0
 10
-644.8722044221175
 20
517.6958241727978
 30
0.0
  0
ENDBLK
  5
5F
330
5C
100
AcDbEntity
  8
0
100
AcDbBlockEnd
  0
BLOCK
  5
63
330
61
100
AcDbEntity
  8
0
100
AcDbBlockBegin
  2
block 8
 70
     0
 10
0.0
 20
0.0
 30
0.0
  3
block 8
  1

  0
POLYLINE
  5
65
330
61
100
AcDbEntity
  8
0
 62
   250
370
    25
100
AcDb2dPolyline
 66
     1
 10
0.0
 20
0.0
 30
0.0
  0
VERTEX
  5
66
330
65
100
AcDbEntity
  8
0
 62
   250
370
    25
100
AcDbVertex
100
AcDb2dVertex
 10
849.1277861732714
 20
523.6958332024095
 30
0.0
  0
VERTEX
  5
67
330
65
100
AcDbEntity
  8
0
 62
   250
370
    25
100
AcDbVertex
100
AcDb2dVertex
 10
-638.8721953925058
 20
523.6958332024095
 30
0.0
  0
SEQEND
  5
68
330
65
100
AcDbEntity
  8
0
 62
   250
370
    25
  0
ENDBLK
  5
64
330
61
100
AcDbEntity
  8
0
100
AcDbBlockEnd
  0
BLOCK
  5
6B
330
69
100
AcDbEntity
  8
0
100
AcDbBlockBegin
  2
block 9
 70
     0
 10
0.0
 20
0.0
 30
0.0
  3
block 9
  1

  0
POLYLINE
  5
6D
330
69
100
AcDbEntity
  8
0
 62
   250
370
    25
100
AcDb2dPolyline
 66
     1
 10
0.0
 20
0.0
 30
0.0
  0
VERTEX
  5
6E
330
6D
100
AcDbEntity
  8
0
 62
   250
370
    25
100
AcDbVertex
100
AcDb2dVertex
 10
855.1277599251089
 20
-220.3041575804789
 30
0.0
  0
VERTEX
  5
6F
330
6D
100
AcDbEntity
  8
0
 62
   250
370
    25
100
AcDbVertex
100
AcDb2dVertex
 10
855.1277599251089
 20
517.6958241727978
 30
0.0
  0
SEQEND
  5
70
330
6D
100
AcDbEntity
  8
0
 62
   250
370
    25
  0
ENDBLK
  5
6C
330
69
100
AcDbEntity
  8
0
100
AcDbBlockEnd
  0
BLOCK
  5
73
330
71
100
AcDbEntity
  8
0
100
AcDbBlockBegin
  2
block 10
 70
     0
 10
0.0
 20
0.0
 30
0.0
  3
block 10
  1

  0
SPLINE
  5
75
330
71
100
AcDbEntity
  8
0
 62
   250
370
    25
100
AcDbSpline
210
0.0
220
0.0
230
1.0
 70
     8
 71
     3
 72
     8
 73
     4
 74
     0
 42
0.0000000001
 43
0.0000000001
 12
1.0
 22
0.0
 32
0.0
 13
1.0
 23
0.0
 33
0.0
 40
0.0
 40
0.0
 40
0.0
 40
0.0
 40
1.0
 40
1.0
 40
1.0
 40
1.0
 10
855.1277599251089
 20
517.6958241727978
 30
0.0
 10
855.1277599251089
 20
521.0095363193262
 30
0.0
 10
852.4414983198054
 20
523.6958332024095
 30
0.0
 10
849.1277861732714
 20
523.6958332024095
 30
0.0
  0
ENDBLK
  5
74
330
71
100
AcDbEntity
  8
0
100
AcDbBlockEnd
  0
BLOCK
  5
78
330
76
100
AcDbEntity
  8
0
100
AcDbBlockBegin
  2
block 11
 70
     0
 10
0.0
 20
0.0
 30
0.0
  3
block 11
  1

  0
SPLINE
  5
7A
330
76
100
AcDbEntity
  8
0
 62
   250
370
    25
100
AcDbSpline
210
0.0
220
0.0
230
1.0
 70
     8
 71
     3
 72
     8
 73
     4
 74
     0
 42
0.0000000001
 43
0.0000000001
 12
1.0
 22
0.0
 32
0.0
 13
1.0
 23
0.0
 33
0.0
 40
0.0
 40
0.0
 40
0.0
 40
0.0
 40
1.0
 40
1.0
 40
1.0
 40
1.0
 10
849.1277861732714
 20
-226.3041666100907
 30
0.0
 10
852.4414983198054
 20
-226.3041666100907
 30
0.0
 10
855.1277599251089
 20
-223.6178697270014
 30
0.0
 10
855.1277599251089
 20
-220.3041575804789
 30
0.0
  0
ENDBLK
  5
79
330
76
100
AcDbEntity
  8
0
100
AcDbBlockEnd
  0
BLOCK
  5
7D
330
7B
100
AcDbEntity
  8
0
100
AcDbBlockBegin
  2
block 12
 70
     0
 10
0.0
 20
0.0
 30
0.0
  3
block 12
  1

  0
POLYLINE
  5
7F
330
7B
100
AcDbEntity
  8
0
 62
   250
370
    25
100
AcDb2dPolyline
 66
     1
 10
0.0
 20
0.0
 30
0.0
  0
VERTEX
  5
80
330
7F
100
AcDbEntity
  8
0
 62
   250
370
    25
100
AcDbVertex
100
AcDb2dVertex
 10
-638.8721953925058
 20
-226.3041666100907
 30
0.0
  0
VERTEX
  5
81
330
7F
100
AcDbEntity
  8
0
 62
   250
370
    25
100
AcDbVertex
100
AcDb2dVertex
 10
849.1277861732714
 20
-226.3041666100907
 30
0.0
  0
SEQEND
  5
82
330
7F
100
AcDbEntity
  8
0
 62
   250
370
    25
  0
ENDBLK
  5
7E
330
7B
100
AcDbEntity
  8
0
100
AcDbBlockEnd
  0
BLOCK
  5
85
330
83
100
AcDbEntity
  8
0
100
AcDbBlockBegin
  2
block 13
 70
     0
 10
0.0
 20
0.0
 30
0.0
  3
block 13
  1

  0
SPLINE
  5
87
330
83
100
AcDbEntity
  8
0
 62
   250
370
    25
100
AcDbSpline
210
0.0
220
0.0
230
1.0
 70
     8
 71
     3
 72
     8
 73
     4
 74
     0
 42
0.0000000001
 43
0.0000000001
 12
1.0
 22
0.0
 32
0.0
 13
1.0
 23
0.0
 33
0.0
 40
0.0
 40
0.0
 40
0.0
 40
0.0
 40
1.0
 40
1.0
 40
1.0
 40
1.0
 10
-644.8722044221175
 20
-220.3041575804789
 30
0.0
 10
-644.8722044221175
 20
-223.6178697270014
 30
0.0
 10
-642.1859075390407
 20
-226.3041666100907
 30
0.0
 10
-638.8721953925058
 20
-226.3041666100907
 30
0.0
  0
ENDBLK
  5
86
330
83
100
AcDbEntity
  8
0
100
AcDbBlockEnd
  0
BLOCK
  5
8A
330
88
100
AcDbEntity
  8
0
100
AcDbBlockBegin
  2
block 14
 70
     0
 10
0.0
 20
0.0
 30
0.0
  3
block 14
  1

  0
SPLINE
  5
8C
330
88
100
AcDbEntity
  8
0
 62
   250
370
    25
100
AcDbSpline
210
0.0
220
0.0
230
1.0
 70
     8
 71
     3
 72
    95
 73
    91
 74
     0
 42
0.0000000001
 43
0.0000000001
 12
1.0
 22
0.0
 32
0.0
 13
1.0
 23
0.0
 33
0.0
 40
0.0
 40
0.0
 40
0.0
 40
0.0
 40
1.0
 40
1.0
 40
1.0
 40
2.0
 40
2.0
 40
2.0
 40
3.0
 40
3.0
 40
3.0
 40
4.0
 40
4.0
 40
4.0
 40
5.0
 40
5.0
 40
5.0
 40
6.0
 40
6.0
 40
6.0
 40
7.0
 40
7.0
 40
7.0
 40
8.0
 40
8.0
 40
8.0
 40
9.0
 40
9.0
 40
9.0
 40
10.0
 40
10.0
 40
10.0
 40
11.0
 40
11.0
 40
11.0
 40
12.0
 40
12.0
 40
12.0
 40
13.0
 40
13.0
 40
13.0
 40
14.0
 40
14.0
 40
14.0
 40
15.0
 40
15.0
 40
15.0
 40
16.0
 40
16.0
 40
16.0
 40
17.0
 40
17.0
 40
17.0
 40
18.0
 40
18.0
 40
18.0
 40
19.0
 40
19.0
 40
19.0
 40
20.0
 40
20.0
 40
20.0
 40
21.0
 40
21.0
 40
21.0
 40
22.0
 40
22.0
 40
22.0
 40
23.0
 40
23.0
 40
23.0
 40
24.0
 40
24.0
 40
24.0
 40
25.0
 40
25.0
 40
25.0
 40
26.0
 40
26.0
 40
26.0
 40
27.0
 40
27.0
 40
27.0
 40
28.0
 40
28.0
 40
28.0
 40
29.0
 40
29.0
 40
29.0
 40
30.0
 40
30.0
 40
30.0
 40
30.0
 10
105.127795390383
 20
-161.6552430533447
 30
0.0
 10
11.05526392813382
 20
-161.660146664219
 30
0.0
 10
-83.01726753411471
 20
-161.5748097238742
 30
0.0
 10
-177.089622607483
 20
-161.3994791767664
 30
0.0
 10
-210.2299896282494
 20
-161.3377077908421
 30
0.0
 10
-243.3703213712424
 20
-161.264788627676
 30
0.0
 10
-276.5106178364488
 20
-161.1806511317334
 30
0.0
 10
-296.394830993354
 20
-161.1302039119302
 30
0.0
 10
-316.2790088724856
 20
-161.0756997478951
 30
0.0
 10
-336.1631867516043
 20
-161.0171033618282
 30
0.0
 10
-354.6760821620535
 20
-160.96252864222
 30
0.0
 10
-373.1889775725158
 20
-160.9044261450076
 30
0.0
 10
-391.7018377051721
 20
-160.843430870163
 30
0.0
 10
-392.796930457953
 20
-160.8398325370113
 30
0.0
 10
-393.8920232107142
 20
-160.8362342038596
 30
0.0
 10
-394.9871159634756
 20
-160.8327064262553
 30
0.0
 10
-397.6152045145561
 20
-160.8242750377637
 30
0.0
 10
-400.2432930656364
 20
-160.8164080936997
 30
0.0
 10
-402.8714168944904
 20
-160.8089644829427
 30
0.0
 10
-405.9373379355688
 20
-160.8002861500374
 30
0.0
 10
-409.003258976647
 20
-160.7921017059725
 30
0.0
 10
-412.0692152954988
 20
-160.7857517062833
 30
0.0
 10
-415.311772165873
 20
-160.7790136510486
 30
0.0
 10
-418.5543643140206
 20
-160.7742864290547
 30
0.0
 10
-421.7969211844076
 20
-160.7685008737803
 30
0.0
 10
-422.3869067264784
 20
-160.7674425404855
 30
0.0
 10
-422.9768922685623
 20
-160.7663489294305
 30
0.0
 10
-423.5668778106267
 20
-160.7647614295211
 30
0.0
 10
-427.0695024528487
 20
-160.7554480966294
 30
0.0
 10
-430.5722329283975
 20
-160.7289897645666
 30
0.0
 10
-434.0739403484063
 20
-160.6483094906811
 30
0.0
 10
-437.2053722213235
 20
-160.576166438596
 30
0.0
 10
-440.3359927053607
 20
-160.4606669996906
 30
0.0
 10
-443.4630854117159
 20
-160.2809972861231
 30
0.0
 10
-446.4868142315376
 20
-160.1072542389119
 30
0.0
 10
-449.5072622180919
 20
-159.8735389723907
 30
0.0
 10
-452.5205135381494
 20
-159.5668692649162
 30
0.0
 10
-457.8711645270408
 20
-159.0222862355542
 30
0.0
 10
-463.1992377386699
 20
-158.247621550597
 30
0.0
 10
-468.4743942848385
 20
-157.2008241009587
 30
0.0
 10
-473.8558780507952
 20
-156.132930541212
 30
0.0
 10
-479.1822932069039
 20
-154.7818622728755
 30
0.0
 10
-484.4153633651488
 20
-153.1334023521715
 30
0.0
 10
-489.3497718635442
 20
-151.5790282602766
 30
0.0
 10
-494.2011717527207
 20
-149.7602472366442
 30
0.0
 10
-498.9358727556777
 20
-147.6752601147267
 30
0.0
 10
-507.531797003771
 20
-143.8899194634872
 30
0.0
 10
-515.7431229273138
 20
-139.2270441322534
 30
0.0
 10
-523.3774102529309
 20
-133.7562018954187
 30
0.0
 10
-531.1784556302931
 20
-128.1658738310057
 30
0.0
 10
-538.3769918547467
 20
-121.7319130294066
 30
0.0
 10
-544.7953953192422
 20
-114.596347817097
 30
0.0
 10
-548.0347419119083
 20
-110.9950513236706
 30
0.0
 10
-551.0754040646832
 20
-107.2150376166114
 30
0.0
 10
-553.9021065001084
 20
-103.2813891947403
 30
0.0
 10
-556.7656036569209
 20
-99.29658799753226
 30
0.0
 10
-559.4095672076344
 20
-95.1541304190279
 30
0.0
 10
-561.8238018747112
 20
-90.882203402307
 30
0.0
 10
-564.2708448743741
 20
-86.55220916614539
 30
0.0
 10
-566.4819148238652
 20
-82.08921771417442
 30
0.0
 10
-568.4614567230919
 20
-77.52649598922494
 30
0.0
 10
-570.4446322333407
 20
-72.95534287577237
 30
0.0
 10
-572.1954683044585
 20
-68.28410671160843
 30
0.0
 10
-573.733649935993
 20
-63.54471388403107
 30
0.0
 10
-575.3297929550963
 20
-58.62678023171546
 30
0.0
 10
-576.6969479238577
 20
-53.63539824960491
 30
0.0
 10
-577.8773776191189
 20
-48.60147126954232
 30
0.0
 10
-579.1748942561461
 20
-43.06829320238152
 30
0.0
 10
-580.2468447872185
 20
-37.48368013768285
 30
0.0
 10
-581.1782133770492
 20
-31.87719485183461
 30
0.0
 10
-581.7412114197491
 20
-28.48820001487159
 30
0.0
 10
-582.2528450191758
 20
-25.09119712272543
 30
0.0
 10
-582.7393961191789
 20
-21.69031367521257
 30
0.0
 10
-582.8717230605846
 20
-20.76561260858242
 30
0.0
 10
-583.0021450020553
 20
-19.84066459751284
 30
0.0
 10
-583.1312616657725
 20
-18.91554019757427
 30
0.0
 10
-583.2065797196215
 20
-18.37596661241983
 30
0.0
 10
-583.2814391623381
 20
-17.83632247171805
 30
0.0
 10
-583.355981105087
 20
-17.2966430532304
 30
0.0
 10
-583.3929874931281
 20
-17.02874362167572
 30
0.0
 10
-583.4298880478362
 20
-16.76087946788122
 30
0.0
 10
-583.466718046997
 20
-16.49298003633936
 30
0.0
 10
-583.8769280376371
 20
-13.50957379096116
 30
0.0
 10
-584.2758138618595
 20
-10.52468587899388
 30
0.0
 10
-584.6636224641048
 20
-7.538351578198991
 30
0.0
 10
-586.0793549317648
 20
3.364174564017712
 30
0.0
 10
-587.3474146250204
 20
14.28596237194252
 30
0.0
 10
-588.4666020994579
 20
25.22299017915382
 30
0.0
 10
-592.6636697813649
 20
66.23777931725908
 30
0.0
 10
-594.7674600110937
 20
107.4666692783907
 30
0.0
 10
-594.7681302888409
 20
148.6956745461724
 30
0.0
  0
ENDBLK
  5
8B
330
88
100
AcDbEntity
  8
0
100
AcDbBlockEnd
  0
BLOCK
  5
8F
330
8D
100
AcDbEntity
  8
0
100
AcDbBlockBegin
  2
block 15
 70
     0
 10
0.0
 20
0.0
 30
0.0
  3
block 15
  1

  0
SPLINE
  5
91
330
8D
100
AcDbEntity
  8
0
 62
   250
370
    25
100
AcDbSpline
210
0.0
220
0.0
230
1.0
 70
     8
 71
     3
 72
    71
 73
    67
 74
     0
 42
0.0000000001
 43
0.0000000001
 12
1.0
 22
0.0
 32
0.0
 13
1.0
 23
0.0
 33
0.0
 40
0.0
 40
0.0
 40
0.0
 40
0.0
 40
1.0
 40
1.0
 40
1.0
 40
2.0
 40
2.0
 40
2.0
 40
3.0
 40
3.0
 40
3.0
 40
4.0
 40
4.0
 40
4.0
 40
5.0
 40
5.0
 40
5.0
 40
6.0
 40
6.0
 40
6.0
 40
7.0
 40
7.0
 40
7.0
 40
8.0
 40
8.0
 40
8.0
 40
9.0
 40
9.0
 40
9.0
 40
10.0
 40
10.0
 40
10.0
 40
11.0
 40
11.0
 40
11.0
 40
12.0
 40
12.0
 40
12.0
 40
13.0
 40
13.0
 40
13.0
 40
14.0
 40
14.0
 40
14.0
 40
15.0
 40
15.0
 40
15.0
 40
16.0
 40
16.0
 40
16.0
 40
17.0
 40
17.0
 40
17.0
 40
18.0
 40
18.0
 40
18.0
 40
19.0
 40
19.0
 40
19.0
 40
20.0
 40
20.0
 40
20.0
 40
21.0
 40
21.0
 40
21.0
 40
22.0
 40
22.0
 40
22.0
 40
22.0
 10
806.9788860249573
 20
148.6958156572658
 30
0.0
 10
806.9790271360629
 20
108.7991814365156
 30
0.0
 10
805.0314116249948
 20
68.90290946683311
 30
0.0
 10
801.1551600468676
 20
29.1951266547438
 30
0.0
 10
800.1352795146145
 20
18.74793076840584
 30
0.0
 10
798.9819431520708
 20
8.3137876592316
 30
0.0
 10
797.6961387369956
 20
-2.104021839614007
 30
0.0
 10
797.0064934749781
 20
-7.69173934859578
 30
0.0
 10
796.278712936041
 20
-13.27476491337216
 30
0.0
 10
795.5137143424085
 20
-18.8526752006078
 30
0.0
 10
795.1981546273925
 20
-21.15342120102255
 30
0.0
 10
794.8762801902934
 20
-23.45328525707439
 30
0.0
 10
794.5385660313474
 20
-25.75082097987155
 30
0.0
 10
794.2767696484323
 20
-27.5318547830918
 30
0.0
 10
794.0054835435261
 20
-29.31151275304333
 30
0.0
 10
793.7181107723065
 20
-31.0886660008712
 30
0.0
 10
792.79524412672
 20
-36.79590461521843
 30
0.0
 10
791.7065719293614
 20
-42.47742573079672
 30
0.0
 10
790.3785752930294
 20
-48.10401934903278
 30
0.0
 10
789.1954292089528
 20
-53.11695605233181
 30
0.0
 10
787.8223122958696
 20
-58.08632470217244
 30
0.0
 10
786.2196781658164
 20
-62.98136307779105
 30
0.0
 10
784.672394867825
 20
-67.7073856282295
 30
0.0
 10
782.9111165747233
 20
-72.36412262644062
 30
0.0
 10
780.9197213424383
 20
-76.92088240723379
 30
0.0
 10
778.9252216657777
 20
-81.484803576583
 30
0.0
 10
776.6998642166021
 20
-85.94839475075575
 30
0.0
 10
774.2400153839066
 20
-90.27923565353163
 30
0.0
 10
771.9826962687988
 20
-94.25348879568422
 30
0.0
 10
769.5278921582128
 20
-98.11594666543049
 30
0.0
 10
766.8836816630586
 20
-101.8442078749792
 30
0.0
 10
764.1715967250113
 20
-105.6681776910322
 30
0.0
 10
761.2602629026206
 20
-109.3510011249725
 30
0.0
 10
758.1630857511437
 20
-112.8700298445795
 30
0.0
 10
751.7229158982525
 20
-120.1874167148179
 30
0.0
 10
744.4792241192744
 20
-126.7966727857519
 30
0.0
 10
736.6148904100276
 20
-132.55619306425
 30
0.0
 10
728.6887853133035
 20
-138.3609747294645
 30
0.0
 10
720.1323016198661
 20
-143.3026150472926
 30
0.0
 10
711.157846824865
 20
-147.3003631883312
 30
0.0
 10
706.0509652748555
 20
-149.5752858566695
 30
0.0
 10
700.8087581723795
 20
-151.5445265952692
 30
0.0
 10
695.4708777387474
 20
-153.2065331819784
 30
0.0
 10
690.5368572958989
 20
-154.7427744969817
 30
0.0
 10
685.5211335215782
 20
-156.016513880145
 30
0.0
 10
680.454962526198
 20
-157.0348068867181
 30
0.0
 10
675.1547587583797
 20
-158.100160446581
 30
0.0
 10
669.7993452696065
 20
-158.8859729087812
 30
0.0
 10
664.4211070591177
 20
-159.4341542712937
 30
0.0
 10
658.2564566443754
 20
-160.0624867410769
 30
0.0
 10
652.0617848414336
 20
-160.3786461703108
 30
0.0
 10
645.8671835940526
 20
-160.5345739405786
 30
0.0
 10
642.3548222853995
 20
-160.6229800474463
 30
0.0
 10
638.8424609767342
 20
-160.659845323457
 30
0.0
 10
635.3288296681071
 20
-160.6780133781358
 30
0.0
 10
634.1212713623553
 20
-160.6842575445046
 30
0.0
 10
632.9135719454966
 20
-160.6882792109634
 30
0.0
 10
631.7058725286508
 20
-160.6923361552222
 30
0.0
 10
616.1885189942126
 20
-160.7443003193863
 30
0.0
 10
600.6735996263885
 20
-160.7990514278493
 30
0.0
 10
585.1585744252442
 20
-160.8510861475735
 30
0.0
 10
523.6689505520379
 20
-161.0572847487769
 30
0.0
 10
462.1775980677768
 20
-161.2211852964419
 30
0.0
 10
400.6862103057293
 20
-161.3466330681881
 30
0.0
 10
302.166738667276
 20
-161.5476105585304
 30
0.0
 10
203.6472670288356
 20
-161.6499161091517
 30
0.0
 10
105.127795390383
 20
-161.6552430533447
 30
0.0
  0
ENDBLK
  5
90
330
8D
100
AcDbEntity
  8
0
100
AcDbBlockEnd
  0
BLOCK
  5
94
330
92
100
AcDbEntity
  8
0
100
AcDbBlockBegin
  2
block 16
 70
     0
 10
0.0
 20
0.0
 30
0.0
  3
block 16
  1

  0
SPLINE
  5
96
330
92
100
AcDbEntity
  8
0
 62
   250
370
    25
100
AcDbSpline
210
0.0
220
0.0
230
1.0
 70
     8
 71
     3
 72
    83
 73
    79
 74
     0
 42
0.0000000001
 43
0.0000000001
 12
1.0
 22
0.0
 32
0.0
 13
1.0
 23
0.0
 33
0.0
 40
0.0
 40
0.0
 40
0.0
 40
0.0
 40
1.0
 40
1.0
 40
1.0
 40
2.0
 40
2.0
 40
2.0
 40
3.0
 40
3.0
 40
3.0
 40
4.0
 40
4.0
 40
4.0
 40
5.0
 40
5.0
 40
5.0
 40
6.0
 40
6.0
 40
6.0
 40
7.0
 40
7.0
 40
7.0
 40
8.0
 40
8.0
 40
8.0
 40
9.0
 40
9.0
 40
9.0
 40
10.0
 40
10.0
 40
10.0
 40
11.0
 40
11.0
 40
11.0
 40
12.0
 40
12.0
 40
12.0
 40
13.0
 40
13.0
 40
13.0
 40
14.0
 40
14.0
 40
14.0
 40
15.0
 40
15.0
 40
15.0
 40
16.0
 40
16.0
 40
16.0
 40
17.0
 40
17.0
 40
17.0
 40
18.0
 40
18.0
 40
18.0
 40
19.0
 40
19.0
 40
19.0
 40
20.0
 40
20.0
 40
20.0
 40
21.0
 40
21.0
 40
21.0
 40
22.0
 40
22.0
 40
22.0
 40
23.0
 40
23.0
 40
23.0
 40
24.0
 40
24.0
 40
24.0
 40
25.0
 40
25.0
 40
25.0
 40
26.0
 40
26.0
 40
26.0
 40
26.0
 10
105.127795390383
 20
459.0469080124881
 30
0.0
 10
204.6386078395171
 20
459.0418280125997
 30
0.0
 10
304.1493850108781
 20
458.9372646816773
 30
0.0
 10
403.6599857933585
 20
458.7318069085778
 30
0.0
 10
462.3402638974005
 20
458.6106277446773
 30
0.0
 10
521.0204361680957
 20
458.4543824704757
 30
0.0
 10
579.7005378832448
 20
458.2627183081815
 30
0.0
 10
596.9784641552376
 20
458.2062738650257
 30
0.0
 10
614.2563904272305
 20
458.1467955330558
 30
0.0
 10
631.5343166992245
 20
458.0842127567116
 30
0.0
 10
631.7513103053888
 20
458.0834366456177
 30
0.0
 10
631.9683039115401
 20
458.0826252567572
 30
0.0
 10
632.1852622399185
 20
458.0818491456569
 30
0.0
 10
632.531936954214
 20
458.0805791456829
 30
0.0
 10
632.8785763907364
 20
458.0792738679359
 30
0.0
 10
633.2252511050447
 20
458.0779333124029
 30
0.0
 10
633.7894838699318
 20
458.0757108124545
 30
0.0
 10
634.3537166348195
 20
458.0733472014005
 30
0.0
 10
634.917914121933
 20
458.0706308125726
 30
0.0
 10
638.3667048764939
 20
458.0539091462863
 30
0.0
 10
641.8155661866022
 20
458.0228999803273
 30
0.0
 10
645.2634749967237
 20
457.9425019266163
 30
0.0
 10
648.6038924204292
 20
457.8646085950526
 30
0.0
 10
651.9434278996943
 20
457.7403602645638
 30
0.0
 10
655.2791181012782
 20
457.5465088801013
 30
0.0
 10
658.314629698611
 20
457.3700847174588
 30
0.0
 10
661.3469310182364
 20
457.1359813894742
 30
0.0
 10
664.372141504685
 20
456.8301230631278
 30
0.0
 10
665.358472871044
 20
456.7304280654094
 30
0.0
 10
666.3440986818565
 20
456.6230425123137
 30
0.0
 10
667.3286661593742
 20
456.5071550149552
 30
0.0
 10
671.8725143889098
 20
455.9722028049529
 30
0.0
 10
676.3951606744913
 20
455.2548997657786
 30
0.0
 10
680.8779077943103
 20
454.3400411755678
 30
0.0
 10
683.2162599631174
 20
453.8628386864549
 30
0.0
 10
685.5437465766269
 20
453.3318728652546
 30
0.0
 10
687.8571573571178
 20
452.7454856564318
 30
0.0
 10
690.7507464576889
 20
452.012060673191
 30
0.0
 10
693.6222869476383
 20
451.1919581919241
 30
0.0
 10
696.4659579938028
 20
450.2842962682097
 30
0.0
 10
701.3291759382638
 20
448.7320035258895
 30
0.0
 10
706.1107963845986
 20
446.9234882894291
 30
0.0
 10
710.7801276668241
 20
444.8598794476571
 30
0.0
 10
719.9517146795424
 20
440.8064628735916
 30
0.0
 10
728.6900553132774
 20
435.7687610442229
 30
0.0
 10
736.7713120731155
 20
429.8329222909231
 30
0.0
 10
744.330246067123
 20
424.2807293622054
 30
0.0
 10
751.3142934075871
 20
417.9427592291959
 30
0.0
 10
757.5583540982932
 20
410.9442832779407
 30
0.0
 10
760.5161487529564
 20
407.629160020338
 30
0.0
 10
763.3079261891817
 20
404.1658348216772
 30
0.0
 10
765.9221152961359
 20
400.5734282370728
 30
0.0
 10
768.9263707830575
 20
396.4450816646995
 30
0.0
 10
771.696134886459
 20
392.1463081517928
 30
0.0
 10
774.2193073288196
 20
387.7076229754044
 30
0.0
 10
776.741668382312
 20
383.2703489100776
 30
0.0
 10
779.0175788858811
 20
378.6933042924153
 30
0.0
 10
781.0509546727694
 20
374.0116963437985
 30
0.0
 10
783.088775459552
 20
369.3198225620974
 30
0.0
 10
784.8829679185737
 20
364.5229268383296
 30
0.0
 10
786.4527231604934
 20
359.6544525050933
 30
0.0
 10
788.018527291386
 20
354.7982548382484
 30
0.0
 10
789.3610583718308
 20
349.870831339696
 30
0.0
 10
790.5179930676302
 20
344.9013920087667
 30
0.0
 10
791.7981883161568
 20
339.4024332454711
 30
0.0
 10
792.8511594032215
 20
333.8520042056017
 30
0.0
 10
793.7504957715728
 20
328.2779743329228
 30
0.0
 10
794.3747713128573
 20
324.4087077546445
 30
0.0
 10
794.9249988002983
 20
320.5280464544069
 30
0.0
 10
795.4580812881209
 20
316.64512737643
 30
0.0
 10
796.1939051601952
 20
311.2855511099744
 30
0.0
 10
796.8970970885766
 20
305.9216356769448
 30
0.0
 10
797.5648348511036
 20
300.5533105217928
 30
0.0
 10
798.8327534332531
 20
290.3599026990821
 30
0.0
 10
799.9729311849918
 20
280.1505845989521
 30
0.0
 10
800.985297550747
 20
269.9285664991165
 30
0.0
 10
804.97447329296
 20
229.6489299192004
 30
0.0
 10
806.9790271360629
 20
189.1725138993403
 30
0.0
 10
806.9788860249573
 20
148.6958156572658
 30
0.0
  0
ENDBLK
  5
95
330
92
100
AcDbEntity
  8
0
100
AcDbBlockEnd
  0
BLOCK
  5
99
330
97
100
AcDbEntity
  8
0
100
AcDbBlockBegin
  2
block 17
 70
     0
 10
0.0
 20
0.0
 30
0.0
  3
block 17
  1

  0
SPLINE
  5
9B
330
97
100
AcDbEntity
  8
0
 62
   250
370
    25
100
AcDbSpline
210
0.0
220
0.0
230
1.0
 70
     8
 71
     3
 72
    89
 73
    85
 74
     0
 42
0.0000000001
 43
0.0000000001
 12
1.0
 22
0.0
 32
0.0
 13
1.0
 23
0.0
 33
0.0
 40
0.0
 40
0.0
 40
0.0
 40
0.0
 40
1.0
 40
1.0
 40
1.0
 40
2.0
 40
2.0
 40
2.0
 40
3.0
 40
3.0
 40
3.0
 40
4.0
 40
4.0
 40
4.0
 40
5.0
 40
5.0
 40
5.0
 40
6.0
 40
6.0
 40
6.0
 40
7.0
 40
7.0
 40
7.0
 40
8.0
 40
8.0
 40
8.0
 40
9.0
 40
9.0
 40
9.0
 40
10.0
 40
10.0
 40
10.0
 40
11.0
 40
11.0
 40
11.0
 40
12.0
 40
12.0
 40
12.0
 40
13.0
 40
13.0
 40
13.0
 40
14.0
 40
14.0
 40
14.0
 40
15.0
 40
15.0
 40
15.0
 40
16.0
 40
16.0
 40
16.0
 40
17.0
 40
17.0
 40
17.0
 40
18.0
 40
18.0
 40
18.0
 40
19.0
 40
19.0
 40
19.0
 40
20.0
 40
20.0
 40
20.0
 40
21.0
 40
21.0
 40
21.0
 40
22.0
 40
22.0
 40
22.0
 40
23.0
 40
23.0
 40
23.0
 40
24.0
 40
24.0
 40
24.0
 40
25.0
 40
25.0
 40
25.0
 40
26.0
 40
26.0
 40
26.0
 40
27.0
 40
27.0
 40
27.0
 40
28.0
 40
28.0
 40
28.0
 40
28.0
 10
105.127795390383
 20
459.0469080124881
 30
0.0
 10
6.295515703526783
 20
459.0520232901565
 30
0.0
 10
-92.53672870555543
 20
458.9576552367467
 30
0.0
 10
-191.3687967257574
 20
458.7638744078444
 30
0.0
 10
-223.1758754436428
 20
458.7015032981532
 30
0.0
 10
-254.9829188837547
 20
458.6288663553648
 30
0.0
 10
-286.789927046093
 20
458.5458930239449
 30
0.0
 10
-310.6451831678436
 20
458.4836630253612
 30
0.0
 10
-334.5004392895942
 20
458.4156474713612
 30
0.0
 10
-358.3556954113448
 20
458.3418463619263
 30
0.0
 10
-367.3223185398498
 20
458.3141180292477
 30
0.0
 10
-376.2889416683673
 20
458.2855430298837
 30
0.0
 10
-385.2555647968852
 20
458.2561566416592
 30
0.0
 10
-387.1222178097887
 20
458.2500535862561
 30
0.0
 10
-388.9888708227176
 20
458.2438799752807
 30
0.0
 10
-390.8555238356211
 20
458.2377769198648
 30
0.0
 10
-392.2599321368896
 20
458.2331908088565
 30
0.0
 10
-393.6643757159056
 20
458.2286752534014
 30
0.0
 10
-395.0687840171609
 20
458.2242302535001
 30
0.0
 10
-397.601163959311
 20
458.2161869203566
 30
0.0
 10
-400.1335439014738
 20
458.2084963649869
 30
0.0
 10
-402.6659238436236
 20
458.2012644207039
 30
0.0
 10
-405.5879468324326
 20
458.1929035875543
 30
0.0
 10
-408.5100050990275
 20
458.1851071988444
 30
0.0
 10
-411.4320633656099
 20
458.1788277545352
 30
0.0
 10
-414.8558068985083
 20
458.1714899769389
 30
0.0
 10
-418.279515153633
 20
458.1661630326104
 30
0.0
 10
-421.7032234087517
 20
458.1602363660872
 30
0.0
 10
-422.4049689482857
 20
458.1590016438939
 30
0.0
 10
-423.1067144878132
 20
458.1577669216872
 30
0.0
 10
-423.8084600273409
 20
458.1557913661801
 30
0.0
 10
-427.3505957797651
 20
458.1457724775224
 30
0.0
 10
-430.8928373655097
 20
458.1169152559646
 30
0.0
 10
-434.4339500624135
 20
458.0315077579176
 30
0.0
 10
-437.4638524931977
 20
457.9584827595695
 30
0.0
 10
-440.4929082573353
 20
457.8440416510713
 30
0.0
 10
-443.518612632671
 20
457.669487210629
 30
0.0
 10
-446.5055114533316
 20
457.4971552701217
 30
0.0
 10
-449.4890941629514
 20
457.2662622198316
 30
0.0
 10
-452.4657624282882
 20
456.9641786156207
 30
0.0
 10
-457.833064527906
 20
456.4194897391681
 30
0.0
 10
-463.1777535724884
 20
455.6434139235704
 30
0.0
 10
-468.4692437293963
 20
454.5935825586672
 30
0.0
 10
-473.7439416644582
 20
453.5471025825647
 30
0.0
 10
-478.9657934896323
 20
452.2285603904629
 30
0.0
 10
-484.0986747612653
 20
450.6245151493167
 30
0.0
 10
-489.2449615881567
 20
449.0162365749413
 30
0.0
 10
-494.3018545282
 20
447.1209380071337
 30
0.0
 10
-499.2312535822729
 20
444.9364675014795
 30
0.0
 10
-508.1030500462745
 20
441.0049709246225
 30
0.0
 10
-516.5619201308338
 20
436.1368846469203
 30
0.0
 10
-524.3959855074421
 20
430.4109133888285
 30
0.0
 10
-532.040926721697
 20
424.8232310164716
 30
0.0
 10
-539.090802393999
 20
418.4185858849951
 30
0.0
 10
-545.3771258615095
 20
411.3367132689737
 30
0.0
 10
-548.6740105084247
 20
407.6225983538156
 30
0.0
 10
-551.7608865490182
 20
403.7221814984644
 30
0.0
 10
-554.6215614836697
 20
399.6624854801037
 30
0.0
 10
-557.3560830878782
 20
395.7817889020804
 30
0.0
 10
-559.8838769190326
 20
391.7555362162673
 30
0.0
 10
-562.1967232550836
 20
387.6096918665266
 30
0.0
 10
-564.5657670898626
 20
383.3630589079729
 30
0.0
 10
-566.7092448186738
 20
378.9909428967313
 30
0.0
 10
-568.6317072747587
 20
374.5243177209851
 30
0.0
 10
-570.6313222290803
 20
369.8785872715557
 30
0.0
 10
-572.3918244110882
 20
365.130621824447
 30
0.0
 10
-573.9344510425243
 20
360.3138294344714
 30
0.0
 10
-575.5776898938735
 20
355.1828884405721
 30
0.0
 10
-576.9737020842059
 20
349.9738777262229
 30
0.0
 10
-578.1716295568473
 20
344.7211225684304
 30
0.0
 10
-579.4818814713594
 20
338.9758896441177
 30
0.0
 10
-580.5552078357387
 20
333.1783750543182
 30
0.0
 10
-581.4903511477042
 20
327.3600818538851
 30
0.0
 10
-582.1863816873629
 20
323.0293466750321
 30
0.0
 10
-582.8058594509918
 20
318.6871462186681
 30
0.0
 10
-583.4033944373324
 20
314.341876595703
 30
0.0
 10
-584.1765421974479
 20
308.7198336685722
 30
0.0
 10
-584.9129305139622
 20
303.0926754637729
 30
0.0
 10
-585.6095254980609
 20
297.4606136479845
 30
0.0
 10
-586.9629926893634
 20
286.5172355646337
 30
0.0
 10
-588.1661412729936
 20
275.555301370583
 30
0.0
 10
-589.2195356933657
 20
264.5790091213058
 30
0.0
 10
-592.9152708867232
 20
226.069223334308
 30
0.0
 10
-594.767495288867
 20
187.3825547735605
 30
0.0
 10
-594.7681302888409
 20
148.6958156572658
 30
0.0
  0
ENDBLK
  5
9A
330
97
100
AcDbEntity
  8
0
100
AcDbBlockEnd
  0
BLOCK
  5
9E
330
9C
100
AcDbEntity
  8
0
100
AcDbBlockBegin
  2
block 18
 70
     0
 10
0.0
 20
0.0
 30
0.0
  3
block 18
  1

  0
SPLINE
  5
A0
330
9C
100
AcDbEntity
  8
0
 62
   250
370
    25
100
AcDbSpline
210
0.0
220
0.0
230
1.0
 70
     8
 71
     3
 72
     8
 73
     4
 74
     0
 42
0.0000000001
 43
0.0000000001
 12
1.0
 22
0.0
 32
0.0
 13
1.0
 23
0.0
 33
0.0
 40
0.0
 40
0.0
 40
0.0
 40
0.0
 40
1.0
 40
1.0
 40
1.0
 40
1.0
 10
651.2034412499381
 20
-15.89424562069051
 30
0.0
 10
653.3525634230716
 20
-20.75460594243527
 30
0.0
 10
737.8504915367322
 20
-125.1307275660858
 30
0.0
 10
739.9953450988513
 20
-129.9929928877511
 30
0.0
  0
ENDBLK
  5
9F
330
9C
100
AcDbEntity
  8
0
100
AcDbBlockEnd
  0
BLOCK
  5
A3
330
A1
100
AcDbEntity
  8
0
100
AcDbBlockBegin
  2
block 19
 70
     0
 10
0.0
 20
0.0
 30
0.0
  3
block 19
  1

  0
SPLINE
  5
A5
330
A1
100
AcDbEntity
  8
0
 62
   250
370
    25
100
AcDbSpline
210
0.0
220
0.0
230
1.0
 70
     8
 71
     3
 72
    41
 73
    37
 74
     0
 42
0.0000000001
 43
0.0000000001
 12
1.0
 22
0.0
 32
0.0
 13
1.0
 23
0.0
 33
0.0
 40
0.0
 40
0.0
 40
0.0
 40
0.0
 40
1.0
 40
1.0
 40
1.0
 40
2.0
 40
2.0
 40
2.0
 40
3.0
 40
3.0
 40
3.0
 40
4.0
 40
4.0
 40
4.0
 40
5.0
 40
5.0
 40
5.0
 40
6.0
 40
6.0
 40
6.0
 40
7.0
 40
7.0
 40
7.0
 40
8.0
 40
8.0
 40
8.0
 40
9.0
 40
9.0
 40
9.0
 40
10.0
 40
10.0
 40
10.0
 40
11.0
 40
11.0
 40
11.0
 40
12.0
 40
12.0
 40
12.0
 40
12.0
 10
-296.5647993228135
 20
-18.07074329376139
 30
0.0
 10
-297.273600417724
 20
-17.46325998965989
 30
0.0
 10
-297.9367520692497
 20
-16.80437696579484
 30
0.0
 10
-298.5639556660283
 20
-16.11303838795175
 30
0.0
 10
-299.239666206146
 20
-15.36825397932856
 30
0.0
 10
-299.8735725805666
 20
-14.58582818361356
 30
0.0
 10
-300.4509639562593
 20
-13.7624801676829
 30
0.0
 10
-300.699002006143
 20
-13.40878518469043
 30
0.0
 10
-300.9365625562758
 20
-13.04750547986047
 30
0.0
 10
-301.1594828289628
 20
-12.67754744208542
 30
0.0
 10
-301.3504061579309
 20
-12.36064717955637
 30
0.0
 10
-301.5305344871482
 20
-12.03736163956516
 30
0.0
 10
-301.6925300390047
 20
-11.70455110001461
 30
0.0
 10
-301.8251392026495
 20
-11.43217139089398
 30
0.0
 10
-301.9455775332301
 20
-11.1534064043112
 30
0.0
 10
-302.0463661420425
 20
-10.8679739180397
 30
0.0
 10
-302.1550922506718
 20
-10.56014004396289
 30
0.0
 10
-302.2409583598124
 20
-10.24458033690386
 30
0.0
 10
-302.318710580256
 20
-9.927256741066397
 30
0.0
 10
-302.4634552991728
 20
-9.336459825041779
 30
0.0
 10
-302.5800130742913
 20
-8.739665687089113
 30
0.0
 10
-302.6897269606808
 20
-8.141601549186815
 30
0.0
 10
-302.84036306834
 20
-7.320546588673642
 30
0.0
 10
-302.9780875096469
 20
-6.497128017181527
 30
0.0
 10
-303.1064633400439
 20
-5.672333612421983
 30
0.0
 10
-303.4042077776934
 20
-3.759113982233624
 30
0.0
 10
-303.6517166609236
 20
-1.838415463502471
 30
0.0
 10
-303.8780236001987
 20
0.0846113884333115
 30
0.0
 10
-304.2035669260991
 20
2.851129866460601
 30
0.0
 10
-304.4851894196628
 20
5.62244612205343
 30
0.0
 10
-304.7598974689434
 20
8.3944326553556
 30
0.0
 10
-305.1690138484964
 20
12.52274384565411
 30
0.0
 10
-305.562784395044
 20
16.65253670255324
 30
0.0
 10
-305.9382810531374
 20
20.78395233713614
 30
0.0
 10
-309.8028204093014
 20
63.30422056949518
 30
0.0
 10
-311.7327970318821
 20
106.0003132378293
 30
0.0
 10
-311.7232014765451
 20
148.6958156572658
 30
0.0
  0
ENDBLK
  5
A4
330
A1
100
AcDbEntity
  8
0
100
AcDbBlockEnd
  0
BLOCK
  5
A8
330
A6
100
AcDbEntity
  8
0
100
AcDbBlockBegin
  2
block 20
 70
     0
 10
0.0
 20
0.0
 30
0.0
  3
block 20
  1

  0
SPLINE
  5
AA
330
A6
100
AcDbEntity
  8
0
 62
   250
370
    25
100
AcDbSpline
210
0.0
220
0.0
230
1.0
 70
     8
 71
     3
 72
    32
 73
    28
 74
     0
 42
0.0000000001
 43
0.0000000001
 12
1.0
 22
0.0
 32
0.0
 13
1.0
 23
0.0
 33
0.0
 40
0.0
 40
0.0
 40
0.0
 40
0.0
 40
1.0
 40
1.0
 40
1.0
 40
2.0
 40
2.0
 40
2.0
 40
3.0
 40
3.0
 40
3.0
 40
4.0
 40
4.0
 40
4.0
 40
5.0
 40
5.0
 40
5.0
 40
6.0
 40
6.0
 40
6.0
 40
7.0
 40
7.0
 40
7.0
 40
8.0
 40
8.0
 40
8.0
 40
9.0
 40
9.0
 40
9.0
 40
9.0
 10
103.5285479269175
 20
-19.86871042951078
 30
0.0
 10
83.03297089509326
 20
-19.8677579295492
 30
0.0
 10
62.53739386325618
 20
-19.85696293006845
 30
0.0
 10
42.04181683143193
 20
-19.83445570891711
 30
0.0
 10
21.35831508168058
 20
-19.81173682112632
 30
0.0
 10
0.6747780541433653
 20
-19.77705876725118
 30
0.0
 10
-20.00868841784715
 20
-19.73091543612178
 30
0.0
 10
-61.43153663830425
 20
-19.63848766279525
 30
0.0
 10
-102.8543143032143
 20
-19.49991655835088
 30
0.0
 10
-144.2768450236719
 20
-19.31178017851878
 30
0.0
 10
-185.5222107481923
 20
-19.12445518751509
 30
0.0
 10
-226.7673648060467
 20
-18.88798825445647
 30
0.0
 10
-268.012236641687
 20
-18.60763576795141
 30
0.0
 10
-273.1162606917621
 20
-18.57292243627758
 30
0.0
 10
-278.2202847418372
 20
-18.53757410465459
 30
0.0
 10
-283.3243087919252
 20
-18.49753382880056
 30
0.0
 10
-285.043606530424
 20
-18.48405771832843
 30
0.0
 10
-286.762939546709
 20
-18.47005244122881
 30
0.0
 10
-288.4820256185415
 20
-18.43861994274557
 30
0.0
 10
-289.5981792041642
 20
-18.41822938815813
 30
0.0
 10
-290.7142269564534
 20
-18.39050105617262
 30
0.0
 10
-291.8299572087428
 20
-18.35384744681671
 30
0.0
 10
-292.7398416323924
 20
-18.32396717048144
 30
0.0
 10
-293.6494791116144
 20
-18.2881249499796
 30
0.0
 10
-294.5582699241962
 20
-18.2337618970379
 30
0.0
 10
-295.2281949088979
 20
-18.19365106563652
 30
0.0
 10
-295.8976260047195
 20
-18.14348606804701
 30
0.0
 10
-296.5647993228135
 20
-18.07074329376139
 30
0.0
  0
ENDBLK
  5
A9
330
A6
100
AcDbEntity
  8
0
100
AcDbBlockEnd
  0
BLOCK
  5
AD
330
AB
100
AcDbEntity
  8
0
100
AcDbBlockBegin
  2
block 21
 70
     0
 10
0.0
 20
0.0
 30
0.0
  3
block 21
  1

  0
SPLINE
  5
AF
330
AB
100
AcDbEntity
  8
0
 62
   250
370
    25
100
AcDbSpline
210
0.0
220
0.0
230
1.0
 70
     8
 71
     3
 72
    53
 73
    49
 74
     0
 42
0.0000000001
 43
0.0000000001
 12
1.0
 22
0.0
 32
0.0
 13
1.0
 23
0.0
 33
0.0
 40
0.0
 40
0.0
 40
0.0
 40
0.0
 40
1.0
 40
1.0
 40
1.0
 40
2.0
 40
2.0
 40
2.0
 40
3.0
 40
3.0
 40
3.0
 40
4.0
 40
4.0
 40
4.0
 40
5.0
 40
5.0
 40
5.0
 40
6.0
 40
6.0
 40
6.0
 40
7.0
 40
7.0
 40
7.0
 40
8.0
 40
8.0
 40
8.0
 40
9.0
 40
9.0
 40
9.0
 40
10.0
 40
10.0
 40
10.0
 40
11.0
 40
11.0
 40
11.0
 40
12.0
 40
12.0
 40
12.0
 40
13.0
 40
13.0
 40
13.0
 40
14.0
 40
14.0
 40
14.0
 40
15.0
 40
15.0
 40
15.0
 40
16.0
 40
16.0
 40
16.0
 40
16.0
 10
665.7335109180307
 20
148.6958156572658
 30
0.0
 10
665.734886751338
 20
138.9087372697209
 30
0.0
 10
665.6210453650402
 20
129.1216588821754
 30
0.0
 10
665.3988306479
 20
119.3371117629182
 30
0.0
 10
665.1595062089259
 20
108.8004867142305
 30
0.0
 10
664.7944870505842
 20
98.26675444318529
 30
0.0
 10
664.313862617129
 20
87.73838439408942
 30
0.0
 10
663.3510262502327
 20
66.64696624202126
 30
0.0
 10
661.9242518383818
 20
45.57699697780966
 30
0.0
 10
660.07008715851
 20
24.54526882287625
 30
0.0
 10
659.713993277758
 20
20.50603401716762
 30
0.0
 10
659.342130230693
 20
16.46821032252769
 30
0.0
 10
658.9543216284349
 20
12.43183301668969
 30
0.0
 10
658.7493577442347
 20
10.29862117486474
 30
0.0
 10
658.5399135823525
 20
8.165797388575188
 30
0.0
 10
658.3257421983493
 20
6.033467491152937
 30
0.0
 10
658.1678388686338
 20
4.46127812232616
 30
0.0
 10
658.0073249833978
 20
2.889335697952929
 30
0.0
 10
657.8336877651434
 20
1.318733829062551
 30
0.0
 10
657.6268894365425
 20
-0.5515880254139752
 30
0.0
 10
657.4014644416942
 20
-2.420004879980171
 30
0.0
 10
657.1289083368011
 20
-4.281895345965153
 30
0.0
 10
657.0273436168948
 20
-4.975844479250994
 30
0.0
 10
656.9192172304788
 20
-5.668841112576537
 30
0.0
 10
656.7986377887923
 20
-6.359756357126611
 30
0.0
 10
656.6967555688985
 20
-6.943779940129305
 30
0.0
 10
656.585948071429
 20
-7.526286578782726
 30
0.0
 10
656.4583130743516
 20
-8.105230162044645
 30
0.0
 10
656.3625339098616
 20
-8.53981708556204
 30
0.0
 10
656.2572297456068
 20
-8.972357898102663
 30
0.0
 10
656.1318878040245
 20
-9.39957176643613
 30
0.0
 10
656.0306405841183
 20
-9.744553138748985
 30
0.0
 10
655.916340586727
 20
-10.08604201120484
 30
0.0
 10
655.7806269787137
 20
-10.41846449520846
 30
0.0
 10
655.4984753184842
 20
-11.10969723973118
 30
0.0
 10
655.1239311603771
 20
-11.76170109726678
 30
0.0
 10
654.7005272811589
 20
-12.37800384539392
 30
0.0
 10
654.2011350703494
 20
-13.10486714375208
 30
0.0
 10
653.6337273055279
 20
-13.78209461117647
 30
0.0
 10
653.0056770420963
 20
-14.40079624807997
 30
0.0
 10
652.7115309377143
 20
-14.69056790082401
 30
0.0
 10
652.4041203891679
 20
-14.96746316527077
 30
0.0
 10
652.0799881743609
 20
-15.22287426408923
 30
0.0
 10
651.9286817889285
 20
-15.34207786947947
 30
0.0
 10
651.7737770702411
 20
-15.45658953062325
 30
0.0
 10
651.6143215183256
 20
-15.56471591431771
 30
0.0
 10
651.470176521616
 20
-15.66247063183985
 30
0.0
 10
651.3223626361049
 20
-15.75500423849957
 30
0.0
 10
651.1672815285376
 20
-15.83448506800842
 30
0.0
  0
ENDBLK
  5
AE
330
AB
100
AcDbEntity
  8
0
100
AcDbBlockEnd
  0
BLOCK
  5
B2
330
B0
100
AcDbEntity
  8
0
100
AcDbBlockBegin
  2
block 22
 70
     0
 10
0.0
 20
0.0
 30
0.0
  3
block 22
  1

  0
SPLINE
  5
B4
330
B0
100
AcDbEntity
  8
0
 62
   250
370
    25
100
AcDbSpline
210
0.0
220
0.0
230
1.0
 70
     8
 71
     3
 72
    53
 73
    49
 74
     0
 42
0.0000000001
 43
0.0000000001
 12
1.0
 22
0.0
 32
0.0
 13
1.0
 23
0.0
 33
0.0
 40
0.0
 40
0.0
 40
0.0
 40
0.0
 40
1.0
 40
1.0
 40
1.0
 40
2.0
 40
2.0
 40
2.0
 40
3.0
 40
3.0
 40
3.0
 40
4.0
 40
4.0
 40
4.0
 40
5.0
 40
5.0
 40
5.0
 40
6.0
 40
6.0
 40
6.0
 40
7.0
 40
7.0
 40
7.0
 40
8.0
 40
8.0
 40
8.0
 40
9.0
 40
9.0
 40
9.0
 40
10.0
 40
10.0
 40
10.0
 40
11.0
 40
11.0
 40
11.0
 40
12.0
 40
12.0
 40
12.0
 40
13.0
 40
13.0
 40
13.0
 40
14.0
 40
14.0
 40
14.0
 40
15.0
 40
15.0
 40
15.0
 40
16.0
 40
16.0
 40
16.0
 40
16.0
 10
651.1672815285376
 20
313.226146343413
 30
0.0
 10
651.305570414272
 20
313.1567549561192
 30
0.0
 10
651.4373681890299
 20
313.0754396801818
 30
0.0
 10
651.5661320749867
 20
312.9897146821481
 30
0.0
 10
651.7211073492208
 20
312.8864919067213
 30
0.0
 10
651.8717434568925
 20
312.7768838536779
 30
0.0
 10
652.0189223424167
 20
312.6628660785131
 30
0.0
 10
652.3592470568702
 20
312.3992352511971
 30
0.0
 10
652.6810862161822
 20
312.1121799799778
 30
0.0
 10
652.9886025980496
 20
311.8106960979667
 30
0.0
 10
653.6429348053188
 20
311.169205001503
 30
0.0
 10
654.2324264585222
 20
310.4625205732132
 30
0.0
 10
654.7464589467762
 20
309.7033780905431
 30
0.0
 10
655.1502483820011
 20
309.1070778263971
 30
0.0
 10
655.5074358738472
 20
308.4783925629714
 30
0.0
 10
655.7793569787403
 20
307.8124892448575
 30
0.0
 10
655.915917253407
 20
307.4780559191732
 30
0.0
 10
656.030958084105
 20
307.1342387047921
 30
0.0
 10
656.132734470665
 20
306.7872112127234
 30
0.0
 10
656.2567005789535
 20
306.3646892779309
 30
0.0
 10
656.3609816876744
 20
305.9374401210182
 30
0.0
 10
656.4559494632848
 20
305.5078979086033
 30
0.0
 10
656.579351127133
 20
304.9499798658048
 30
0.0
 10
656.6870189024546
 20
304.3881812675191
 30
0.0
 10
656.7860789001867
 20
303.8251832248316
 30
0.0
 10
656.9074697307542
 20
303.1349029628157
 30
0.0
 10
657.0159136171575
 20
302.4427529786187
 30
0.0
 10
657.1181486148239
 20
301.7495446611276
 30
0.0
 10
657.2446194452727
 20
300.8919419029395
 30
0.0
 10
657.3616711092657
 20
300.0327869225637
 30
0.0
 10
657.470714717881
 20
299.1726794422135
 30
0.0
 10
657.589459715168
 20
298.2360544636074
 30
0.0
 10
657.6986797126774
 20
297.2983711516944
 30
0.0
 10
657.8028197102914
 20
296.360088117568
 30
0.0
 10
657.9511274846955
 20
295.0238012036588
 30
0.0
 10
658.089063592643
 20
293.6863501230831
 30
0.0
 10
658.2248477562158
 20
292.3486873758666
 30
0.0
 10
658.4506255288373
 20
290.1241765933573
 30
0.0
 10
658.6704766349236
 20
287.8991013663941
 30
0.0
 10
658.8853888522347
 20
285.6735675283509
 30
0.0
 10
659.2798296765612
 20
281.5895298438483
 30
0.0
 10
659.6578310568159
 20
277.5038693816377
 30
0.0
 10
660.0196752152111
 20
273.4167978083204
 30
0.0
 10
661.8764857283629
 20
252.4447943984773
 30
0.0
 10
663.3087281956427
 20
231.4347968228456
 30
0.0
 10
664.279466784582
 20
210.4031034143841
 30
0.0
 10
665.2282273184596
 20
189.8483302727908
 30
0.0
 10
665.7362273068586
 20
169.2728137983485
 30
0.0
 10
665.7335109180307
 20
148.6958156572658
 30
0.0
  0
ENDBLK
  5
B3
330
B0
100
AcDbEntity
  8
0
100
AcDbBlockEnd
  0
BLOCK
  5
B7
330
B5
100
AcDbEntity
  8
0
100
AcDbBlockBegin
  2
block 23
 70
     0
 10
0.0
 20
0.0
 30
0.0
  3
block 23
  1

  0
SPLINE
  5
B9
330
B5
100
AcDbEntity
  8
0
 62
   250
370
    25
100
AcDbSpline
210
0.0
220
0.0
230
1.0
 70
     8
 71
     3
 72
    29
 73
    25
 74
     0
 42
0.0000000001
 43
0.0000000001
 12
1.0
 22
0.0
 32
0.0
 13
1.0
 23
0.0
 33
0.0
 40
0.0
 40
0.0
 40
0.0
 40
0.0
 40
1.0
 40
1.0
 40
1.0
 40
2.0
 40
2.0
 40
2.0
 40
3.0
 40
3.0
 40
3.0
 40
4.0
 40
4.0
 40
4.0
 40
5.0
 40
5.0
 40
5.0
 40
6.0
 40
6.0
 40
6.0
 40
7.0
 40
7.0
 40
7.0
 40
8.0
 40
8.0
 40
8.0
 40
8.0
 10
-296.5647993228135
 20
315.462404625674
 30
0.0
 10
-295.8849965605549
 20
315.5375110128367
 30
0.0
 10
-295.202830187248
 20
315.5864412895086
 30
0.0
 10
-294.5201699250614
 20
315.6271165663385
 30
0.0
 10
-294.0485413247303
 20
315.6552329546025
 30
0.0
 10
-293.5766657799587
 20
315.6793982318254
 30
0.0
 10
-293.1046491240678
 20
315.6994007313664
 30
0.0
 10
-292.6671341340571
 20
315.7179215642677
 30
0.0
 10
-292.2294780329522
 20
315.7328793417133
 30
0.0
 10
-291.7917866540612
 20
315.7468140636249
 30
0.0
 10
-291.0108072274496
 20
315.7716848963815
 30
0.0
 10
-290.2296866897311
 20
315.7932396181102
 30
0.0
 10
-289.448495596466
 20
315.8106315621572
 30
0.0
 10
-287.4225986983005
 20
315.8556460055745
 30
0.0
 10
-285.3963137445883
 20
315.8723323940742
 30
0.0
 10
-283.3699935131029
 20
315.8883485048268
 30
0.0
 10
-276.9634433816656
 20
315.9389721147805
 30
0.0
 10
-270.5568579724547
 20
315.9829635026645
 30
0.0
 10
-264.1502372854576
 20
316.0259318350146
 30
0.0
 10
-224.231633475082
 20
316.293513773346
 30
0.0
 10
-184.3127121647193
 20
316.5211612681414
 30
0.0
 10
-144.3936144654507
 20
316.7028418195458
 30
0.0
 10
-61.7534816309503
 20
317.0789381998522
 30
0.0
 10
20.88756842576336
 20
317.2580081957625
 30
0.0
 10
103.5285479269175
 20
317.2603365290371
 30
0.0
  0
ENDBLK
  5
B8
330
B5
100
AcDbEntity
  8
0
100
AcDbBlockEnd
  0
BLOCK
  5
BC
330
BA
100
AcDbEntity
  8
0
100
AcDbBlockBegin
  2
block 24
 70
     0
 10
0.0
 20
0.0
 30
0.0
  3
block 24
  1

  0
SPLINE
  5
BE
330
BA
100
AcDbEntity
  8
0
 62
   250
370
    25
100
AcDbSpline
210
0.0
220
0.0
230
1.0
 70
     8
 71
     3
 72
    44
 73
    40
 74
     0
 42
0.0000000001
 43
0.0000000001
 12
1.0
 22
0.0
 32
0.0
 13
1.0
 23
0.0
 33
0.0
 40
0.0
 40
0.0
 40
0.0
 40
0.0
 40
1.0
 40
1.0
 40
1.0
 40
2.0
 40
2.0
 40
2.0
 40
3.0
 40
3.0
 40
3.0
 40
4.0
 40
4.0
 40
4.0
 40
5.0
 40
5.0
 40
5.0
 40
6.0
 40
6.0
 40
6.0
 40
7.0
 40
7.0
 40
7.0
 40
8.0
 40
8.0
 40
8.0
 40
9.0
 40
9.0
 40
9.0
 40
10.0
 40
10.0
 40
10.0
 40
11.0
 40
11.0
 40
11.0
 40
12.0
 40
12.0
 40
12.0
 40
13.0
 40
13.0
 40
13.0
 40
13.0
 10
-311.7232014765451
 20
148.6958156572658
 30
0.0
 10
-311.725282865386
 20
158.8668220916142
 30
0.0
 10
-311.6178973122906
 20
169.037969637063
 30
0.0
 10
-311.4001275950325
 20
179.2067182936456
 30
0.0
 10
-311.1551234339631
 20
190.6481833100773
 30
0.0
 10
-310.7703839983191
 20
202.0866144376744
 30
0.0
 10
-310.2467912324881
 20
213.5187308432091
 30
0.0
 10
-309.2801448656966
 20
234.625742305519
 30
0.0
 10
-307.840176565241
 20
255.7112343238667
 30
0.0
 10
-305.9251577201055
 20
276.7533346765572
 30
0.0
 10
-305.5505430064392
 20
280.8695809714069
 30
0.0
 10
-305.1577602376323
 20
284.9841692107485
 30
0.0
 10
-304.7498433025124
 20
289.0973110612489
 30
0.0
 10
-304.4778516420594
 20
291.8398759986007
 30
0.0
 10
-304.1991219262102
 20
294.5818059359663
 30
0.0
 10
-303.8767888780112
 20
297.3189028178892
 30
0.0
 10
-303.6475538832418
 20
299.2653188845434
 30
0.0
 10
-303.3963055556503
 20
301.209265506797
 30
0.0
 10
-303.0937633403323
 20
303.1456626847935
 30
0.0
 10
-302.9679980654297
 20
303.9507015552817
 30
0.0
 10
-302.8333780684974
 20
304.7544704258221
 30
0.0
 10
-302.6855994607727
 20
305.5557345741881
 30
0.0
 10
-302.5766264077034
 20
306.1467431717936
 30
0.0
 10
-302.4604919659115
 20
306.7364464916506
 30
0.0
 10
-302.3178639136154
 20
307.3205406449854
 30
0.0
 10
-302.2409583598124
 20
307.6355006377881
 30
0.0
 10
-302.156326972859
 20
307.9488378528571
 30
0.0
 10
-302.0484828086568
 20
308.254202290317
 30
0.0
 10
-301.9475178109641
 20
308.5399522837951
 30
0.0
 10
-301.8262328137301
 20
308.8187525552102
 30
0.0
 10
-301.6937647611986
 20
309.0916967156373
 30
0.0
 10
-301.3395758804064
 20
309.8215233656295
 30
0.0
 10
-300.9054828347701
 20
310.5093694610313
 30
0.0
 10
-300.4375936787873
 20
311.1722036125569
 30
0.0
 10
-299.8750542471942
 20
311.9690933165817
 30
0.0
 10
-299.2636198167217
 20
312.7297880214197
 30
0.0
 10
-298.6106987205136
 20
313.4539349493352
 30
0.0
 10
-297.9703365129166
 20
314.1641471553135
 30
0.0
 10
-297.2900398617971
 20
314.8391874176708
 30
0.0
 10
-296.5647993228135
 20
315.462404625674
 30
0.0
  0
ENDBLK
  5
BD
330
BA
100
AcDbEntity
  8
0
100
AcDbBlockEnd
  0
BLOCK
  5
C1
330
BF
100
AcDbEntity
  8
0
100
AcDbBlockBegin
  2
block 25
 70
     0
 10
0.0
 20
0.0
 30
0.0
  3
block 25
  1

  0
SPLINE
  5
C3
330
BF
100
AcDbEntity
  8
0
 62
   250
370
    25
100
AcDbSpline
210
0.0
220
0.0
230
1.0
 70
     8
 71
     3
 72
    65
 73
    61
 74
     0
 42
0.0000000001
 43
0.0000000001
 12
1.0
 22
0.0
 32
0.0
 13
1.0
 23
0.0
 33
0.0
 40
0.0
 40
0.0
 40
0.0
 40
0.0
 40
1.0
 40
1.0
 40
1.0
 40
2.0
 40
2.0
 40
2.0
 40
3.0
 40
3.0
 40
3.0
 40
4.0
 40
4.0
 40
4.0
 40
5.0
 40
5.0
 40
5.0
 40
6.0
 40
6.0
 40
6.0
 40
7.0
 40
7.0
 40
7.0
 40
8.0
 40
8.0
 40
8.0
 40
9.0
 40
9.0
 40
9.0
 40
10.0
 40
10.0
 40
10.0
 40
11.0
 40
11.0
 40
11.0
 40
12.0
 40
12.0
 40
12.0
 40
13.0
 40
13.0
 40
13.0
 40
14.0
 40
14.0
 40
14.0
 40
15.0
 40
15.0
 40
15.0
 40
16.0
 40
16.0
 40
16.0
 40
17.0
 40
17.0
 40
17.0
 40
18.0
 40
18.0
 40
18.0
 40
19.0
 40
19.0
 40
19.0
 40
20.0
 40
20.0
 40
20.0
 40
20.0
 10
651.2034412499381
 20
-15.89424562069051
 30
0.0
 10
651.0781698639031
 20
-15.9296645078865
 30
0.0
 10
650.9510640334795
 20
-15.95806311761856
 30
0.0
 10
650.8235701474968
 20
-15.98434506080085
 30
0.0
 10
650.6503915403488
 20
-16.02001089242344
 30
0.0
 10
650.4764368220941
 20
-16.05172561312041
 30
0.0
 10
650.3020940483054
 20
-16.08118255613443
 30
0.0
 10
649.8723401692312
 20
-16.15378421932666
 30
0.0
 10
649.4403637902092
 20
-16.21273338315467
 30
0.0
 10
649.0077524112002
 20
-16.26586171392106
 30
0.0
 10
647.8922691033508
 20
-16.40284531844316
 30
0.0
 10
646.7724113511533
 20
-16.50112920260434
 30
0.0
 10
645.6512835989812
 20
-16.57934003217895
 30
0.0
 10
644.3227225182223
 20
-16.67201474993336
 30
0.0
 10
642.9923975486092
 20
-16.73646724682212
 30
0.0
 10
641.6615081345687
 20
-16.78550335558234
 30
0.0
 10
640.7834442657326
 20
-16.81781779849265
 30
0.0
 10
639.9051687302422
 20
-16.84342946391555
 30
0.0
 10
639.0267873614184
 20
-16.86477251843763
 30
0.0
 10
638.242315434886
 20
-16.88382251753066
 30
0.0
 10
637.4577729528062
 20
-16.89945057233843
 30
0.0
 10
636.6732304707386
 20
-16.91299723835661
 30
0.0
 10
634.5834102406823
 20
-16.94912168104652
 30
0.0
 10
632.4933783439851
 20
-16.97057056891591
 30
0.0
 10
630.4033817250618
 20
-16.99512390105686
 30
0.0
 10
629.0355564785269
 20
-17.0112105669589
 30
0.0
 10
627.6677312319927
 20
-17.02863778834251
 30
0.0
 10
626.2999412632444
 20
-17.04761723187538
 30
0.0
 10
624.1315221461041
 20
-17.07770917486421
 30
0.0
 10
621.9631735845228
 20
-17.11168167324287
 30
0.0
 10
619.7948250229421
 20
-17.14505444940946
 30
0.0
 10
613.5047973888437
 20
-17.24189194474304
 30
0.0
 10
607.2146991991985
 20
-17.33379055144206
 30
0.0
 10
600.9246362873265
 20
-17.42784110247802
 30
0.0
 10
598.5453266194501
 20
-17.46340110075328
 30
0.0
 10
596.1659816738
 20
-17.49924332126924
 30
0.0
 10
593.78663672815
 20
-17.53370970848952
 30
0.0
 10
591.2359123419665
 20
-17.57068081783348
 30
0.0
 10
588.6851526780098
 20
-17.60602914945646
 30
0.0
 10
586.1344282918391
 20
-17.6411305366644
 30
0.0
 10
582.2424781029576
 20
-17.69468220073792
 30
0.0
 10
578.3505279140776
 20
-17.74766942041092
 30
0.0
 10
574.458542447436
 20
-17.79861052908019
 30
0.0
 10
569.609788391527
 20
-17.86203997047414
 30
0.0
 10
564.7609637800591
 20
-17.92225913423767
 30
0.0
 10
559.9121038908169
 20
-17.9798324648098
 30
0.0
 10
549.7336185677717
 20
-18.10069412565554
 30
0.0
 10
539.5549568558332
 20
-18.20994939819213
 30
0.0
 10
529.376224588335
 20
-18.30675161573856
 30
0.0
 10
518.1433217893714
 20
-18.4136079994988
 30
0.0
 10
506.9102426015271
 20
-18.50533021730445
 30
0.0
 10
495.677128135897
 20
-18.58745688003037
 30
0.0
 10
466.8841121269361
 20
-18.79802992545363
 30
0.0
 10
438.0906727846424
 20
-18.94580852945648
 30
0.0
 10
409.2971628868154
 20
-19.08131046737537
 30
0.0
 10
368.7524138129551
 20
-19.27212795818473
 30
0.0
 10
328.2075236280007
 20
-19.43860378353237
 30
0.0
 10
287.6625276097003
 20
-19.57202433266297
 30
0.0
 10
226.2629679011158
 20
-19.77409543403452
 30
0.0
 10
164.863125970317
 20
-19.90038987242061
 30
0.0
 10
103.4631782061852
 20
-19.89326376165173
 30
0.0
  0
ENDBLK
  5
C2
330
BF
100
AcDbEntity
  8
0
100
AcDbBlockEnd
  0
BLOCK
  5
C6
330
C4
100
AcDbEntity
  8
0
100
AcDbBlockBegin
  2
block 26
 70
     0
 10
0.0
 20
0.0
 30
0.0
  3
block 26
  1

  0
SPLINE
  5
C8
330
C4
100
AcDbEntity
  8
0
 62
   250
370
    25
100
AcDbSpline
210
0.0
220
0.0
230
1.0
 70
     8
 71
     3
 72
    50
 73
    46
 74
     0
 42
0.0000000001
 43
0.0000000001
 12
1.0
 22
0.0
 32
0.0
 13
1.0
 23
0.0
 33
0.0
 40
0.0
 40
0.0
 40
0.0
 40
0.0
 40
1.0
 40
1.0
 40
1.0
 40
2.0
 40
2.0
 40
2.0
 40
3.0
 40
3.0
 40
3.0
 40
4.0
 40
4.0
 40
4.0
 40
5.0
 40
5.0
 40
5.0
 40
6.0
 40
6.0
 40
6.0
 40
7.0
 40
7.0
 40
7.0
 40
8.0
 40
8.0
 40
8.0
 40
9.0
 40
9.0
 40
9.0
 40
10.0
 40
10.0
 40
10.0
 40
11.0
 40
11.0
 40
11.0
 40
12.0
 40
12.0
 40
12.0
 40
13.0
 40
13.0
 40
13.0
 40
14.0
 40
14.0
 40
14.0
 40
15.0
 40
15.0
 40
15.0
 40
15.0
 10
103.5285479269175
 20
317.2603365290371
 30
0.0
 10
133.3866000226548
 20
317.2610773623509
 30
0.0
 10
163.2446873961777
 20
317.231902640812
 30
0.0
 10
193.1027042141417
 20
317.1773279198377
 30
0.0
 10
225.2242137581765
 20
317.1186256989475
 30
0.0
 10
257.3456527466641
 20
317.0305723676207
 30
0.0
 10
289.4670211795928
 20
316.9208584812311
 30
0.0
 10
329.2097299939926
 20
316.7850743176712
 30
0.0
 10
368.9523329750592
 20
316.6161643215254
 30
0.0
 10
408.6948301227932
 20
316.4231948815029
 30
0.0
 10
437.3030964137479
 20
316.2842709957822
 30
0.0
 10
465.9113627047033
 20
316.132858777016
 30
0.0
 10
494.519205662338
 20
315.9211921151867
 30
0.0
 10
515.7280287889873
 20
315.7642765632185
 30
0.0
 10
536.9366755267438
 20
315.5742351786774
 30
0.0
 10
558.1446167089795
 20
315.3235512955129
 30
0.0
 10
567.199399002132
 20
315.2164832423853
 30
0.0
 10
576.2540754619771
 20
315.0984085228654
 30
0.0
 10
585.3086813662499
 20
314.9741954701497
 30
0.0
 10
590.7080862429198
 20
314.9001121385074
 30
0.0
 10
596.1074205640302
 20
314.8238768624654
 30
0.0
 10
601.5067548851407
 20
314.7448899198397
 30
0.0
 10
608.4815241702667
 20
314.6428665888333
 30
0.0
 10
615.4562228998196
 20
314.5362218690456
 30
0.0
 10
622.430921629399
 20
314.4300710381438
 30
0.0
 10
623.3671232746723
 20
314.4158188162384
 30
0.0
 10
624.303289642184
 20
314.40156659434
 30
0.0
 10
625.2394912874701
 20
314.3886902057475
 30
0.0
 10
628.9079567592238
 20
314.3382077069012
 30
0.0
 10
632.5764927865376
 20
314.3086802075705
 30
0.0
 10
636.2451346471719
 20
314.2493077089331
 30
0.0
 10
639.345733743011
 20
314.1991427100737
 30
0.0
 10
642.446403394409
 20
314.1276699339384
 30
0.0
 10
645.5401233237384
 20
313.9155093832231
 30
0.0
 10
646.6908138530143
 20
313.836592996132
 30
0.0
 10
647.8405518823037
 20
313.7382385539336
 30
0.0
 10
648.9851746339381
 20
313.5969157793981
 30
0.0
 10
649.4159162907604
 20
313.543716891724
 30
0.0
 10
649.8459523920477
 20
313.4844502263948
 30
0.0
 10
650.2739423822812
 20
313.4122013391656
 30
0.0
 10
650.4551996003656
 20
313.3816155065279
 30
0.0
 10
650.6361393184498
 20
313.3486660628348
 30
0.0
 10
650.8161970921196
 20
313.3115891192336
 30
0.0
 10
650.9342012560863
 20
313.2873180086904
 30
0.0
 10
651.0518526422919
 20
313.2612124537206
 30
0.0
 10
651.1672815285376
 20
313.226146343413
 30
0.0
  0
ENDBLK
  5
C7
330
C4
100
AcDbEntity
  8
0
100
AcDbBlockEnd
  0
BLOCK
  5
CB
330
C9
100
AcDbEntity
  8
0
100
AcDbBlockBegin
  2
block 27
 70
     0
 10
0.0
 20
0.0
 30
0.0
  3
block 27
  1

  0
SPLINE
  5
CD
330
C9
100
AcDbEntity
  8
0
 62
   250
370
    25
100
AcDbSpline
210
0.0
220
0.0
230
1.0
 70
     8
 71
     3
 72
     8
 73
     4
 74
     0
 42
0.0000000001
 43
0.0000000001
 12
1.0
 22
0.0
 32
0.0
 13
1.0
 23
0.0
 33
0.0
 40
0.0
 40
0.0
 40
0.0
 40
0.0
 40
1.0
 40
1.0
 40
1.0
 40
1.0
 10
653.0257148194238
 20
311.8698216521769
 30
0.0
 10
652.9886025980496
 20
311.8106960979667
 30
0.0
 10
752.010643676264
 20
416.7820398605027
 30
0.0
 10
752.010643676264
 20
416.7820398605027
 30
0.0
  0
ENDBLK
  5
CC
330
C9
100
AcDbEntity
  8
0
100
AcDbBlockEnd
  0
BLOCK
  5
D0
330
CE
100
AcDbEntity
  8
0
100
AcDbBlockBegin
  2
block 28
 70
     0
 10
0.0
 20
0.0
 30
0.0
  3
block 28
  1

  0
POLYLINE
  5
D2
330
CE
100
AcDbEntity
  8
0
 62
   250
370
    25
100
AcDb2dPolyline
 66
     1
 10
0.0
 20
0.0
 30
0.0
  0
VERTEX
  5
D3
330
D2
100
AcDbEntity
  8
0
 62
   250
370
    25
100
AcDbVertex
100
AcDb2dVertex
 10
-298.6792434411735
 20
313.4671993934675
 30
0.0
  0
VERTEX
  5
D4
330
D2
100
AcDbEntity
  8
0
 62
   250
370
    25
100
AcDbVertex
100
AcDb2dVertex
 10
-524.3959855074421
 20
430.4109133888285
 30
0.0
  0
SEQEND
  5
D5
330
D2
100
AcDbEntity
  8
0
 62
   250
370
    25
  0
ENDBLK
  5
D1
330
CE
100
AcDbEntity
  8
0
100
AcDbBlockEnd
  0
BLOCK
  5
D8
330
D6
100
AcDbEntity
  8
0
100
AcDbBlockBegin
  2
block 29
 70
     0
 10
0.0
 20
0.0
 30
0.0
  3
block 29
  1

  0
POLYLINE
  5
DA
330
D6
100
AcDbEntity
  8
0
 62
   250
370
    25
100
AcDb2dPolyline
 66
     1
 10
0.0
 20
0.0
 30
0.0
  0
VERTEX
  5
DB
330
DA
100
AcDbEntity
  8
0
 62
   250
370
    25
100
AcDbVertex
100
AcDb2dVertex
 10
-298.6566656639178
 20
-16.1002678330005
 30
0.0
  0
VERTEX
  5
DC
330
DA
100
AcDbEntity
  8
0
 62
   250
370
    25
100
AcDbVertex
100
AcDb2dVertex
 10
-506.7178460764678
 20
-143.9445943002607
 30
0.0
  0
SEQEND
  5
DD
330
DA
100
AcDbEntity
  8
0
 62
   250
370
    25
  0
ENDBLK
  5
D9
330
D6
100
AcDbEntity
  8
0
100
AcDbBlockEnd
  0
BLOCK
  5
E0
330
DE
100
AcDbEntity
  8
0
100
AcDbBlockBegin
  2
block 30
 70
     0
 10
0.0
 20
0.0
 30
0.0
  3
block 30
  1

  0
SPLINE
  5
E2
330
DE
100
AcDbEntity
  8
0
 62
   250
370
    25
100
AcDbSpline
210
0.0
220
0.0
230
1.0
 70
     8
 71
     3
 72
    11
 73
     7
 74
     0
 42
0.0000000001
 43
0.0000000001
 12
1.0
 22
0.0
 32
0.0
 13
1.0
 23
0.0
 33
0.0
 40
0.0
 40
0.0
 40
0.0
 40
0.0
 40
1.0
 40
1.0
 40
1.0
 40
2.0
 40
2.0
 40
2.0
 40
2.0
 10
563.2518351266509
 20
126.1112414566075
 30
0.0
 10
550.6502569580891
 20
119.2269579550787
 30
0.0
 10
534.8538518751072
 20
123.8617534478173
 30
0.0
 10
527.9696034774574
 20
136.4632960202585
 30
0.0
 10
521.0853198020089
 20
149.0648738704735
 30
0.0
 10
525.7201154118384
 20
164.8612877986573
 30
0.0
 10
538.3216935804003
 20
171.7455361963129
 30
0.0
  0
ENDBLK
  5
E1
330
DE
100
AcDbEntity
  8
0
100
AcDbBlockEnd
  0
BLOCK
  5
E5
330
E3
100
AcDbEntity
  8
0
100
AcDbBlockBegin
  2
block 31
 70
     0
 10
0.0
 20
0.0
 30
0.0
  3
block 31
  1

  0
SPLINE
  5
E7
330
E3
100
AcDbEntity
  8
0
 62
   250
370
    25
100
AcDbSpline
210
0.0
220
0.0
230
1.0
 70
     8
 71
     3
 72
    11
 73
     7
 74
     0
 42
0.0000000001
 43
0.0000000001
 12
1.0
 22
0.0
 32
0.0
 13
1.0
 23
0.0
 33
0.0
 40
0.0
 40
0.0
 40
0.0
 40
0.0
 40
1.0
 40
1.0
 40
1.0
 40
2.0
 40
2.0
 40
2.0
 40
2.0
 10
538.3216935804003
 20
171.7455361963129
 30
0.0
 10
550.9232364711755
 20
178.629819871755
 30
0.0
 10
566.7196415541587
 20
173.9950242619262
 30
0.0
 10
573.6038899518206
 20
161.3934460933644
 30
0.0
 10
580.4881736272557
 20
148.7918943642917
 30
0.0
 10
575.8533780174268
 20
132.9954896803562
 30
0.0
 10
563.2518351266509
 20
126.1112414566075
 30
0.0
  0
ENDBLK
  5
E6
330
E3
100
AcDbEntity
  8
0
100
AcDbBlockEnd
  0
BLOCK
  5
EA
330
E8
100
AcDbEntity
  8
0
100
AcDbBlockBegin
  2
block 32
 70
     0
 10
0.0
 20
0.0
 30
0.0
  3
block 32
  1

  0
SPLINE
  5
EC
330
E8
100
AcDbEntity
  8
0
 62
   250
370
    25
100
AcDbSpline
210
0.0
220
0.0
230
1.0
 70
     8
 71
     3
 72
    11
 73
     7
 74
     0
 42
0.0000000001
 43
0.0000000001
 12
1.0
 22
0.0
 32
0.0
 13
1.0
 23
0.0
 33
0.0
 40
0.0
 40
0.0
 40
0.0
 40
0.0
 40
1.0
 40
1.0
 40
1.0
 40
2.0
 40
2.0
 40
2.0
 40
2.0
 10
529.5551635983434
 20
187.7925546756521
 30
0.0
 10
551.0192626064288
 20
199.5184323462437
 30
0.0
 10
577.9250307605547
 20
191.6240398057074
 30
0.0
 10
589.6509084311464
 20
170.1599760754142
 30
0.0
 10
601.3767861017515
 20
148.6958682314576
 30
0.0
 10
593.4824288390067
 20
121.7901007570328
 30
0.0
 10
572.018329830922
 20
110.0642233826559
 30
0.0
  0
ENDBLK
  5
EB
330
E8
100
AcDbEntity
  8
0
100
AcDbBlockEnd
  0
BLOCK
  5
EF
330
ED
100
AcDbEntity
  8
0
100
AcDbBlockBegin
  2
block 33
 70
     0
 10
0.0
 20
0.0
 30
0.0
  3
block 33
  1

  0
SPLINE
  5
F1
330
ED
100
AcDbEntity
  8
0
 62
   250
370
    25
100
AcDbSpline
210
0.0
220
0.0
230
1.0
 70
     8
 71
     3
 72
    11
 73
     7
 74
     0
 42
0.0000000001
 43
0.0000000001
 12
1.0
 22
0.0
 32
0.0
 13
1.0
 23
0.0
 33
0.0
 40
0.0
 40
0.0
 40
0.0
 40
0.0
 40
1.0
 40
1.0
 40
1.0
 40
2.0
 40
2.0
 40
2.0
 40
2.0
 10
572.018329830922
 20
110.0642233826559
 30
0.0
 10
550.554266100623
 20
98.3383460082725
 30
0.0
 10
523.6484979464971
 20
106.2327030716016
 30
0.0
 10
511.9225849981183
 20
127.6968015374513
 30
0.0
 10
500.1967073275138
 20
149.160864725521
 30
0.0
 10
508.0910998680572
 20
176.066677005047
 30
0.0
 10
529.5551635983434
 20
187.7925546756521
 30
0.0
  0
ENDBLK
  5
F0
330
ED
100
AcDbEntity
  8
0
100
AcDbBlockEnd
  0
BLOCK
  5
F4
330
F2
100
AcDbEntity
  8
0
100
AcDbBlockBegin
  2
block 34
 70
     0
 10
0.0
 20
0.0
 30
0.0
  3
block 34
  1

  0
POLYLINE
  5
F6
330
F2
100
AcDbEntity
  8
0
 62
     4
370
    25
100
AcDb2dPolyline
 66
     1
 10
0.0
 20
0.0
 30
0.0
  0
VERTEX
  5
F7
330
F6
100
AcDbEntity
  8
0
 62
     4
370
    25
100
AcDbVertex
100
AcDb2dVertex
 10
616.5399310955979
 20
149.3019414333504
 30
0.0
  0
VERTEX
  5
F8
330
F6
100
AcDbEntity
  8
0
 62
     4
370
    25
100
AcDbVertex
100
AcDb2dVertex
 10
605.2898425974339
 20
149.3019414333504
 30
0.0
  0
SEQEND
  5
F9
330
F6
100
AcDbEntity
  8
0
 62
     4
370
    25
  0
ENDBLK
  5
F5
330
F2
100
AcDbEntity
  8
0
100
AcDbBlockEnd
  0
BLOCK
  5
FC
330
FA
100
AcDbEntity
  8
0
100
AcDbBlockBegin
  2
block 35
 70
     0
 10
0.0
 20
0.0
 30
0.0
  3
block 35
  1

  0
POLYLINE
  5
FE
330
FA
100
AcDbEntity
  8
0
  6
AI-Linetype-1
 62
     4
370
    25
100
AcDb2dPolyline
 66
     1
 10
0.0
 20
0.0
 30
0.0
  0
VERTEX
  5
FF
330
FE
100
AcDbEntity
  8
0
  6
AI-Linetype-1
 62
     4
370
    25
100
AcDbVertex
100
AcDb2dVertex
 10
601.715771349955
 20
149.3019414333504
 30
0.0
  0
VERTEX
  5
100
330
FE
100
AcDbEntity
  8
0
  6
AI-Linetype-1
 62
     4
370
    25
100
AcDbVertex
100
AcDb2dVertex
 10
596.3545998831963
 20
149.3019414333504
 30
0.0
  0
SEQEND
  5
102
330
FE
100
AcDbEntity
  8
0
  6
AI-Linetype-1
 62
     4
370
    25
  0
ENDBLK
  5
FD
330
FA
100
AcDbEntity
  8
0
100
AcDbBlockEnd
  0
BLOCK
  5
105
330
103
100
AcDbEntity
  8
0
100
AcDbBlockBegin
  2
block 36
 70
     0
 10
0.0
 20
0.0
 30
0.0
  3
block 36
  1

  0
POLYLINE
  5
107
330
103
100
AcDbEntity
  8
0
  6
AI-Linetype-2
 62
     4
370
    25
100
AcDb2dPolyline
 66
     1
 10
0.0
 20
0.0
 30
0.0
  0
VERTEX
  5
108
330
107
100
AcDbEntity
  8
0
  6
AI-Linetype-2
 62
     4
370
    25
100
AcDbVertex
100
AcDb2dVertex
 10
594.5675427276101
 20
149.3019414333504
 30
0.0
  0
VERTEX
  5
109
330
107
100
AcDbEntity
  8
0
  6
AI-Linetype-2
 62
     4
370
    25
100
AcDbVertex
100
AcDb2dVertex
 10
499.8534704178468
 20
149.3019414333504
 30
0.0
  0
SEQEND
  5
10B
330
107
100
AcDbEntity
  8
0
  6
AI-Linetype-2
 62
     4
370
    25
  0
ENDBLK
  5
106
330
103
100
AcDbEntity
  8
0
100
AcDbBlockEnd
  0
BLOCK
  5
10E
330
10C
100
AcDbEntity
  8
0
100
AcDbBlockBegin
  2
block 37
 70
     0
 10
0.0
 20
0.0
 30
0.0
  3
block 37
  1

  0
POLYLINE
  5
110
330
10C
100
AcDbEntity
  8
0
 62
     4
370
    25
100
AcDb2dPolyline
 66
     1
 10
0.0
 20
0.0
 30
0.0
  0
VERTEX
  5
111
330
110
100
AcDbEntity
  8
0
 62
     4
370
    25
100
AcDbVertex
100
AcDb2dVertex
 10
498.0664132622606
 20
149.3019414333504
 30
0.0
  0
VERTEX
  5
112
330
110
100
AcDbEntity
  8
0
 62
     4
370
    25
100
AcDbVertex
100
AcDb2dVertex
 10
486.8163247640965
 20
149.3019414333504
 30
0.0
  0
SEQEND
  5
113
330
110
100
AcDbEntity
  8
0
 62
     4
370
    25
  0
ENDBLK
  5
10F
330
10C
100
AcDbEntity
  8
0
100
AcDbBlockEnd
  0
BLOCK
  5
116
330
114
100
AcDbEntity
  8
0
100
AcDbBlockBegin
  2
block 38
 70
     0
 10
0.0
 20
0.0
 30
0.0
  3
block 38
  1

  0
POLYLINE
  5
118
330
114
100
AcDbEntity
  8
0
 62
     4
370
    25
100
AcDb2dPolyline
 66
     1
 10
0.0
 20
0.0
 30
0.0
  0
VERTEX
  5
119
330
118
100
AcDbEntity
  8
0
 62
     4
370
    25
100
AcDbVertex
100
AcDb2dVertex
 10
550.4487886696294
 20
214.1050649336563
 30
0.0
  0
VERTEX
  5
11A
330
118
100
AcDbEntity
  8
0
 62
     4
370
    25
100
AcDbVertex
100
AcDb2dVertex
 10
550.4487886696294
 20
202.8549818184539
 30
0.0
  0
SEQEND
  5
11B
330
118
100
AcDbEntity
  8
0
 62
     4
370
    25
  0
ENDBLK
  5
117
330
114
100
AcDbEntity
  8
0
100
AcDbBlockEnd
  0
BLOCK
  5
11E
330
11C
100
AcDbEntity
  8
0
100
AcDbBlockBegin
  2
block 39
 70
     0
 10
0.0
 20
0.0
 30
0.0
  3
block 39
  1

  0
POLYLINE
  5
120
330
11C
100
AcDbEntity
  8
0
  6
AI-Linetype-3
 62
     4
370
    25
100
AcDb2dPolyline
 66
     1
 10
0.0
 20
0.0
 30
0.0
  0
VERTEX
  5
121
330
120
100
AcDbEntity
  8
0
  6
AI-Linetype-3
 62
     4
370
    25
100
AcDbVertex
100
AcDb2dVertex
 10
550.4487886696294
 20
199.2808890391283
 30
0.0
  0
VERTEX
  5
122
330
120
100
AcDbEntity
  8
0
  6
AI-Linetype-3
 62
     4
370
    25
100
AcDbVertex
100
AcDb2dVertex
 10
550.4487886696294
 20
193.9197606360632
 30
0.0
  0
SEQEND
  5
124
330
120
100
AcDbEntity
  8
0
  6
AI-Linetype-3
 62
     4
370
    25
  0
ENDBLK
  5
11F
330
11C
100
AcDbEntity
  8
0
100
AcDbBlockEnd
  0
BLOCK
  5
127
330
125
100
AcDbEntity
  8
0
100
AcDbBlockBegin
  2
block 40
 70
     0
 10
0.0
 20
0.0
 30
0.0
  3
block 40
  1

  0
POLYLINE
  5
129
330
125
100
AcDbEntity
  8
0
  6
AI-Linetype-4
 62
     4
370
    25
100
AcDb2dPolyline
 66
     1
 10
0.0
 20
0.0
 30
0.0
  0
VERTEX
  5
12A
330
129
100
AcDbEntity
  8
0
  6
AI-Linetype-4
 62
     4
370
    25
100
AcDbVertex
100
AcDb2dVertex
 10
550.4487886696294
 20
192.1327142464003
 30
0.0
  0
VERTEX
  5
12B
330
129
100
AcDbEntity
  8
0
  6
AI-Linetype-4
 62
     4
370
    25
100
AcDbVertex
100
AcDb2dVertex
 10
550.4487886696294
 20
97.41881419141126
 30
0.0
  0
SEQEND
  5
12D
330
129
100
AcDbEntity
  8
0
  6
AI-Linetype-4
 62
     4
370
    25
  0
ENDBLK
  5
128
330
125
100
AcDbEntity
  8
0
100
AcDbBlockEnd
  0
BLOCK
  5
130
330
12E
100
AcDbEntity
  8
0
100
AcDbBlockBegin
  2
block 41
 70
     0
 10
0.0
 20
0.0
 30
0.0
  3
block 41
  1

  0
POLYLINE
  5
132
330
12E
100
AcDbEntity
  8
0
 62
     4
370
    25
100
AcDb2dPolyline
 66
     1
 10
0.0
 20
0.0
 30
0.0
  0
VERTEX
  5
133
330
132
100
AcDbEntity
  8
0
 62
     4
370
    25
100
AcDbVertex
100
AcDb2dVertex
 10
550.4487886696294
 20
95.63175703582503
 30
0.0
  0
VERTEX
  5
134
330
132
100
AcDbEntity
  8
0
 62
     4
370
    25
100
AcDbVertex
100
AcDb2dVertex
 10
550.4487886696294
 20
84.38169006950778
 30
0.0
  0
SEQEND
  5
135
330
132
100
AcDbEntity
  8
0
 62
     4
370
    25
  0
ENDBLK
  5
131
330
12E
100
AcDbEntity
  8
0
100
AcDbBlockEnd
  0
ENDSEC
  0
SECTION
  2
ENTITIES
  0
INSERT
  5
41
330
1F
100
AcDbEntity
  8
0
100
AcDbBlockReference
  2
block 2
 10
0.0
 20
0.0
 30
0.0
  0
INSERT
  5
46
330
1F
100
AcDbEntity
  8
0
100
AcDbBlockReference
  2
block 3
 10
0.0
 20
0.0
 30
0.0
  0
INSERT
  5
4B
330
1F
100
AcDbEntity
  8
0
100
AcDbBlockReference
  2
block 4
 10
0.0
 20
0.0
 30
0.0
  0
INSERT
  5
50
330
1F
100
AcDbEntity
  8
0
100
AcDbBlockReference
  2
block 5
 10
0.0
 20
0.0
 30
0.0
  0
INSERT
  5
55
330
1F
100
AcDbEntity
  8
0
100
AcDbBlockReference
  2
block 6
 10
0.0
 20
0.0
 30
0.0
  0
INSERT
  5
5D
330
1F
100
AcDbEntity
  8
0
100
AcDbBlockReference
  2
block 7
 10
0.0
 20
0.0
 30
0.0
  0
INSERT
  5
62
330
1F
100
AcDbEntity
  8
0
100
AcDbBlockReference
  2
block 8
 10
0.0
 20
0.0
 30
0.0
  0
INSERT
  5
6A
330
1F
100
AcDbEntity
  8
0
100
AcDbBlockReference
  2
block 9
 10
0.0
 20
0.0
 30
0.0
  0
INSERT
  5
72
330
1F
100
AcDbEntity
  8
0
100
AcDbBlockReference
  2
block 10
 10
0.0
 20
0.0
 30
0.0
  0
INSERT
  5
77
330
1F
100
AcDbEntity
  8
0
100
AcDbBlockReference
  2
block 11
 10
0.0
 20
0.0
 30
0.0
  0
INSERT
  5
7C
330
1F
100
AcDbEntity
  8
0
100
AcDbBlockReference
  2
block 12
 10
0.0
 20
0.0
 30
0.0
  0
INSERT
  5
84
330
1F
100
AcDbEntity
  8
0
100
AcDbBlockReference
  2
block 13
 10
0.0
 20
0.0
 30
0.0
  0
INSERT
  5
89
330
1F
100
AcDbEntity
  8
0
100
AcDbBlockReference
  2
block 14
 10
0.0
 20
0.0
 30
0.0
  0
INSERT
  5
8E
330
1F
100
AcDbEntity
  8
0
100
AcDbBlockReference
  2
block 15
 10
0.0
 20
0.0
 30
0.0
  0
INSERT
  5
93
330
1F
100
AcDbEntity
  8
0
100
AcDbBlockReference
  2
block 16
 10
0.0
 20
0.0
 30
0.0
  0
INSERT
  5
98
330
1F
100
AcDbEntity
  8
0
100
AcDbBlockReference
  2
block 17
 10
0.0
 20
0.0
 30
0.0
  0
INSERT
  5
9D
330
1F
100
AcDbEntity
  8
0
100
AcDbBlockReference
  2
block 18
 10
0.0
 20
0.0
 30
0.0
  0
INSERT
  5
A2
330
1F
100
AcDbEntity
  8
0
100
AcDbBlockReference
  2
block 19
 10
0.0
 20
0.0
 30
0.0
  0
INSERT
  5
A7
330
1F
100
AcDbEntity
  8
0
100
AcDbBlockReference
  2
block 20
 10
0.0
 20
0.0
 30
0.0
  0
INSERT
  5
AC
330
1F
100
AcDbEntity
  8
0
100
AcDbBlockReference
  2
block 21
 10
0.0
 20
0.0
 30
0.0
  0
INSERT
  5
B1
330
1F
100
AcDbEntity
  8
0
100
AcDbBlockReference
  2
block 22
 10
0.0
 20
0.0
 30
0.0
  0
INSERT
  5
B6
330
1F
100
AcDbEntity
  8
0
100
AcDbBlockReference
  2
block 23
 10
0.0
 20
0.0
 30
0.0
  0
INSERT
  5
BB
330
1F
100
AcDbEntity
  8
0
100
AcDbBlockReference
  2
block 24
 10
0.0
 20
0.0
 30
0.0
  0
INSERT
  5
C0
330
1F
100
AcDbEntity
  8
0
100
AcDbBlockReference
  2
block 25
 10
0.0
 20
0.0
 30
0.0
  0
INSERT
  5
C5
330
1F
100
AcDbEntity
  8
0
100
AcDbBlockReference
  2
block 26
 10
0.0
 20
0.0
 30
0.0
  0
INSERT
  5
CA
330
1F
100
AcDbEntity
  8
0
100
AcDbBlockReference
  2
block 27
 10
0.0
 20
0.0
 30
0.0
  0
INSERT
  5
CF
330
1F
100
AcDbEntity
  8
0
100
AcDbBlockReference
  2
block 28
 10
0.0
 20
0.0
 30
0.0
  0
INSERT
  5
D7
330
1F
100
AcDbEntity
  8
0
100
AcDbBlockReference
  2
block 29
 10
0.0
 20
0.0
 30
0.0
  0
INSERT
  5
DF
330
1F
100
AcDbEntity
  8
0
100
AcDbBlockReference
  2
block 30
 10
0.0
 20
0.0
 30
0.0
  0
INSERT
  5
E4
330
1F
100
AcDbEntity
  8
0
100
AcDbBlockReference
  2
block 31
 10
0.0
 20
0.0
 30
0.0
  0
INSERT
  5
E9
330
1F
100
AcDbEntity
  8
0
100
AcDbBlockReference
  2
block 32
 10
0.0
 20
0.0
 30
0.0
  0
INSERT
  5
EE
330
1F
100
AcDbEntity
  8
0
100
AcDbBlockReference
  2
block 33
 10
0.0
 20
0.0
 30
0.0
  0
INSERT
  5
F3
330
1F
100
AcDbEntity
  8
0
100
AcDbBlockReference
  2
block 34
 10
0.0
 20
0.0
 30
0.0
  0
INSERT
  5
FB
330
1F
100
AcDbEntity
  8
0
100
AcDbBlockReference
  2
block 35
 10
0.0
 20
0.0
 30
0.0
  0
INSERT
  5
104
330
1F
100
AcDbEntity
  8
0
100
AcDbBlockReference
  2
block 36
 10
0.0
 20
0.0
 30
0.0
  0
INSERT
  5
10D
330
1F
100
AcDbEntity
  8
0
100
AcDbBlockReference
  2
block 37
 10
0.0
 20
0.0
 30
0.0
  0
INSERT
  5
115
330
1F
100
AcDbEntity
  8
0
100
AcDbBlockReference
  2
block 38
 10
0.0
 20
0.0
 30
0.0
  0
INSERT
  5
11D
330
1F
100
AcDbEntity
  8
0
100
AcDbBlockReference
  2
block 39
 10
0.0
 20
0.0
 30
0.0
  0
INSERT
  5
126
330
1F
100
AcDbEntity
  8
0
100
AcDbBlockReference
  2
block 40
 10
0.0
 20
0.0
 30
0.0
  0
INSERT
  5
12F
330
1F
100
AcDbEntity
  8
0
100
AcDbBlockReference
  2
block 41
 10
0.0
 20
0.0
 30
0.0
  0
ENDSEC
  0
SECTION
  2
OBJECTS
  0
DICTIONARY
  5
C
330
0
100
AcDbDictionary
281
     1
  3
ACAD_GROUP
350
D
  3
ACAD_LAYOUT
350
1A
  3
ACAD_MATERIAL
350
3B
  3
ACAD_MLEADERSTYLE
350
157
  3
ACAD_MLINESTYLE
350
17
  3
ACAD_PLOTSETTINGS
350
19
  3
ACAD_PLOTSTYLENAME
350
E
  3
ACAD_TABLESTYLE
350
156
  3
ACAD_VISUALSTYLE
350
2A
  0
SUN
  5
3F
330
29
100
AcDbSun
 90
        1
290
     0
 63
     7
421
 16777215
 40
1.0
291
     1
 91
  2455826
 92
 54000000
292
     0
 70
     2
 71
   256
280
     1
  0
DICTIONARY
  5
D
102
{ACAD_REACTORS
330
C
102
}
330
C
100
AcDbDictionary
281
     1
  0
DICTIONARY
  5
1A
102
{ACAD_REACTORS
330
C
102
}
330
C
100
AcDbDictionary
281
     1
  3
Layout1
350
1E
  3
Layout2
350
26
  3
Model
350
22
  0
DICTIONARY
  5
3B
102
{ACAD_REACTORS
330
C
102
}
330
C
100
AcDbDictionary
281
     1
  3
ByBlock
350
3D
  3
ByLayer
350
3C
  3
Global
350
3E
  0
DICTIONARY
  5
157
102
{ACAD_REACTORS
330
C
102
}
330
C
100
AcDbDictionary
281
     1
  0
DICTIONARY
  5
17
102
{ACAD_REACTORS
330
C
102
}
330
C
100
AcDbDictionary
281
     1
  3
Standard
350
18
  0
DICTIONARY
  5
19
102
{ACAD_REACTORS
330
C
102
}
330
C
100
AcDbDictionary
281
     1
  0
ACDBDICTIONARYWDFLT
  5
E
102
{ACAD_REACTORS
330
C
102
}
330
C
100
AcDbDictionary
281
     1
  3
Normal
350
F
100
AcDbDictionaryWithDefault
340
F
  0
DICTIONARY
  5
156
102
{ACAD_REACTORS
330
C
102
}
330
C
100
AcDbDictionary
281
     1
  0
DICTIONARY
  5
2A
102
{ACAD_REACTORS
330
C
102
}
330
C
100
AcDbDictionary
281
     1
  3
2dWireframe
350
2F
  3
3D Hidden
350
31
  3
3dWireframe
350
30
  3
Basic
350
32
  3
Brighten
350
36
  3
ColorChange
350
3A
  3
Conceptual
350
34
  3
Dim
350
35
  3
Facepattern
350
39
  3
Flat
350
2B
  3
FlatWithEdges
350
2C
  3
Gouraud
350
2D
  3
GouraudWithEdges
350
2E
  3
Linepattern
350
38
  3
Realistic
350
33
  3
Thicken
350
37
  0
LAYOUT
  5
1E
102
{ACAD_REACTORS
330
1A
102
}
330
1A
100
AcDbPlotSettings
  1

  2
none_device
  4

  6

 40
0.0
 41
0.0
 42
0.0
 43
0.0
 44
0.0
 45
0.0
 46
0.0
 47
0.0
 48
0.0
 49
0.0
140
0.0
141
0.0
142
1.0
143
1.0
 70
   688
 72
     0
 73
     0
 74
     5
  7

 75
    16
 76
     0
 77
     2
 78
   300
147
1.0
148
0.0
149
0.0
100
AcDbLayout
  1
Layout1
 70
     1
 71
     1
 10
0.0
 20
0.0
 11
12.0
 21
9.0
 12
0.0
 22
0.0
 32
0.0
 14
1.000000000000000E+20
 24
1.000000000000000E+20
 34
1.000000000000000E+20
 15
-1.000000000000000E+20
 25
-1.000000000000000E+20
 35
-1.000000000000000E+20
146
0.0
 13
0.0
 23
0.0
 33
0.0
 16
1.0
 26
0.0
 36
0.0
 17
0.0
 27
1.0
 37
0.0
 76
     0
330
1B
  0
LAYOUT
  5
26
102
{ACAD_REACTORS
330
1A
102
}
330
1A
100
AcDbPlotSettings
  1

  2
none_device
  4

  6

 40
0.0
 41
0.0
 42
0.0
 43
0.0
 44
0.0
 45
0.0
 46
0.0
 47
0.0
 48
0.0
 49
0.0
140
0.0
141
0.0
142
1.0
143
1.0
 70
   688
 72
     0
 73
     0
 74
     5
  7

 75
    16
 76
     0
 77
     2
 78
   300
147
1.0
148
0.0
149
0.0
100
AcDbLayout
  1
Layout2
 70
     1
 71
     2
 10
0.0
 20
0.0
 11
0.0
 21
0.0
 12
0.0
 22
0.0
 32
0.0
 14
0.0
 24
0.0
 34
0.0
 15
0.0
 25
0.0
 35
0.0
146
0.0
 13
0.0
 23
0.0
 33
0.0
 16
1.0
 26
0.0
 36
0.0
 17
0.0
 27
1.0
 37
0.0
 76
     0
330
23
  0
LAYOUT
  5
22
102
{ACAD_REACTORS
330
1A
102
}
330
1A
100
AcDbPlotSettings
  1

  2
none_device
  4

  6

 40
0.0
 41
0.0
 42
0.0
 43
0.0
 44
0.0
 45
0.0
 46
0.0
 47
0.0
 48
0.0
 49
0.0
140
0.0
141
0.0
142
1.0
143
1.0
 70
  1712
 72
     0
 73
     0
 74
     0
  7

 75
     0
 76
     0
 77
     2
 78
   300
147
1.0
148
0.0
149
0.0
100
AcDbLayout
  1
Model
 70
     1
 71
     0
 10
0.0
 20
0.0
 11
12.0
 21
9.0
 12
0.0
 22
0.0
 32
0.0
 14
1.000000000000000E+20
 24
1.000000000000000E+20
 34
1.000000000000000E+20
 15
-1.000000000000000E+20
 25
-1.000000000000000E+20
 35
-1.000000000000000E+20
146
0.0
 13
0.0
 23
0.0
 33
0.0
 16
1.0
 26
0.0
 36
0.0
 17
0.0
 27
1.0
 37
0.0
 76
     0
330
1F
331
29
  0
MATERIAL
  5
3D
102
{ACAD_REACTORS
330
3B
102
}
330
3B
100
AcDbMaterial
  1
ByBlock
 72
     1
 94
      127
  0
MATERIAL
  5
3C
102
{ACAD_REACTORS
330
3B
102
}
330
3B
100
AcDbMaterial
  1
ByLayer
 72
     1
 94
      127
  0
MATERIAL
  5
3E
102
{ACAD_REACTORS
330
3B
102
}
330
3B
100
AcDbMaterial
  1
Global
 72
     1
 94
      127
  0
MLINESTYLE
  5
18
102
{ACAD_REACTORS
330
17
102
}
330
17
100
AcDbMlineStyle
  2
Standard
 70
     0
  3

 62
   256
 51
90.0
 52
90.0
 71
     2
 49
0.5
 62
   256
  6
BYLAYER
 49
-0.5
 62
   256
  6
BYLAYER
  0
ACDBPLACEHOLDER
  5
F
102
{ACAD_REACTORS
330
E
102
}
330
E
  0
VISUALSTYLE
  5
2F
102
{ACAD_REACTORS
330
2A
102
}
102
{ACAD_XDICTIONARY
360
13E
102
}
330
2A
100
AcDbVisualStyle
  2
2dWireframe
 70
     4
 71
     0
 72
     2
 73
     0
 90
        0
 40
-0.6
 41
-30.0
 62
     5
 63
     7
421
 16777215
 74
     1
 91
        4
 64
     7
 65
   257
 75
     1
175
     1
 42
1.0
 92
        0
 66
   257
 43
1.0
 76
     1
 77
     6
 78
     2
 67
     7
 79
     5
170
     0
171
     0
290
     0
174
     0
 93
        1
 44
0.0
173
     0
291
     0
 45
0.0
  0
VISUALSTYLE
  5
31
102
{ACAD_REACTORS
330
2A
102
}
102
{ACAD_XDICTIONARY
360
142
102
}
330
2A
100
AcDbVisualStyle
  2
3D Hidden
 70
     6
 71
     1
 72
     2
 73
     2
 90
        0
 40
-0.6
 41
-30.0
 62
     5
 63
     7
421
 16777215
 74
     2
 91
        2
 64
     7
 65
   257
 75
     2
175
     1
 42
40.0
 92
        0
 66
   257
 43
1.0
 76
     1
 77
     6
 78
     2
 67
     7
 79
     3
170
     0
171
     0
290
     0
174
     0
 93
        1
 44
0.0
173
     0
291
     0
 45
0.0
  0
VISUALSTYLE
  5
30
102
{ACAD_REACTORS
330
2A
102
}
102
{ACAD_XDICTIONARY
360
140
102
}
330
2A
100
AcDbVisualStyle
  2
3dWireframe
 70
     5
 71
     0
 72
     2
 73
     0
 90
        0
 40
-0.6
 41
-30.0
 62
     5
 63
     7
421
 16777215
 74
     1
 91
        4
 64
     7
 65
   257
 75
     1
175
     1
 42
1.0
 92
        0
 66
   257
 43
1.0
 76
     1
 77
     6
 78
     2
 67
     7
 79
     5
170
     0
171
     0
290
     0
174
     0
 93
        1
 44
0.0
173
     0
291
     0
 45
0.0
  0
VISUALSTYLE
  5
32
102
{ACAD_REACTORS
330
2A
102
}
102
{ACAD_XDICTIONARY
360
144
102
}
330
2A
100
AcDbVisualStyle
  2
Basic
 70
     7
 71
     1
 72
     0
 73
     1
 90
        0
 40
-0.6
 41
-30.0
 62
     5
 63
     7
421
 16777215
 74
     0
 91
        4
 64
     7
 65
   257
 75
     1
175
     1
 42
1.0
 92
        8
 66
     7
 43
1.0
 76
     1
 77
     6
 78
     2
 67
     7
 79
     5
170
     0
171
     0
290
     0
174
     0
 93
        1
 44
0.0
173
     0
291
     1
 45
0.0
  0
VISUALSTYLE
  5
36
102
{ACAD_REACTORS
330
2A
102
}
102
{ACAD_XDICTIONARY
360
14C
102
}
330
2A
100
AcDbVisualStyle
  2
Brighten
 70
    12
 71
     2
 72
     2
 73
     0
 90
        0
 40
-0.6
 41
-30.0
 62
     5
 63
     7
421
 16777215
 74
     1
 91
        4
 64
     7
 65
   257
 75
     1
175
     1
 42
1.0
 92
        8
 66
     7
 43
1.0
 76
     1
 77
     6
 78
     2
 67
     7
 79
     5
170
     0
171
     0
290
     0
174
     0
 93
        1
 44
50.0
173
     0
291
     1
 45
0.0
  0
VISUALSTYLE
  5
3A
102
{ACAD_REACTORS
330
2A
102
}
102
{ACAD_XDICTIONARY
360
154
102
}
330
2A
100
AcDbVisualStyle
  2
ColorChange
 70
    16
 71
     2
 72
     2
 73
     3
 90
        0
 40
-0.6
 41
-30.0
 62
     5
 63
     8
421
  8421504
 74
     1
 91
        4
 64
     7
 65
   257
 75
     1
175
     1
 42
1.0
 92
        8
 66
     8
424
  8421504
 43
1.0
 76
     1
 77
     6
 78
     2
 67
     7
 79
     5
170
     0
171
     0
290
     0
174
     0
 93
        1
 44
0.0
173
     0
291
     1
 45
0.0
  0
VISUALSTYLE
  5
34
102
{ACAD_REACTORS
330
2A
102
}
102
{ACAD_XDICTIONARY
360
148
102
}
330
2A
100
AcDbVisualStyle
  2
Conceptual
 70
     9
 71
     3
 72
     2
 73
     0
 90
        0
 40
-0.6
 41
-30.0
 62
     5
 63
     7
421
 16777215
 74
     2
 91
        2
 64
     7
 65
   257
 75
     1
175
     1
 42
40.0
 92
        8
 66
     7
 43
1.0
 76
     1
 77
     6
 78
     2
 67
     7
 79
     3
170
     0
171
     0
290
     0
174
     0
 93
        1
 44
0.0
173
     0
291
     0
 45
0.0
  0
VISUALSTYLE
  5
35
102
{ACAD_REACTORS
330
2A
102
}
102
{ACAD_XDICTIONARY
360
14A
102
}
330
2A
100
AcDbVisualStyle
  2
Dim
 70
    11
 71
     2
 72
     2
 73
     0
 90
        0
 40
-0.6
 41
-30.0
 62
     5
 63
     7
421
 16777215
 74
     1
 91
        4
 64
     7
 65
   257
 75
     1
175
     1
 42
1.0
 92
        8
 66
     7
 43
1.0
 76
     1
 77
     6
 78
     2
 67
     7
 79
     5
170
     0
171
     0
290
     0
174
     0
 93
        1
 44
-50.0
173
     0
291
     1
 45
0.0
  0
VISUALSTYLE
  5
39
102
{ACAD_REACTORS
330
2A
102
}
102
{ACAD_XDICTIONARY
360
152
102
}
330
2A
100
AcDbVisualStyle
  2
Facepattern
 70
    15
 71
     2
 72
     2
 73
     0
 90
        0
 40
-0.6
 41
-30.0
 62
     5
 63
     7
421
 16777215
 74
     1
 91
        4
 64
     7
 65
   257
 75
     1
175
     1
 42
1.0
 92
        8
 66
     7
 43
1.0
 76
     1
 77
     6
 78
     2
 67
     7
 79
     5
170
     0
171
     0
290
     0
174
     0
 93
        1
 44
0.0
173
     0
291
     1
 45
0.0
  0
VISUALSTYLE
  5
2B
102
{ACAD_REACTORS
330
2A
102
}
102
{ACAD_XDICTIONARY
360
136
102
}
330
2A
100
AcDbVisualStyle
  2
Flat
 70
     0
 71
     2
 72
     1
 73
     1
 90
        2
 40
-0.6
 41
30.0
 62
     5
 63
     7
421
 16777215
 74
     0
 91
        4
 64
     7
 65
   257
 75
     1
175
     1
 42
1.0
 92
        8
 66
     7
 43
1.0
 76
     1
 77
     6
 78
     2
 67
     7
 79
     5
170
     0
171
     0
290
     0
174
     0
 93
       13
 44
0.0
173
     0
291
     1
 45
0.0
  0
VISUALSTYLE
  5
2C
102
{ACAD_REACTORS
330
2A
102
}
102
{ACAD_XDICTIONARY
360
138
102
}
330
2A
100
AcDbVisualStyle
  2
FlatWithEdges
 70
     1
 71
     2
 72
     1
 73
     1
 90
        2
 40
-0.6
 41
30.0
 62
     5
 63
     7
421
 16777215
 74
     1
 91
        4
 64
     7
 65
   257
 75
     1
175
     1
 42
1.0
 92
        0
 66
   257
 43
1.0
 76
     1
 77
     6
 78
     2
 67
     7
 79
     5
170
     0
171
     0
290
     0
174
     0
 93
       13
 44
0.0
173
     0
291
     1
 45
0.0
  0
VISUALSTYLE
  5
2D
102
{ACAD_REACTORS
330
2A
102
}
102
{ACAD_XDICTIONARY
360
13A
102
}
330
2A
100
AcDbVisualStyle
  2
Gouraud
 70
     2
 71
     2
 72
     2
 73
     1
 90
        2
 40
-0.6
 41
30.0
 62
     5
 63
     7
421
 16777215
 74
     0
 91
        4
 64
     7
 65
   257
 75
     1
175
     1
 42
1.0
 92
        0
 66
     7
 43
1.0
 76
     1
 77
     6
 78
     2
 67
     7
 79
     5
170
     0
171
     0
290
     0
174
     0
 93
       13
 44
0.0
173
     0
291
     1
 45
0.0
  0
VISUALSTYLE
  5
2E
102
{ACAD_REACTORS
330
2A
102
}
102
{ACAD_XDICTIONARY
360
13C
102
}
330
2A
100
AcDbVisualStyle
  2
GouraudWithEdges
 70
     3
 71
     2
 72
     2
 73
     1
 90
        2
 40
-0.6
 41
30.0
 62
     5
 63
     7
421
 16777215
 74
     1
 91
        4
 64
     7
 65
   257
 75
     1
175
     1
 42
1.0
 92
        0
 66
   257
 43
1.0
 76
     1
 77
     6
 78
     2
 67
     7
 79
     5
170
     0
171
     0
290
     0
174
     0
 93
       13
 44
0.0
173
     0
291
     1
 45
0.0
  0
VISUALSTYLE
  5
38
102
{ACAD_REACTORS
330
2A
102
}
102
{ACAD_XDICTIONARY
360
150
102
}
330
2A
100
AcDbVisualStyle
  2
Linepattern
 70
    14
 71
     2
 72
     2
 73
     0
 90
        0
 40
-0.6
 41
-30.0
 62
     5
 63
     7
421
 16777215
 74
     1
 91
        4
 64
     7
 65
   257
 75
     7
175
     7
 42
1.0
 92
        8
 66
     7
 43
1.0
 76
     1
 77
     6
 78
     2
 67
     7
 79
     5
170
     0
171
     0
290
     0
174
     0
 93
        1
 44
0.0
173
     0
291
     1
 45
0.0
  0
VISUALSTYLE
  5
33
102
{ACAD_REACTORS
330
2A
102
}
102
{ACAD_XDICTIONARY
360
146
102
}
330
2A
100
AcDbVisualStyle
  2
Realistic
 70
     8
 71
     2
 72
     2
 73
     0
 90
        0
 40
-0.6
 41
-30.0
 62
     5
 63
     7
421
 16777215
 74
     1
 91
        0
 64
     7
 65
   257
 75
     1
175
     1
 42
1.0
 92
        8
 66
     8
424
  7895160
 43
1.0
 76
     1
 77
     6
 78
     2
 67
     7
 79
     5
170
     0
171
     0
290
     0
174
     0
 93
       13
 44
0.0
173
     0
291
     0
 45
0.0
  0
VISUALSTYLE
  5
37
102
{ACAD_REACTORS
330
2A
102
}
102
{ACAD_XDICTIONARY
360
14E
102
}
330
2A
100
AcDbVisualStyle
  2
Thicken
 70
    13
 71
     2
 72
     2
 73
     0
 90
        0
 40
-0.6
 41
-30.0
 62
     5
 63
     7
421
 16777215
 74
     1
 91
        4
 64
     7
 65
   257
 75
     1
175
     1
 42
1.0
 92
       12
 66
     7
 43
1.0
 76
     1
 77
     6
 78
     2
 67
     7
 79
     5
170
     0
171
     0
290
     0
174
     0
 93
        1
 44
0.0
173
     0
291
     1
 45
0.0
  0
DICTIONARY
  5
13E
330
2F
100
AcDbDictionary
280
     1
281
     1
  3
ACAD_XREC_ROUNDTRIP
360
13F
  0
DICTIONARY
  5
142
330
31
100
AcDbDictionary
280
     1
281
     1
  3
ACAD_XREC_ROUNDTRIP
360
143
  0
DICTIONARY
  5
140
330
30
100
AcDbDictionary
280
     1
281
     1
  3
ACAD_XREC_ROUNDTRIP
360
141
  0
DICTIONARY
  5
144
330
32
100
AcDbDictionary
280
     1
281
     1
  3
ACAD_XREC_ROUNDTRIP
360
145
  0
DICTIONARY
  5
14C
330
36
100
AcDbDictionary
280
     1
281
     1
  3
ACAD_XREC_ROUNDTRIP
360
14D
  0
DICTIONARY
  5
154
330
3A
100
AcDbDictionary
280
     1
281
     1
  3
ACAD_XREC_ROUNDTRIP
360
155
  0
DICTIONARY
  5
148
330
34
100
AcDbDictionary
280
     1
281
     1
  3
ACAD_XREC_ROUNDTRIP
360
149
  0
DICTIONARY
  5
14A
330
35
100
AcDbDictionary
280
     1
281
     1
  3
ACAD_XREC_ROUNDTRIP
360
14B
  0
DICTIONARY
  5
152
330
39
100
AcDbDictionary
280
     1
281
     1
  3
ACAD_XREC_ROUNDTRIP
360
153
  0
DICTIONARY
  5
136
330
2B
100
AcDbDictionary
280
     1
281
     1
  3
ACAD_XREC_ROUNDTRIP
360
137
  0
DICTIONARY
  5
138
330
2C
100
AcDbDictionary
280
     1
281
     1
  3
ACAD_XREC_ROUNDTRIP
360
139
  0
DICTIONARY
  5
13A
330
2D
100
AcDbDictionary
280
     1
281
     1
  3
ACAD_XREC_ROUNDTRIP
360
13B
  0
DICTIONARY
  5
13C
330
2E
100
AcDbDictionary
280
     1
281
     1
  3
ACAD_XREC_ROUNDTRIP
360
13D
  0
DICTIONARY
  5
150
330
38
100
AcDbDictionary
280
     1
281
     1
  3
ACAD_XREC_ROUNDTRIP
360
151
  0
DICTIONARY
  5
146
330
33
100
AcDbDictionary
280
     1
281
     1
  3
ACAD_XREC_ROUNDTRIP
360
147
  0
DICTIONARY
  5
14E
330
37
100
AcDbDictionary
280
     1
281
     1
  3
ACAD_XREC_ROUNDTRIP
360
14F
  0
XRECORD
  5
13F
102
{ACAD_REACTORS
330
13E
102
}
330
13E
100
AcDbXrecord
280
     1
102
RTVSPropertyOp0
 70
     1
102
RTVSPropertyOp1
 70
     1
102
RTVSPropertyOp2
 70
     1
102
RTVSPropertyOp3
 70
     1
102
RTVSPropertyOp4
 70
     1
102
RTVSPropertyOp5
 70
     1
102
RTVSPropertyOp6
 70
     1
102
RTVSPropertyOp7
 70
     1
102
RTVSPropertyOp8
 70
     1
102
RTVSPropertyOp9
 70
     1
102
RTVSPropertyOp10
 70
     1
102
RTVSPropertyOp11
 70
     1
102
RTVSPropertyOp12
 70
     1
102
RTVSPropertyOp13
 70
     1
102
RTVSPropertyOp14
 70
     1
102
RTVSPropertyOp15
 70
     1
102
RTVSPropertyOp16
 70
     1
102
RTVSPropertyOp17
 70
     1
102
RTVSPropertyOp18
 70
     1
102
RTVSPropertyOp19
 70
     1
102
RTVSPropertyOp20
 70
     1
102
RTVSPropertyOp21
 70
     1
102
RTVSPropertyOp22
 70
     1
102
RTVSPropertyOp23
 70
     1
102
RTVSPropertyOp24
 70
     1
102
RTVSPropertyOp25
 70
     1
102
RTVSPropertyOp26
 70
     1
102
RTVSPropertyOp27
 70
     1
102
RTVSPropertyOp28
 70
     1
102
RTVSPropertyOp29
 70
     1
102
RTVSPropertyOp30
 70
     1
102
RTVSPropertyOp31
 70
     1
102
RTVSPropertyOp32
 70
     1
  0
XRECORD
  5
143
102
{ACAD_REACTORS
330
142
102
}
330
142
100
AcDbXrecord
280
     1
102
RTVSPropertyOp0
 70
     1
102
RTVSPropertyOp1
 70
     1
102
RTVSPropertyOp2
 70
     1
102
RTVSPropertyOp3
 70
     1
102
RTVSPropertyOp4
 70
     1
102
RTVSPropertyOp5
 70
     1
102
RTVSPropertyOp6
 70
     1
102
RTVSPropertyOp7
 70
     1
102
RTVSPropertyOp8
 70
     1
102
RTVSPropertyOp9
 70
     1
102
RTVSPropertyOp10
 70
     1
102
RTVSPropertyOp11
 70
     1
102
RTVSPropertyOp12
 70
     1
102
RTVSPropertyOp13
 70
     1
102
RTVSPropertyOp14
 70
     1
102
RTVSPropertyOp15
 70
     1
102
RTVSPropertyOp16
 70
     1
102
RTVSPropertyOp17
 70
     1
102
RTVSPropertyOp18
 70
     1
102
RTVSPropertyOp19
 70
     1
102
RTVSPropertyOp20
 70
     1
102
RTVSPropertyOp21
 70
     1
102
RTVSPropertyOp22
 70
     1
102
RTVSPropertyOp23
 70
     1
102
RTVSPropertyOp24
 70
     1
102
RTVSPropertyOp25
 70
     1
102
RTVSPropertyOp26
 70
     1
102
RTVSPropertyOp27
 70
     1
102
RTVSPropertyOp28
 70
     1
102
RTVSPropertyOp29
 70
     1
102
RTVSPropertyOp30
 70
     1
102
RTVSPropertyOp31
 70
     1
102
RTVSPropertyOp32
 70
     1
  0
XRECORD
  5
141
102
{ACAD_REACTORS
330
140
102
}
330
140
100
AcDbXrecord
280
     1
102
RTVSPropertyOp0
 70
     1
102
RTVSPropertyOp1
 70
     1
102
RTVSPropertyOp2
 70
     1
102
RTVSPropertyOp3
 70
     1
102
RTVSPropertyOp4
 70
     1
102
RTVSPropertyOp5
 70
     1
102
RTVSPropertyOp6
 70
     1
102
RTVSPropertyOp7
 70
     1
102
RTVSPropertyOp8
 70
     1
102
RTVSPropertyOp9
 70
     1
102
RTVSPropertyOp10
 70
     1
102
RTVSPropertyOp11
 70
     1
102
RTVSPropertyOp12
 70
     1
102
RTVSPropertyOp13
 70
     1
102
RTVSPropertyOp14
 70
     1
102
RTVSPropertyOp15
 70
     1
102
RTVSPropertyOp16
 70
     1
102
RTVSPropertyOp17
 70
     1
102
RTVSPropertyOp18
 70
     1
102
RTVSPropertyOp19
 70
     1
102
RTVSPropertyOp20
 70
     1
102
RTVSPropertyOp21
 70
     1
102
RTVSPropertyOp22
 70
     1
102
RTVSPropertyOp23
 70
     1
102
RTVSPropertyOp24
 70
     1
102
RTVSPropertyOp25
 70
     1
102
RTVSPropertyOp26
 70
     1
102
RTVSPropertyOp27
 70
     1
102
RTVSPropertyOp28
 70
     1
102
RTVSPropertyOp29
 70
     1
102
RTVSPropertyOp30
 70
     1
102
RTVSPropertyOp31
 70
     1
102
RTVSPropertyOp32
 70
     1
  0
XRECORD
  5
145
102
{ACAD_REACTORS
330
144
102
}
330
144
100
AcDbXrecord
280
     1
102
RTVSPropertyOp0
 70
     1
102
RTVSPropertyOp1
 70
     1
102
RTVSPropertyOp2
 70
     1
102
RTVSPropertyOp3
 70
     1
102
RTVSPropertyOp4
 70
     1
102
RTVSPropertyOp5
 70
     1
102
RTVSPropertyOp6
 70
     1
102
RTVSPropertyOp7
 70
     1
102
RTVSPropertyOp8
 70
     1
102
RTVSPropertyOp9
 70
     1
102
RTVSPropertyOp10
 70
     1
102
RTVSPropertyOp11
 70
     1
102
RTVSPropertyOp12
 70
     1
102
RTVSPropertyOp13
 70
     1
102
RTVSPropertyOp14
 70
     1
102
RTVSPropertyOp15
 70
     1
102
RTVSPropertyOp16
 70
     1
102
RTVSPropertyOp17
 70
     1
102
RTVSPropertyOp18
 70
     1
102
RTVSPropertyOp19
 70
     1
102
RTVSPropertyOp20
 70
     1
102
RTVSPropertyOp21
 70
     1
102
RTVSPropertyOp22
 70
     1
102
RTVSPropertyOp23
 70
     1
102
RTVSPropertyOp24
 70
     1
102
RTVSPropertyOp25
 70
     1
102
RTVSPropertyOp26
 70
     1
102
RTVSPropertyOp27
 70
     1
102
RTVSPropertyOp28
 70
     1
102
RTVSPropertyOp29
 70
     1
102
RTVSPropertyOp30
 70
     1
102
RTVSPropertyOp31
 70
     1
102
RTVSPropertyOp32
 70
     1
  0
XRECORD
  5
14D
102
{ACAD_REACTORS
330
14C
102
}
330
14C
100
AcDbXrecord
280
     1
102
RTVSPropertyOp0
 70
     1
102
RTVSPropertyOp1
 70
     1
102
RTVSPropertyOp2
 70
     1
102
RTVSPropertyOp3
 70
     1
102
RTVSPropertyOp4
 70
     1
102
RTVSPropertyOp5
 70
     1
102
RTVSPropertyOp6
 70
     1
102
RTVSPropertyOp7
 70
     1
102
RTVSPropertyOp8
 70
     1
102
RTVSPropertyOp9
 70
     1
102
RTVSPropertyOp10
 70
     1
102
RTVSPropertyOp11
 70
     1
102
RTVSPropertyOp12
 70
     1
102
RTVSPropertyOp13
 70
     1
102
RTVSPropertyOp14
 70
     1
102
RTVSPropertyOp15
 70
     1
102
RTVSPropertyOp16
 70
     1
102
RTVSPropertyOp17
 70
     1
102
RTVSPropertyOp18
 70
     1
102
RTVSPropertyOp19
 70
     1
102
RTVSPropertyOp20
 70
     1
102
RTVSPropertyOp21
 70
     1
102
RTVSPropertyOp22
 70
     1
102
RTVSPropertyOp23
 70
     1
102
RTVSPropertyOp24
 70
     1
102
RTVSPropertyOp25
 70
     1
102
RTVSPropertyOp26
 70
     1
102
RTVSPropertyOp27
 70
     1
102
RTVSPropertyOp28
 70
     1
102
RTVSPropertyOp29
 70
     1
102
RTVSPropertyOp30
 70
     1
102
RTVSPropertyOp31
 70
     1
102
RTVSPropertyOp32
 70
     1
  0
XRECORD
  5
155
102
{ACAD_REACTORS
330
154
102
}
330
154
100
AcDbXrecord
280
     1
102
RTVSPropertyOp0
 70
     1
102
RTVSPropertyOp1
 70
     1
102
RTVSPropertyOp2
 70
     1
102
RTVSPropertyOp3
 70
     1
102
RTVSPropertyOp4
 70
     1
102
RTVSPropertyOp5
 70
     1
102
RTVSPropertyOp6
 70
     1
102
RTVSPropertyOp7
 70
     1
102
RTVSPropertyOp8
 70
     1
102
RTVSPropertyOp9
 70
     1
102
RTVSPropertyOp10
 70
     1
102
RTVSPropertyOp11
 70
     1
102
RTVSPropertyOp12
 70
     1
102
RTVSPropertyOp13
 70
     1
102
RTVSPropertyOp14
 70
     1
102
RTVSPropertyOp15
 70
     1
102
RTVSPropertyOp16
 70
     1
102
RTVSPropertyOp17
 70
     1
102
RTVSPropertyOp18
 70
     1
102
RTVSPropertyOp19
 70
     1
102
RTVSPropertyOp20
 70
     1
102
RTVSPropertyOp21
 70
     1
102
RTVSPropertyOp22
 70
     1
102
RTVSPropertyOp23
 70
     1
102
RTVSPropertyOp24
 70
     1
102
RTVSPropertyOp25
 70
     1
102
RTVSPropertyOp26
 70
     1
102
RTVSPropertyOp27
 70
     1
102
RTVSPropertyOp28
 70
     1
102
RTVSPropertyOp29
 70
     1
102
RTVSPropertyOp30
 70
     1
102
RTVSPropertyOp31
 70
     1
102
RTVSPropertyOp32
 70
     1
  0
XRECORD
  5
149
102
{ACAD_REACTORS
330
148
102
}
330
148
100
AcDbXrecord
280
     1
102
RTVSPropertyOp0
 70
     1
102
RTVSPropertyOp1
 70
     1
102
RTVSPropertyOp2
 70
     1
102
RTVSPropertyOp3
 70
     1
102
RTVSPropertyOp4
 70
     1
102
RTVSPropertyOp5
 70
     1
102
RTVSPropertyOp6
 70
     1
102
RTVSPropertyOp7
 70
     1
102
RTVSPropertyOp8
 70
     1
102
RTVSPropertyOp9
 70
     1
102
RTVSPropertyOp10
 70
     1
102
RTVSPropertyOp11
 70
     1
102
RTVSPropertyOp12
 70
     1
102
RTVSPropertyOp13
 70
     1
102
RTVSPropertyOp14
 70
     1
102
RTVSPropertyOp15
 70
     1
102
RTVSPropertyOp16
 70
     1
102
RTVSPropertyOp17
 70
     1
102
RTVSPropertyOp18
 70
     1
102
RTVSPropertyOp19
 70
     1
102
RTVSPropertyOp20
 70
     1
102
RTVSPropertyOp21
 70
     1
102
RTVSPropertyOp22
 70
     1
102
RTVSPropertyOp23
 70
     1
102
RTVSPropertyOp24
 70
     1
102
RTVSPropertyOp25
 70
     1
102
RTVSPropertyOp26
 70
     1
102
RTVSPropertyOp27
 70
     1
102
RTVSPropertyOp28
 70
     1
102
RTVSPropertyOp29
 70
     1
102
RTVSPropertyOp30
 70
     1
102
RTVSPropertyOp31
 70
     1
102
RTVSPropertyOp32
 70
     1
  0
XRECORD
  5
14B
102
{ACAD_REACTORS
330
14A
102
}
330
14A
100
AcDbXrecord
280
     1
102
RTVSPropertyOp0
 70
     1
102
RTVSPropertyOp1
 70
     1
102
RTVSPropertyOp2
 70
     1
102
RTVSPropertyOp3
 70
     1
102
RTVSPropertyOp4
 70
     1
102
RTVSPropertyOp5
 70
     1
102
RTVSPropertyOp6
 70
     1
102
RTVSPropertyOp7
 70
     1
102
RTVSPropertyOp8
 70
     1
102
RTVSPropertyOp9
 70
     1
102
RTVSPropertyOp10
 70
     1
102
RTVSPropertyOp11
 70
     1
102
RTVSPropertyOp12
 70
     1
102
RTVSPropertyOp13
 70
     1
102
RTVSPropertyOp14
 70
     1
102
RTVSPropertyOp15
 70
     1
102
RTVSPropertyOp16
 70
     1
102
RTVSPropertyOp17
 70
     1
102
RTVSPropertyOp18
 70
     1
102
RTVSPropertyOp19
 70
     1
102
RTVSPropertyOp20
 70
     1
102
RTVSPropertyOp21
 70
     1
102
RTVSPropertyOp22
 70
     1
102
RTVSPropertyOp23
 70
     1
102
RTVSPropertyOp24
 70
     1
102
RTVSPropertyOp25
 70
     1
102
RTVSPropertyOp26
 70
     1
102
RTVSPropertyOp27
 70
     1
102
RTVSPropertyOp28
 70
     1
102
RTVSPropertyOp29
 70
     1
102
RTVSPropertyOp30
 70
     1
102
RTVSPropertyOp31
 70
     1
102
RTVSPropertyOp32
 70
     1
  0
XRECORD
  5
153
102
{ACAD_REACTORS
330
152
102
}
330
152
100
AcDbXrecord
280
     1
102
RTVSPropertyOp0
 70
     1
102
RTVSPropertyOp1
 70
     1
102
RTVSPropertyOp2
 70
     1
102
RTVSPropertyOp3
 70
     1
102
RTVSPropertyOp4
 70
     1
102
RTVSPropertyOp5
 70
     1
102
RTVSPropertyOp6
 70
     1
102
RTVSPropertyOp7
 70
     1
102
RTVSPropertyOp8
 70
     1
102
RTVSPropertyOp9
 70
     1
102
RTVSPropertyOp10
 70
     1
102
RTVSPropertyOp11
 70
     1
102
RTVSPropertyOp12
 70
     1
102
RTVSPropertyOp13
 70
     1
102
RTVSPropertyOp14
 70
     1
102
RTVSPropertyOp15
 70
     1
102
RTVSPropertyOp16
 70
     1
102
RTVSPropertyOp17
 70
     1
102
RTVSPropertyOp18
 70
     1
102
RTVSPropertyOp19
 70
     1
102
RTVSPropertyOp20
 70
     1
102
RTVSPropertyOp21
 70
     1
102
RTVSPropertyOp22
 70
     1
102
RTVSPropertyOp23
 70
     1
102
RTVSPropertyOp24
 70
     1
102
RTVSPropertyOp25
 70
     1
102
RTVSPropertyOp26
 70
     1
102
RTVSPropertyOp27
 70
     1
102
RTVSPropertyOp28
 70
     1
102
RTVSPropertyOp29
 70
     1
102
RTVSPropertyOp30
 70
     1
102
RTVSPropertyOp31
 70
     1
102
RTVSPropertyOp32
 70
     1
  0
XRECORD
  5
137
102
{ACAD_REACTORS
330
136
102
}
330
136
100
AcDbXrecord
280
     1
102
RTVSPropertyOp0
 70
     1
102
RTVSPropertyOp1
 70
     1
102
RTVSPropertyOp2
 70
     1
102
RTVSPropertyOp3
 70
     1
102
RTVSPropertyOp4
 70
     1
102
RTVSPropertyOp5
 70
     1
102
RTVSPropertyOp6
 70
     1
102
RTVSPropertyOp7
 70
     1
102
RTVSPropertyOp8
 70
     1
102
RTVSPropertyOp9
 70
     1
102
RTVSPropertyOp10
 70
     1
102
RTVSPropertyOp11
 70
     1
102
RTVSPropertyOp12
 70
     1
102
RTVSPropertyOp13
 70
     1
102
RTVSPropertyOp14
 70
     1
102
RTVSPropertyOp15
 70
     1
102
RTVSPropertyOp16
 70
     1
102
RTVSPropertyOp17
 70
     1
102
RTVSPropertyOp18
 70
     1
102
RTVSPropertyOp19
 70
     1
102
RTVSPropertyOp20
 70
     1
102
RTVSPropertyOp21
 70
     1
102
RTVSPropertyOp22
 70
     1
102
RTVSPropertyOp23
 70
     1
102
RTVSPropertyOp24
 70
     1
102
RTVSPropertyOp25
 70
     1
102
RTVSPropertyOp26
 70
     1
102
RTVSPropertyOp27
 70
     1
102
RTVSPropertyOp28
 70
     1
102
RTVSPropertyOp29
 70
     1
102
RTVSPropertyOp30
 70
     1
102
RTVSPropertyOp31
 70
     1
102
RTVSPropertyOp32
 70
     1
  0
XRECORD
  5
139
102
{ACAD_REACTORS
330
138
102
}
330
138
100
AcDbXrecord
280
     1
102
RTVSPropertyOp0
 70
     1
102
RTVSPropertyOp1
 70
     1
102
RTVSPropertyOp2
 70
     1
102
RTVSPropertyOp3
 70
     1
102
RTVSPropertyOp4
 70
     1
102
RTVSPropertyOp5
 70
     1
102
RTVSPropertyOp6
 70
     1
102
RTVSPropertyOp7
 70
     1
102
RTVSPropertyOp8
 70
     1
102
RTVSPropertyOp9
 70
     1
102
RTVSPropertyOp10
 70
     1
102
RTVSPropertyOp11
 70
     1
102
RTVSPropertyOp12
 70
     1
102
RTVSPropertyOp13
 70
     1
102
RTVSPropertyOp14
 70
     1
102
RTVSPropertyOp15
 70
     1
102
RTVSPropertyOp16
 70
     1
102
RTVSPropertyOp17
 70
     1
102
RTVSPropertyOp18
 70
     1
102
RTVSPropertyOp19
 70
     1
102
RTVSPropertyOp20
 70
     1
102
RTVSPropertyOp21
 70
     1
102
RTVSPropertyOp22
 70
     1
102
RTVSPropertyOp23
 70
     1
102
RTVSPropertyOp24
 70
     1
102
RTVSPropertyOp25
 70
     1
102
RTVSPropertyOp26
 70
     1
102
RTVSPropertyOp27
 70
     1
102
RTVSPropertyOp28
 70
     1
102
RTVSPropertyOp29
 70
     1
102
RTVSPropertyOp30
 70
     1
102
RTVSPropertyOp31
 70
     1
102
RTVSPropertyOp32
 70
     1
  0
XRECORD
  5
13B
102
{ACAD_REACTORS
330
13A
102
}
330
13A
100
AcDbXrecord
280
     1
102
RTVSPropertyOp0
 70
     1
102
RTVSPropertyOp1
 70
     1
102
RTVSPropertyOp2
 70
     1
102
RTVSPropertyOp3
 70
     1
102
RTVSPropertyOp4
 70
     1
102
RTVSPropertyOp5
 70
     1
102
RTVSPropertyOp6
 70
     1
102
RTVSPropertyOp7
 70
     1
102
RTVSPropertyOp8
 70
     1
102
RTVSPropertyOp9
 70
     1
102
RTVSPropertyOp10
 70
     1
102
RTVSPropertyOp11
 70
     1
102
RTVSPropertyOp12
 70
     1
102
RTVSPropertyOp13
 70
     1
102
RTVSPropertyOp14
 70
     1
102
RTVSPropertyOp15
 70
     1
102
RTVSPropertyOp16
 70
     1
102
RTVSPropertyOp17
 70
     1
102
RTVSPropertyOp18
 70
     1
102
RTVSPropertyOp19
 70
     1
102
RTVSPropertyOp20
 70
     1
102
RTVSPropertyOp21
 70
     1
102
RTVSPropertyOp22
 70
     1
102
RTVSPropertyOp23
 70
     1
102
RTVSPropertyOp24
 70
     1
102
RTVSPropertyOp25
 70
     1
102
RTVSPropertyOp26
 70
     1
102
RTVSPropertyOp27
 70
     1
102
RTVSPropertyOp28
 70
     1
102
RTVSPropertyOp29
 70
     1
102
RTVSPropertyOp30
 70
     1
102
RTVSPropertyOp31
 70
     1
102
RTVSPropertyOp32
 70
     1
  0
XRECORD
  5
13D
102
{ACAD_REACTORS
330
13C
102
}
330
13C
100
AcDbXrecord
280
     1
102
RTVSPropertyOp0
 70
     1
102
RTVSPropertyOp1
 70
     1
102
RTVSPropertyOp2
 70
     1
102
RTVSPropertyOp3
 70
     1
102
RTVSPropertyOp4
 70
     1
102
RTVSPropertyOp5
 70
     1
102
RTVSPropertyOp6
 70
     1
102
RTVSPropertyOp7
 70
     1
102
RTVSPropertyOp8
 70
     1
102
RTVSPropertyOp9
 70
     1
102
RTVSPropertyOp10
 70
     1
102
RTVSPropertyOp11
 70
     1
102
RTVSPropertyOp12
 70
     1
102
RTVSPropertyOp13
 70
     1
102
RTVSPropertyOp14
 70
     1
102
RTVSPropertyOp15
 70
     1
102
RTVSPropertyOp16
 70
     1
102
RTVSPropertyOp17
 70
     1
102
RTVSPropertyOp18
 70
     1
102
RTVSPropertyOp19
 70
     1
102
RTVSPropertyOp20
 70
     1
102
RTVSPropertyOp21
 70
     1
102
RTVSPropertyOp22
 70
     1
102
RTVSPropertyOp23
 70
     1
102
RTVSPropertyOp24
 70
     1
102
RTVSPropertyOp25
 70
     1
102
RTVSPropertyOp26
 70
     1
102
RTVSPropertyOp27
 70
     1
102
RTVSPropertyOp28
 70
     1
102
RTVSPropertyOp29
 70
     1
102
RTVSPropertyOp30
 70
     1
102
RTVSPropertyOp31
 70
     1
102
RTVSPropertyOp32
 70
     1
  0
XRECORD
  5
151
102
{ACAD_REACTORS
330
150
102
}
330
150
100
AcDbXrecord
280
     1
102
RTVSPropertyOp0
 70
     1
102
RTVSPropertyOp1
 70
     1
102
RTVSPropertyOp2
 70
     1
102
RTVSPropertyOp3
 70
     1
102
RTVSPropertyOp4
 70
     1
102
RTVSPropertyOp5
 70
     1
102
RTVSPropertyOp6
 70
     1
102
RTVSPropertyOp7
 70
     1
102
RTVSPropertyOp8
 70
     1
102
RTVSPropertyOp9
 70
     1
102
RTVSPropertyOp10
 70
     1
102
RTVSPropertyOp11
 70
     1
102
RTVSPropertyOp12
 70
     1
102
RTVSPropertyOp13
 70
     1
102
RTVSPropertyOp14
 70
     1
102
RTVSPropertyOp15
 70
     1
102
RTVSPropertyOp16
 70
     1
102
RTVSPropertyOp17
 70
     1
102
RTVSPropertyOp18
 70
     1
102
RTVSPropertyOp19
 70
     1
102
RTVSPropertyOp20
 70
     1
102
RTVSPropertyOp21
 70
     1
102
RTVSPropertyOp22
 70
     1
102
RTVSPropertyOp23
 70
     1
102
RTVSPropertyOp24
 70
     1
102
RTVSPropertyOp25
 70
     1
102
RTVSPropertyOp26
 70
     1
102
RTVSPropertyOp27
 70
     1
102
RTVSPropertyOp28
 70
     1
102
RTVSPropertyOp29
 70
     1
102
RTVSPropertyOp30
 70
     1
102
RTVSPropertyOp31
 70
     1
102
RTVSPropertyOp32
 70
     1
  0
XRECORD
  5
147
102
{ACAD_REACTORS
330
146
102
}
330
146
100
AcDbXrecord
280
     1
102
RTVSPropertyOp0
 70
     1
102
RTVSPropertyOp1
 70
     1
102
RTVSPropertyOp2
 70
     1
102
RTVSPropertyOp3
 70
     1
102
RTVSPropertyOp4
 70
     1
102
RTVSPropertyOp5
 70
     1
102
RTVSPropertyOp6
 70
     1
102
RTVSPropertyOp7
 70
     1
102
RTVSPropertyOp8
 70
     1
102
RTVSPropertyOp9
 70
     1
102
RTVSPropertyOp10
 70
     1
102
RTVSPropertyOp11
 70
     1
102
RTVSPropertyOp12
 70
     1
102
RTVSPropertyOp13
 70
     1
102
RTVSPropertyOp14
 70
     1
102
RTVSPropertyOp15
 70
     1
102
RTVSPropertyOp16
 70
     1
102
RTVSPropertyOp17
 70
     1
102
RTVSPropertyOp18
 70
     1
102
RTVSPropertyOp19
 70
     1
102
RTVSPropertyOp20
 70
     1
102
RTVSPropertyOp21
 70
     1
102
RTVSPropertyOp22
 70
     1
102
RTVSPropertyOp23
 70
     1
102
RTVSPropertyOp24
 70
     1
102
RTVSPropertyOp25
 70
     1
102
RTVSPropertyOp26
 70
     1
102
RTVSPropertyOp27
 70
     1
102
RTVSPropertyOp28
 70
     1
102
RTVSPropertyOp29
 70
     1
102
RTVSPropertyOp30
 70
     1
102
RTVSPropertyOp31
 70
     1
102
RTVSPropertyOp32
 70
     1
  0
XRECORD
  5
14F
102
{ACAD_REACTORS
330
14E
102
}
330
14E
100
AcDbXrecord
280
     1
102
RTVSPropertyOp0
 70
     1
102
RTVSPropertyOp1
 70
     1
102
RTVSPropertyOp2
 70
     1
102
RTVSPropertyOp3
 70
     1
102
RTVSPropertyOp4
 70
     1
102
RTVSPropertyOp5
 70
     1
102
RTVSPropertyOp6
 70
     1
102
RTVSPropertyOp7
 70
     1
102
RTVSPropertyOp8
 70
     1
102
RTVSPropertyOp9
 70
     1
102
RTVSPropertyOp10
 70
     1
102
RTVSPropertyOp11
 70
     1
102
RTVSPropertyOp12
 70
     1
102
RTVSPropertyOp13
 70
     1
102
RTVSPropertyOp14
 70
     1
102
RTVSPropertyOp15
 70
     1
102
RTVSPropertyOp16
 70
     1
102
RTVSPropertyOp17
 70
     1
102
RTVSPropertyOp18
 70
     1
102
RTVSPropertyOp19
 70
     1
102
RTVSPropertyOp20
 70
     1
102
RTVSPropertyOp21
 70
     1
102
RTVSPropertyOp22
 70
     1
102
RTVSPropertyOp23
 70
     1
102
RTVSPropertyOp24
 70
     1
102
RTVSPropertyOp25
 70
     1
102
RTVSPropertyOp26
 70
     1
102
RTVSPropertyOp27
 70
     1
102
RTVSPropertyOp28
 70
     1
102
RTVSPropertyOp29
 70
     1
102
RTVSPropertyOp30
 70
     1
102
RTVSPropertyOp31
 70
     1
102
RTVSPropertyOp32
 70
     1
  0
ENDSEC
  0
EOF
