  0
SECTION
  2
HEADER
  9
$ACADVER
  1
AC1021
  9
$ACADMAINTVER
 70
    25
  9
$DWGCODEPAGE
  3
UNDEFINED
  9
$INSBASE
 10
0.0
 20
0.0
 30
0.0
  9
$EXTMIN
 10
1.000000000000000E+20
 20
1.000000000000000E+20
 30
1.000000000000000E+20
  9
$EXTMAX
 10
-1.000000000000000E+20
 20
-1.000000000000000E+20
 30
-1.000000000000000E+20
  9
$LIMMIN
 10
0.0
 20
0.0
  9
$LIMMAX
 10
12.0
 20
9.0
  9
$ORTHOMODE
 70
     0
  9
$REGENMODE
 70
     1
  9
$FILLMODE
 70
     1
  9
$QTEXTMODE
 70
     0
  9
$MIRRTEXT
 70
     1
  9
$LTSCALE
 40
1.0
  9
$ATTMODE
 70
     1
  9
$TEXTSIZE
 40
0.2
  9
$TRACEWID
 40
0.05
  9
$TEXTSTYLE
  7
Standard
  9
$CLAYER
  8
0
  9
$CELTYPE
  6
ByLayer
  9
$CECOLOR
 62
   256
  9
$CELTSCALE
 40
1.0
  9
$DISPSILH
 70
     0
  9
$DIMSCALE
 40
1.0
  9
$DIMASZ
 40
0.18
  9
$DIMEXO
 40
0.0625
  9
$DIMDLI
 40
0.38
  9
$DIMRND
 40
0.0
  9
$DIMDLE
 40
0.0
  9
$DIMEXE
 40
0.18
  9
$DIMTP
 40
0.0
  9
$DIMTM
 40
0.0
  9
$DIMTXT
 40
0.18
  9
$DIMCEN
 40
0.09
  9
$DIMTSZ
 40
0.0
  9
$DIMTOL
 70
     0
  9
$DIMLIM
 70
     0
  9
$DIMTIH
 70
     1
  9
$DIMTOH
 70
     1
  9
$DIMSE1
 70
     0
  9
$DIMSE2
 70
     0
  9
$DIMTAD
 70
     0
  9
$DIMZIN
 70
     0
  9
$DIMBLK
  1

  9
$DIMASO
 70
     1
  9
$DIMSHO
 70
     1
  9
$DIMPOST
  1

  9
$DIMAPOST
  1

  9
$DIMALT
 70
     0
  9
$DIMALTD
 70
     2
  9
$DIMALTF
 40
25.4
  9
$DIMLFAC
 40
1.0
  9
$DIMTOFL
 70
     0
  9
$DIMTVP
 40
0.0
  9
$DIMTIX
 70
     0
  9
$DIMSOXD
 70
     0
  9
$DIMSAH
 70
     0
  9
$DIMBLK1
  1

  9
$DIMBLK2
  1

  9
$DIMSTYLE
  2
Standard
  9
$DIMCLRD
 70
     0
  9
$DIMCLRE
 70
     0
  9
$DIMCLRT
 70
     0
  9
$DIMTFAC
 40
1.0
  9
$DIMGAP
 40
0.09
  9
$DIMJUST
 70
     0
  9
$DIMSD1
 70
     0
  9
$DIMSD2
 70
     0
  9
$DIMTOLJ
 70
     1
  9
$DIMTZIN
 70
     0
  9
$DIMALTZ
 70
     0
  9
$DIMALTTZ
 70
     0
  9
$DIMUPT
 70
     0
  9
$DIMDEC
 70
     4
  9
$DIMTDEC
 70
     4
  9
$DIMALTU
 70
     2
  9
$DIMALTTD
 70
     2
  9
$DIMTXSTY
  7
Standard
  9
$DIMAUNIT
 70
     0
  9
$DIMADEC
 70
     0
  9
$DIMALTRND
 40
0.0
  9
$DIMAZIN
 70
     0
  9
$DIMDSEP
 70
    46
  9
$DIMATFIT
 70
     3
  9
$DIMFRAC
 70
     0
  9
$DIMLDRBLK
  1

  9
$DIMLUNIT
 70
     2
  9
$DIMLWD
 70
    -2
  9
$DIMLWE
 70
    -2
  9
$DIMTMOVE
 70
     0
  9
$DIMFXL
 40
1.0
  9
$DIMFXLON
 70
     0
  9
$DIMJOGANG
 40
0.7853981633974483
  9
$DIMTFILL
 70
     0
  9
$DIMTFILLCLR
 70
     0
  9
$DIMARCSYM
 70
     0
  9
$DIMLTYPE
  6

  9
$DIMLTEX1
  6

  9
$DIMLTEX2
  6

  9
$LUNITS
 70
     2
  9
$LUPREC
 70
     4
  9
$SKETCHINC
 40
0.1
  9
$FILLETRAD
 40
0.5
  9
$AUNITS
 70
     0
  9
$AUPREC
 70
     0
  9
$MENU
  1
.
  9
$ELEVATION
 40
0.0
  9
$PELEVATION
 40
0.0
  9
$THICKNESS
 40
0.0
  9
$LIMCHECK
 70
     0
  9
$CHAMFERA
 40
0.5
  9
$CHAMFERB
 40
0.5
  9
$CHAMFERC
 40
1.0
  9
$CHAMFERD
 40
0.0
  9
$SKPOLY
 70
     0
  9
$TDCREATE
 40
2459444.364259259
  9
$TDUCREATE
 40
2459444.322592593
  9
$TDUPDATE
 40
2459444.364259259
  9
$TDUUPDATE
 40
2459444.322592593
  9
$TDINDWG
 40
0.0000000116
  9
$TDUSRTIMER
 40
0.0000000116
  9
$USRTIMER
 70
     1
  9
$ANGBASE
 50
0.0
  9
$ANGDIR
 70
     0
  9
$PDMODE
 70
     0
  9
$PDSIZE
 40
0.0
  9
$PLINEWID
 40
0.0
  9
$SPLFRAME
 70
     0
  9
$SPLINETYPE
 70
     6
  9
$SPLINESEGS
 70
     8
  9
$HANDSEED
  5
22C
  9
$SURFTAB1
 70
     6
  9
$SURFTAB2
 70
     6
  9
$SURFTYPE
 70
     6
  9
$SURFU
 70
     6
  9
$SURFV
 70
     6
  9
$UCSBASE
  2

  9
$UCSNAME
  2

  9
$UCSORG
 10
0.0
 20
0.0
 30
0.0
  9
$UCSXDIR
 10
1.0
 20
0.0
 30
0.0
  9
$UCSYDIR
 10
0.0
 20
1.0
 30
0.0
  9
$UCSORTHOREF
  2

  9
$UCSORTHOVIEW
 70
     0
  9
$UCSORGTOP
 10
0.0
 20
0.0
 30
0.0
  9
$UCSORGBOTTOM
 10
0.0
 20
0.0
 30
0.0
  9
$UCSORGLEFT
 10
0.0
 20
0.0
 30
0.0
  9
$UCSORGRIGHT
 10
0.0
 20
0.0
 30
0.0
  9
$UCSORGFRONT
 10
0.0
 20
0.0
 30
0.0
  9
$UCSORGBACK
 10
0.0
 20
0.0
 30
0.0
  9
$PUCSBASE
  2

  9
$PUCSNAME
  2

  9
$PUCSORG
 10
0.0
 20
0.0
 30
0.0
  9
$PUCSXDIR
 10
1.0
 20
0.0
 30
0.0
  9
$PUCSYDIR
 10
0.0
 20
1.0
 30
0.0
  9
$PUCSORTHOREF
  2

  9
$PUCSORTHOVIEW
 70
     0
  9
$PUCSORGTOP
 10
0.0
 20
0.0
 30
0.0
  9
$PUCSORGBOTTOM
 10
0.0
 20
0.0
 30
0.0
  9
$PUCSORGLEFT
 10
0.0
 20
0.0
 30
0.0
  9
$PUCSORGRIGHT
 10
0.0
 20
0.0
 30
0.0
  9
$PUCSORGFRONT
 10
0.0
 20
0.0
 30
0.0
  9
$PUCSORGBACK
 10
0.0
 20
0.0
 30
0.0
  9
$USERI1
 70
     0
  9
$USERI2
 70
     0
  9
$USERI3
 70
     0
  9
$USERI4
 70
     0
  9
$USERI5
 70
     0
  9
$USERR1
 40
0.0
  9
$USERR2
 40
0.0
  9
$USERR3
 40
0.0
  9
$USERR4
 40
0.0
  9
$USERR5
 40
0.0
  9
$WORLDVIEW
 70
     1
  9
$SHADEDGE
 70
     3
  9
$SHADEDIF
 70
    70
  9
$TILEMODE
 70
     1
  9
$MAXACTVP
 70
    64
  9
$PINSBASE
 10
0.0
 20
0.0
 30
0.0
  9
$PLIMCHECK
 70
     0
  9
$PEXTMIN
 10
1.000000000000000E+20
 20
1.000000000000000E+20
 30
1.000000000000000E+20
  9
$PEXTMAX
 10
-1.000000000000000E+20
 20
-1.000000000000000E+20
 30
-1.000000000000000E+20
  9
$PLIMMIN
 10
0.0
 20
0.0
  9
$PLIMMAX
 10
12.0
 20
9.0
  9
$UNITMODE
 70
     0
  9
$VISRETAIN
 70
     1
  9
$PLINEGEN
 70
     0
  9
$PSLTSCALE
 70
     1
  9
$TREEDEPTH
 70
  3020
  9
$CMLSTYLE
  2
Standard
  9
$CMLJUST
 70
     0
  9
$CMLSCALE
 40
1.0
  9
$PROXYGRAPHICS
 70
     1
  9
$MEASUREMENT
 70
     0
  9
$CELWEIGHT
370
    -1
  9
$ENDCAPS
280
     0
  9
$JOINSTYLE
280
     0
  9
$LWDISPLAY
290
     1
  9
$INSUNITS
 70
     1
  9
$HYPERLINKBASE
  1

  9
$STYLESHEET
  1

  9
$XEDIT
290
     1
  9
$CEPSNTYPE
380
     0
  9
$PSTYLEMODE
290
     1
  9
$FINGERPRINTGUID
  2
{82AE8152-0329-0235-01AC-99278BEDE51B}
  9
$VERSIONGUID
  2
{FAEB1C32-E019-11D5-929B-00C0DF256EC4}
  9
$EXTNAMES
290
     1
  9
$PSVPSCALE
 40
0.0
  9
$OLESTARTUP
290
     0
  9
$SORTENTS
280
   127
  9
$INDEXCTL
280
     0
  9
$HIDETEXT
280
     1
  9
$XCLIPFRAME
290
     0
  9
$HALOGAP
280
     0
  9
$OBSCOLOR
 70
   257
  9
$OBSLTYPE
280
     0
  9
$INTERSECTIONDISPLAY
280
     0
  9
$INTERSECTIONCOLOR
 70
   257
  9
$DIMASSOC
280
     2
  9
$PROJECTNAME
  1

  9
$CAMERADISPLAY
290
     0
  9
$LENSLENGTH
 40
50.0
  9
$CAMERAHEIGHT
 40
0.0
  9
$STEPSPERSEC
 40
2.0
  9
$STEPSIZE
 40
6.0
  9
$3DDWFPREC
 40
2.0
  9
$PSOLWIDTH
 40
0.25
  9
$PSOLHEIGHT
 40
4.0
  9
$LOFTANG1
 40
1.570796326794897
  9
$LOFTANG2
 40
1.570796326794897
  9
$LOFTMAG1
 40
0.0
  9
$LOFTMAG2
 40
0.0
  9
$LOFTPARAM
 70
     7
  9
$LOFTNORMALS
280
     1
  9
$LATITUDE
 40
37.795
  9
$LONGITUDE
 40
-122.394
  9
$NORTHDIRECTION
 40
0.0
  9
$TIMEZONE
 70
 -8000
  9
$LIGHTGLYPHDISPLAY
280
     1
  9
$TILEMODELIGHTSYNCH
280
     1
  9
$CMATERIAL
347
3C
  9
$SOLIDHIST
280
     1
  9
$SHOWHIST
280
     1
  9
$DWFFRAME
280
     2
  9
$DGNFRAME
280
     2
  9
$REALWORLDSCALE
290
     1
  9
$INTERFERECOLOR
 62
   256
  9
$CSHADOW
280
     0
  9
$SHADOWPLANELOCATION
 40
0.0
  0
ENDSEC
  0
SECTION
  2
CLASSES
  0
CLASS
  1
ACDBDICTIONARYWDFLT
  2
AcDbDictionaryWithDefault
  3
ObjectDBX Classes
 90
        0
 91
        4
280
     0
281
     0
  0
CLASS
  1
VISUALSTYLE
  2
AcDbVisualStyle
  3
ObjectDBX Classes
 90
     4095
 91
        4
280
     0
281
     0
  0
CLASS
  1
MATERIAL
  2
AcDbMaterial
  3
ObjectDBX Classes
 90
     1153
 91
        4
280
     0
281
     0
  0
CLASS
  1
SUN
  2
AcDbSun
  3
SCENEOE
 90
     1024
 91
        4
280
     0
281
     0
  0
ENDSEC
  0
SECTION
  2
TABLES
  0
TABLE
  2
VPORT
  5
8
330
0
100
AcDbSymbolTable
 70
     1
  0
VPORT
  5
29
330
8
100
AcDbSymbolTableRecord
100
AcDbViewportTableRecord
  2
*Active
 70
     0
 10
0.0
 20
0.0
 11
1.0
 21
1.0
 12
0.0
 22
0.0
 13
0.0
 23
0.0
 14
0.5
 24
0.5
 15
0.5
 25
0.5
 16
0.0
 26
0.0
 36
1.0
 17
105.0007777515277
 27
148.5000416295417
 37
0.0
 40
297.0000832590835
 41
0.7070757462376325
 42
50.0
 43
0.0
 44
0.0
 50
0.0
 51
0.0
 71
     0
 72
   100
 73
     1
 74
     3
 75
     0
 76
     0
 77
     0
 78
     0
281
     0
 65
     1
110
0.0
120
0.0
130
0.0
111
1.0
121
0.0
131
0.0
112
0.0
122
1.0
132
0.0
 79
     0
146
0.0
 60
     3
 61
     5
292
     1
282
     1
141
0.0
142
0.0
 63
   250
361
3F
  0
ENDTAB
  0
TABLE
  2
LTYPE
  5
5
330
0
100
AcDbSymbolTable
 70
    25
  0
LTYPE
  5
14
330
5
100
AcDbSymbolTableRecord
100
AcDbLinetypeTableRecord
  2
ByBlock
 70
     0
  3

 72
    65
 73
     0
 40
0.0
  0
LTYPE
  5
15
330
5
100
AcDbSymbolTableRecord
100
AcDbLinetypeTableRecord
  2
ByLayer
 70
     0
  3

 72
    65
 73
     0
 40
0.0
  0
LTYPE
  5
16
330
5
100
AcDbSymbolTableRecord
100
AcDbLinetypeTableRecord
  2
Continuous
 70
     0
  3
Solid line
 72
    65
 73
     0
 40
0.0
  0
LTYPE
  5
F9
330
5
100
AcDbSymbolTableRecord
100
AcDbLinetypeTableRecord
  2
AI-Linetype-1
 70
     0
  3
Adobe Illustrator Linetype No. 1
 72
    65
 73
     2
 40
7.270862246391072
 49
3.635375106750391
 74
     0
 49
-3.635487139640682
 74
     0
  0
LTYPE
  5
FF
330
5
100
AcDbSymbolTableRecord
100
AcDbLinetypeTableRecord
  2
AI-Linetype-2
 70
     0
  3
Adobe Illustrator Linetype No. 2
 72
    65
 73
     2
 40
7.270862246391072
 49
3.635375106750391
 74
     0
 49
-3.635487139640682
 74
     0
  0
LTYPE
  5
105
330
5
100
AcDbSymbolTableRecord
100
AcDbLinetypeTableRecord
  2
AI-Linetype-3
 70
     0
  3
Adobe Illustrator Linetype No. 3
 72
    65
 73
     2
 40
7.270862246391072
 49
3.635375106750391
 74
     0
 49
-3.635487139640682
 74
     0
  0
LTYPE
  5
10B
330
5
100
AcDbSymbolTableRecord
100
AcDbLinetypeTableRecord
  2
AI-Linetype-4
 70
     0
  3
Adobe Illustrator Linetype No. 4
 72
    65
 73
     2
 40
7.270862246391072
 49
3.635375106750391
 74
     0
 49
-3.635487139640682
 74
     0
  0
LTYPE
  5
16B
330
5
100
AcDbSymbolTableRecord
100
AcDbLinetypeTableRecord
  2
AI-Linetype-5
 70
     0
  3
Adobe Illustrator Linetype No. 5
 72
    65
 73
     2
 40
7.270862246391072
 49
3.635375106750391
 74
     0
 49
-3.635487139640682
 74
     0
  0
LTYPE
  5
171
330
5
100
AcDbSymbolTableRecord
100
AcDbLinetypeTableRecord
  2
AI-Linetype-6
 70
     0
  3
Adobe Illustrator Linetype No. 6
 72
    65
 73
     2
 40
7.270862246391072
 49
3.635375106750391
 74
     0
 49
-3.635487139640682
 74
     0
  0
LTYPE
  5
177
330
5
100
AcDbSymbolTableRecord
100
AcDbLinetypeTableRecord
  2
AI-Linetype-7
 70
     0
  3
Adobe Illustrator Linetype No. 7
 72
    65
 73
     2
 40
7.270862246391072
 49
3.635375106750391
 74
     0
 49
-3.635487139640682
 74
     0
  0
LTYPE
  5
17D
330
5
100
AcDbSymbolTableRecord
100
AcDbLinetypeTableRecord
  2
AI-Linetype-8
 70
     0
  3
Adobe Illustrator Linetype No. 8
 72
    65
 73
     2
 40
7.270862246391072
 49
3.635375106750391
 74
     0
 49
-3.635487139640682
 74
     0
  0
LTYPE
  5
183
330
5
100
AcDbSymbolTableRecord
100
AcDbLinetypeTableRecord
  2
AI-Linetype-9
 70
     0
  3
Adobe Illustrator Linetype No. 9
 72
    65
 73
     2
 40
7.270862246391072
 49
3.635375106750391
 74
     0
 49
-3.635487139640682
 74
     0
  0
LTYPE
  5
189
330
5
100
AcDbSymbolTableRecord
100
AcDbLinetypeTableRecord
  2
AI-Linetype-10
 70
     0
  3
Adobe Illustrator Linetype No. 10
 72
    65
 73
     2
 40
7.270862246391072
 49
3.635375106750391
 74
     0
 49
-3.635487139640682
 74
     0
  0
LTYPE
  5
18F
330
5
100
AcDbSymbolTableRecord
100
AcDbLinetypeTableRecord
  2
AI-Linetype-11
 70
     0
  3
Adobe Illustrator Linetype No. 11
 72
    65
 73
     2
 40
7.270862246391072
 49
3.635375106750391
 74
     0
 49
-3.635487139640682
 74
     0
  0
LTYPE
  5
195
330
5
100
AcDbSymbolTableRecord
100
AcDbLinetypeTableRecord
  2
AI-Linetype-12
 70
     0
  3
Adobe Illustrator Linetype No. 12
 72
    65
 73
     2
 40
7.270862246391072
 49
3.635375106750391
 74
     0
 49
-3.635487139640682
 74
     0
  0
LTYPE
  5
19B
330
5
100
AcDbSymbolTableRecord
100
AcDbLinetypeTableRecord
  2
AI-Linetype-13
 70
     0
  3
Adobe Illustrator Linetype No. 13
 72
    65
 73
     2
 40
7.270862246391072
 49
3.635375106750391
 74
     0
 49
-3.635487139640682
 74
     0
  0
LTYPE
  5
1A1
330
5
100
AcDbSymbolTableRecord
100
AcDbLinetypeTableRecord
  2
AI-Linetype-14
 70
     0
  3
Adobe Illustrator Linetype No. 14
 72
    65
 73
     2
 40
7.270862246391072
 49
3.635375106750391
 74
     0
 49
-3.635487139640682
 74
     0
  0
LTYPE
  5
1A7
330
5
100
AcDbSymbolTableRecord
100
AcDbLinetypeTableRecord
  2
AI-Linetype-15
 70
     0
  3
Adobe Illustrator Linetype No. 15
 72
    65
 73
     2
 40
7.270862246391072
 49
3.635375106750391
 74
     0
 49
-3.635487139640682
 74
     0
  0
LTYPE
  5
1AD
330
5
100
AcDbSymbolTableRecord
100
AcDbLinetypeTableRecord
  2
AI-Linetype-16
 70
     0
  3
Adobe Illustrator Linetype No. 16
 72
    65
 73
     2
 40
7.270862246391072
 49
3.635375106750391
 74
     0
 49
-3.635487139640682
 74
     0
  0
LTYPE
  5
1B3
330
5
100
AcDbSymbolTableRecord
100
AcDbLinetypeTableRecord
  2
AI-Linetype-17
 70
     0
  3
Adobe Illustrator Linetype No. 17
 72
    65
 73
     2
 40
7.270862246391072
 49
3.635375106750391
 74
     0
 49
-3.635487139640682
 74
     0
  0
LTYPE
  5
1B9
330
5
100
AcDbSymbolTableRecord
100
AcDbLinetypeTableRecord
  2
AI-Linetype-18
 70
     0
  3
Adobe Illustrator Linetype No. 18
 72
    65
 73
     2
 40
7.270862246391072
 49
3.635375106750391
 74
     0
 49
-3.635487139640682
 74
     0
  0
LTYPE
  5
1BF
330
5
100
AcDbSymbolTableRecord
100
AcDbLinetypeTableRecord
  2
AI-Linetype-19
 70
     0
  3
Adobe Illustrator Linetype No. 19
 72
    65
 73
     2
 40
7.270862246391072
 49
3.635375106750391
 74
     0
 49
-3.635487139640682
 74
     0
  0
LTYPE
  5
1C5
330
5
100
AcDbSymbolTableRecord
100
AcDbLinetypeTableRecord
  2
AI-Linetype-20
 70
     0
  3
Adobe Illustrator Linetype No. 20
 72
    65
 73
     2
 40
7.270862246391072
 49
3.635375106750391
 74
     0
 49
-3.635487139640682
 74
     0
  0
LTYPE
  5
1D5
330
5
100
AcDbSymbolTableRecord
100
AcDbLinetypeTableRecord
  2
AI-Linetype-21
 70
     0
  3
Adobe Illustrator Linetype No. 21
 72
    65
 73
     2
 40
8.050583911578528
 49
4.025291955789264
 74
     0
 49
-4.025291955789264
 74
     0
  0
LTYPE
  5
1DE
330
5
100
AcDbSymbolTableRecord
100
AcDbLinetypeTableRecord
  2
AI-Linetype-22
 70
     0
  3
Adobe Illustrator Linetype No. 22
 72
    65
 73
     4
 40
36.22780658557976
 49
24.15193071821196
 74
     0
 49
-4.025291955789264
 74
     0
 49
4.025291955789264
 74
     0
 49
-4.025291955789264
 74
     0
  0
LTYPE
  5
1F7
330
5
100
AcDbSymbolTableRecord
100
AcDbLinetypeTableRecord
  2
AI-Linetype-23
 70
     0
  3
Adobe Illustrator Linetype No. 23
 72
    65
 73
     2
 40
8.146163779447427
 49
4.073081889723714
 74
     0
 49
-4.073081889723714
 74
     0
  0
LTYPE
  5
200
330
5
100
AcDbSymbolTableRecord
100
AcDbLinetypeTableRecord
  2
AI-Linetype-24
 70
     0
  3
Adobe Illustrator Linetype No. 24
 72
    65
 73
     4
 40
36.65791868247065
 49
24.43867301329951
 74
     0
 49
-4.073081889723714
 74
     0
 49
4.073081889723714
 74
     0
 49
-4.073081889723714
 74
     0
  0
ENDTAB
  0
TABLE
  2
LAYER
  5
2
330
0
100
AcDbSymbolTable
 70
     1
  0
LAYER
  5
10
330
2
100
AcDbSymbolTableRecord
100
AcDbLayerTableRecord
  2
0
 70
     0
 62
     7
  6
Continuous
370
    -3
390
F
347
3E
  0
ENDTAB
  0
TABLE
  2
STYLE
  5
3
330
0
100
AcDbSymbolTable
 70
     1
  0
STYLE
  5
11
330
3
100
AcDbSymbolTableRecord
100
AcDbTextStyleTableRecord
  2
Standard
 70
     0
 40
0.0
 41
1.0
 50
0.0
 71
     0
 42
0.2
  3
txt
  4

  0
ENDTAB
  0
TABLE
  2
VIEW
  5
6
330
0
100
AcDbSymbolTable
 70
     0
  0
ENDTAB
  0
TABLE
  2
UCS
  5
7
330
0
100
AcDbSymbolTable
 70
     0
  0
ENDTAB
  0
TABLE
  2
APPID
  5
9
330
0
100
AcDbSymbolTable
 70
     1
  0
APPID
  5
12
330
9
100
AcDbSymbolTableRecord
100
AcDbRegAppTableRecord
  2
ACAD
 70
     0
  0
ENDTAB
  0
TABLE
  2
DIMSTYLE
  5
A
330
0
100
AcDbSymbolTable
 70
     1
100
AcDbDimStyleTable
  0
DIMSTYLE
105
27
330
A
100
AcDbSymbolTableRecord
100
AcDbDimStyleTableRecord
  2
Standard
 70
     0
178
     0
340
11
  0
ENDTAB
  0
TABLE
  2
BLOCK_RECORD
  5
1
330
0
100
AcDbSymbolTable
 70
    83
  0
BLOCK_RECORD
  5
1F
330
1
100
AcDbSymbolTableRecord
100
AcDbBlockTableRecord
  2
*Model_Space
340
22
 70
     0
280
     1
281
     0
  0
BLOCK_RECORD
  5
1B
330
1
100
AcDbSymbolTableRecord
100
AcDbBlockTableRecord
  2
*Paper_Space
340
1E
 70
     0
280
     1
281
     0
  0
BLOCK_RECORD
  5
23
330
1
100
AcDbSymbolTableRecord
100
AcDbBlockTableRecord
  2
*Paper_Space0
340
26
 70
     0
280
     1
281
     0
  0
BLOCK_RECORD
  5
40
330
1
100
AcDbSymbolTableRecord
100
AcDbBlockTableRecord
  2
block 2
340
0
102
{BLKREFS
331
41
102
}
 70
     0
280
     1
281
     0
  0
BLOCK_RECORD
  5
45
330
1
100
AcDbSymbolTableRecord
100
AcDbBlockTableRecord
  2
block 3
340
0
102
{BLKREFS
331
46
102
}
 70
     0
280
     1
281
     0
  0
BLOCK_RECORD
  5
4A
330
1
100
AcDbSymbolTableRecord
100
AcDbBlockTableRecord
  2
block 4
340
0
102
{BLKREFS
331
4B
102
}
 70
     0
280
     1
281
     0
  0
BLOCK_RECORD
  5
4F
330
1
100
AcDbSymbolTableRecord
100
AcDbBlockTableRecord
  2
block 5
340
0
102
{BLKREFS
331
50
102
}
 70
     0
280
     1
281
     0
  0
BLOCK_RECORD
  5
54
330
1
100
AcDbSymbolTableRecord
100
AcDbBlockTableRecord
  2
block 6
340
0
102
{BLKREFS
331
55
102
}
 70
     0
280
     1
281
     0
  0
BLOCK_RECORD
  5
59
330
1
100
AcDbSymbolTableRecord
100
AcDbBlockTableRecord
  2
block 7
340
0
102
{BLKREFS
331
5A
102
}
 70
     0
280
     1
281
     0
  0
BLOCK_RECORD
  5
5E
330
1
100
AcDbSymbolTableRecord
100
AcDbBlockTableRecord
  2
block 8
340
0
102
{BLKREFS
331
5F
102
}
 70
     0
280
     1
281
     0
  0
BLOCK_RECORD
  5
63
330
1
100
AcDbSymbolTableRecord
100
AcDbBlockTableRecord
  2
block 9
340
0
102
{BLKREFS
331
64
102
}
 70
     0
280
     1
281
     0
  0
BLOCK_RECORD
  5
68
330
1
100
AcDbSymbolTableRecord
100
AcDbBlockTableRecord
  2
block 10
340
0
102
{BLKREFS
331
69
102
}
 70
     0
280
     1
281
     0
  0
BLOCK_RECORD
  5
6D
330
1
100
AcDbSymbolTableRecord
100
AcDbBlockTableRecord
  2
block 11
340
0
102
{BLKREFS
331
6E
102
}
 70
     0
280
     1
281
     0
  0
BLOCK_RECORD
  5
72
330
1
100
AcDbSymbolTableRecord
100
AcDbBlockTableRecord
  2
block 12
340
0
102
{BLKREFS
331
73
102
}
 70
     0
280
     1
281
     0
  0
BLOCK_RECORD
  5
77
330
1
100
AcDbSymbolTableRecord
100
AcDbBlockTableRecord
  2
block 13
340
0
102
{BLKREFS
331
78
102
}
 70
     0
280
     1
281
     0
  0
BLOCK_RECORD
  5
7C
330
1
100
AcDbSymbolTableRecord
100
AcDbBlockTableRecord
  2
block 14
340
0
102
{BLKREFS
331
7D
102
}
 70
     0
280
     1
281
     0
  0
BLOCK_RECORD
  5
81
330
1
100
AcDbSymbolTableRecord
100
AcDbBlockTableRecord
  2
block 15
340
0
102
{BLKREFS
331
82
102
}
 70
     0
280
     1
281
     0
  0
BLOCK_RECORD
  5
86
330
1
100
AcDbSymbolTableRecord
100
AcDbBlockTableRecord
  2
block 16
340
0
102
{BLKREFS
331
87
102
}
 70
     0
280
     1
281
     0
  0
BLOCK_RECORD
  5
8B
330
1
100
AcDbSymbolTableRecord
100
AcDbBlockTableRecord
  2
block 17
340
0
102
{BLKREFS
331
8C
102
}
 70
     0
280
     1
281
     0
  0
BLOCK_RECORD
  5
90
330
1
100
AcDbSymbolTableRecord
100
AcDbBlockTableRecord
  2
block 18
340
0
102
{BLKREFS
331
91
102
}
 70
     0
280
     1
281
     0
  0
BLOCK_RECORD
  5
95
330
1
100
AcDbSymbolTableRecord
100
AcDbBlockTableRecord
  2
block 19
340
0
102
{BLKREFS
331
96
102
}
 70
     0
280
     1
281
     0
  0
BLOCK_RECORD
  5
9A
330
1
100
AcDbSymbolTableRecord
100
AcDbBlockTableRecord
  2
block 20
340
0
102
{BLKREFS
331
9B
102
}
 70
     0
280
     1
281
     0
  0
BLOCK_RECORD
  5
9F
330
1
100
AcDbSymbolTableRecord
100
AcDbBlockTableRecord
  2
block 21
340
0
102
{BLKREFS
331
A0
102
}
 70
     0
280
     1
281
     0
  0
BLOCK_RECORD
  5
A4
330
1
100
AcDbSymbolTableRecord
100
AcDbBlockTableRecord
  2
block 22
340
0
102
{BLKREFS
331
A5
102
}
 70
     0
280
     1
281
     0
  0
BLOCK_RECORD
  5
A9
330
1
100
AcDbSymbolTableRecord
100
AcDbBlockTableRecord
  2
block 23
340
0
102
{BLKREFS
331
AA
102
}
 70
     0
280
     1
281
     0
  0
BLOCK_RECORD
  5
AE
330
1
100
AcDbSymbolTableRecord
100
AcDbBlockTableRecord
  2
block 24
340
0
102
{BLKREFS
331
AF
102
}
 70
     0
280
     1
281
     0
  0
BLOCK_RECORD
  5
B3
330
1
100
AcDbSymbolTableRecord
100
AcDbBlockTableRecord
  2
block 25
340
0
102
{BLKREFS
331
B4
102
}
 70
     0
280
     1
281
     0
  0
BLOCK_RECORD
  5
B8
330
1
100
AcDbSymbolTableRecord
100
AcDbBlockTableRecord
  2
block 26
340
0
102
{BLKREFS
331
B9
102
}
 70
     0
280
     1
281
     0
  0
BLOCK_RECORD
  5
BD
330
1
100
AcDbSymbolTableRecord
100
AcDbBlockTableRecord
  2
block 27
340
0
102
{BLKREFS
331
BE
102
}
 70
     0
280
     1
281
     0
  0
BLOCK_RECORD
  5
C2
330
1
100
AcDbSymbolTableRecord
100
AcDbBlockTableRecord
  2
block 28
340
0
102
{BLKREFS
331
C3
102
}
 70
     0
280
     1
281
     0
  0
BLOCK_RECORD
  5
C7
330
1
100
AcDbSymbolTableRecord
100
AcDbBlockTableRecord
  2
block 29
340
0
102
{BLKREFS
331
C8
102
}
 70
     0
280
     1
281
     0
  0
BLOCK_RECORD
  5
CC
330
1
100
AcDbSymbolTableRecord
100
AcDbBlockTableRecord
  2
block 30
340
0
102
{BLKREFS
331
CD
102
}
 70
     0
280
     1
281
     0
  0
BLOCK_RECORD
  5
D1
330
1
100
AcDbSymbolTableRecord
100
AcDbBlockTableRecord
  2
block 31
340
0
102
{BLKREFS
331
D2
102
}
 70
     0
280
     1
281
     0
  0
BLOCK_RECORD
  5
D6
330
1
100
AcDbSymbolTableRecord
100
AcDbBlockTableRecord
  2
block 32
340
0
102
{BLKREFS
331
D7
102
}
 70
     0
280
     1
281
     0
  0
BLOCK_RECORD
  5
DB
330
1
100
AcDbSymbolTableRecord
100
AcDbBlockTableRecord
  2
block 33
340
0
102
{BLKREFS
331
DC
102
}
 70
     0
280
     1
281
     0
  0
BLOCK_RECORD
  5
E0
330
1
100
AcDbSymbolTableRecord
100
AcDbBlockTableRecord
  2
block 34
340
0
102
{BLKREFS
331
E1
102
}
 70
     0
280
     1
281
     0
  0
BLOCK_RECORD
  5
E5
330
1
100
AcDbSymbolTableRecord
100
AcDbBlockTableRecord
  2
block 35
340
0
102
{BLKREFS
331
E6
102
}
 70
     0
280
     1
281
     0
  0
BLOCK_RECORD
  5
EA
330
1
100
AcDbSymbolTableRecord
100
AcDbBlockTableRecord
  2
block 36
340
0
102
{BLKREFS
331
EB
102
}
 70
     0
280
     1
281
     0
  0
BLOCK_RECORD
  5
EF
330
1
100
AcDbSymbolTableRecord
100
AcDbBlockTableRecord
  2
block 37
340
0
102
{BLKREFS
331
F0
102
}
 70
     0
280
     1
281
     0
  0
BLOCK_RECORD
  5
F4
330
1
100
AcDbSymbolTableRecord
100
AcDbBlockTableRecord
  2
block 38
340
0
102
{BLKREFS
331
F5
102
}
 70
     0
280
     1
281
     0
  0
BLOCK_RECORD
  5
FA
330
1
100
AcDbSymbolTableRecord
100
AcDbBlockTableRecord
  2
block 39
340
0
102
{BLKREFS
331
FB
102
}
 70
     0
280
     1
281
     0
  0
BLOCK_RECORD
  5
100
330
1
100
AcDbSymbolTableRecord
100
AcDbBlockTableRecord
  2
block 40
340
0
102
{BLKREFS
331
101
102
}
 70
     0
280
     1
281
     0
  0
BLOCK_RECORD
  5
106
330
1
100
AcDbSymbolTableRecord
100
AcDbBlockTableRecord
  2
block 41
340
0
102
{BLKREFS
331
107
102
}
 70
     0
280
     1
281
     0
  0
BLOCK_RECORD
  5
10C
330
1
100
AcDbSymbolTableRecord
100
AcDbBlockTableRecord
  2
block 42
340
0
102
{BLKREFS
331
10D
102
}
 70
     0
280
     1
281
     0
  0
BLOCK_RECORD
  5
111
330
1
100
AcDbSymbolTableRecord
100
AcDbBlockTableRecord
  2
block 43
340
0
102
{BLKREFS
331
112
102
}
 70
     0
280
     1
281
     0
  0
BLOCK_RECORD
  5
116
330
1
100
AcDbSymbolTableRecord
100
AcDbBlockTableRecord
  2
block 44
340
0
102
{BLKREFS
331
117
102
}
 70
     0
280
     1
281
     0
  0
BLOCK_RECORD
  5
11B
330
1
100
AcDbSymbolTableRecord
100
AcDbBlockTableRecord
  2
block 45
340
0
102
{BLKREFS
331
11C
102
}
 70
     0
280
     1
281
     0
  0
BLOCK_RECORD
  5
120
330
1
100
AcDbSymbolTableRecord
100
AcDbBlockTableRecord
  2
block 46
340
0
102
{BLKREFS
331
121
102
}
 70
     0
280
     1
281
     0
  0
BLOCK_RECORD
  5
125
330
1
100
AcDbSymbolTableRecord
100
AcDbBlockTableRecord
  2
block 47
340
0
102
{BLKREFS
331
126
102
}
 70
     0
280
     1
281
     0
  0
BLOCK_RECORD
  5
12A
330
1
100
AcDbSymbolTableRecord
100
AcDbBlockTableRecord
  2
block 48
340
0
102
{BLKREFS
331
12B
102
}
 70
     0
280
     1
281
     0
  0
BLOCK_RECORD
  5
12F
330
1
100
AcDbSymbolTableRecord
100
AcDbBlockTableRecord
  2
block 49
340
0
102
{BLKREFS
331
130
102
}
 70
     0
280
     1
281
     0
  0
BLOCK_RECORD
  5
134
330
1
100
AcDbSymbolTableRecord
100
AcDbBlockTableRecord
  2
block 50
340
0
102
{BLKREFS
331
135
102
}
 70
     0
280
     1
281
     0
  0
BLOCK_RECORD
  5
139
330
1
100
AcDbSymbolTableRecord
100
AcDbBlockTableRecord
  2
block 51
340
0
102
{BLKREFS
331
13A
102
}
 70
     0
280
     1
281
     0
  0
BLOCK_RECORD
  5
13E
330
1
100
AcDbSymbolTableRecord
100
AcDbBlockTableRecord
  2
block 52
340
0
102
{BLKREFS
331
13F
102
}
 70
     0
280
     1
281
     0
  0
BLOCK_RECORD
  5
143
330
1
100
AcDbSymbolTableRecord
100
AcDbBlockTableRecord
  2
block 53
340
0
102
{BLKREFS
331
144
102
}
 70
     0
280
     1
281
     0
  0
BLOCK_RECORD
  5
148
330
1
100
AcDbSymbolTableRecord
100
AcDbBlockTableRecord
  2
block 54
340
0
102
{BLKREFS
331
149
102
}
 70
     0
280
     1
281
     0
  0
BLOCK_RECORD
  5
14D
330
1
100
AcDbSymbolTableRecord
100
AcDbBlockTableRecord
  2
block 55
340
0
102
{BLKREFS
331
14E
102
}
 70
     0
280
     1
281
     0
  0
BLOCK_RECORD
  5
152
330
1
100
AcDbSymbolTableRecord
100
AcDbBlockTableRecord
  2
block 56
340
0
102
{BLKREFS
331
153
102
}
 70
     0
280
     1
281
     0
  0
BLOCK_RECORD
  5
157
330
1
100
AcDbSymbolTableRecord
100
AcDbBlockTableRecord
  2
block 57
340
0
102
{BLKREFS
331
158
102
}
 70
     0
280
     1
281
     0
  0
BLOCK_RECORD
  5
15C
330
1
100
AcDbSymbolTableRecord
100
AcDbBlockTableRecord
  2
block 58
340
0
102
{BLKREFS
331
15D
102
}
 70
     0
280
     1
281
     0
  0
BLOCK_RECORD
  5
161
330
1
100
AcDbSymbolTableRecord
100
AcDbBlockTableRecord
  2
block 59
340
0
102
{BLKREFS
331
162
102
}
 70
     0
280
     1
281
     0
  0
BLOCK_RECORD
  5
166
330
1
100
AcDbSymbolTableRecord
100
AcDbBlockTableRecord
  2
block 60
340
0
102
{BLKREFS
331
167
102
}
 70
     0
280
     1
281
     0
  0
BLOCK_RECORD
  5
16C
330
1
100
AcDbSymbolTableRecord
100
AcDbBlockTableRecord
  2
block 61
340
0
102
{BLKREFS
331
16D
102
}
 70
     0
280
     1
281
     0
  0
BLOCK_RECORD
  5
172
330
1
100
AcDbSymbolTableRecord
100
AcDbBlockTableRecord
  2
block 62
340
0
102
{BLKREFS
331
173
102
}
 70
     0
280
     1
281
     0
  0
BLOCK_RECORD
  5
178
330
1
100
AcDbSymbolTableRecord
100
AcDbBlockTableRecord
  2
block 63
340
0
102
{BLKREFS
331
179
102
}
 70
     0
280
     1
281
     0
  0
BLOCK_RECORD
  5
17E
330
1
100
AcDbSymbolTableRecord
100
AcDbBlockTableRecord
  2
block 64
340
0
102
{BLKREFS
331
17F
102
}
 70
     0
280
     1
281
     0
  0
BLOCK_RECORD
  5
184
330
1
100
AcDbSymbolTableRecord
100
AcDbBlockTableRecord
  2
block 65
340
0
102
{BLKREFS
331
185
102
}
 70
     0
280
     1
281
     0
  0
BLOCK_RECORD
  5
18A
330
1
100
AcDbSymbolTableRecord
100
AcDbBlockTableRecord
  2
block 66
340
0
102
{BLKREFS
331
18B
102
}
 70
     0
280
     1
281
     0
  0
BLOCK_RECORD
  5
190
330
1
100
AcDbSymbolTableRecord
100
AcDbBlockTableRecord
  2
block 67
340
0
102
{BLKREFS
331
191
102
}
 70
     0
280
     1
281
     0
  0
BLOCK_RECORD
  5
196
330
1
100
AcDbSymbolTableRecord
100
AcDbBlockTableRecord
  2
block 68
340
0
102
{BLKREFS
331
197
102
}
 70
     0
280
     1
281
     0
  0
BLOCK_RECORD
  5
19C
330
1
100
AcDbSymbolTableRecord
100
AcDbBlockTableRecord
  2
block 69
340
0
102
{BLKREFS
331
19D
102
}
 70
     0
280
     1
281
     0
  0
BLOCK_RECORD
  5
1A2
330
1
100
AcDbSymbolTableRecord
100
AcDbBlockTableRecord
  2
block 70
340
0
102
{BLKREFS
331
1A3
102
}
 70
     0
280
     1
281
     0
  0
BLOCK_RECORD
  5
1A8
330
1
100
AcDbSymbolTableRecord
100
AcDbBlockTableRecord
  2
block 71
340
0
102
{BLKREFS
331
1A9
102
}
 70
     0
280
     1
281
     0
  0
BLOCK_RECORD
  5
1AE
330
1
100
AcDbSymbolTableRecord
100
AcDbBlockTableRecord
  2
block 72
340
0
102
{BLKREFS
331
1AF
102
}
 70
     0
280
     1
281
     0
  0
BLOCK_RECORD
  5
1B4
330
1
100
AcDbSymbolTableRecord
100
AcDbBlockTableRecord
  2
block 73
340
0
102
{BLKREFS
331
1B5
102
}
 70
     0
280
     1
281
     0
  0
BLOCK_RECORD
  5
1BA
330
1
100
AcDbSymbolTableRecord
100
AcDbBlockTableRecord
  2
block 74
340
0
102
{BLKREFS
331
1BB
102
}
 70
     0
280
     1
281
     0
  0
BLOCK_RECORD
  5
1C0
330
1
100
AcDbSymbolTableRecord
100
AcDbBlockTableRecord
  2
block 75
340
0
102
{BLKREFS
331
1C1
102
}
 70
     0
280
     1
281
     0
  0
BLOCK_RECORD
  5
1C6
330
1
100
AcDbSymbolTableRecord
100
AcDbBlockTableRecord
  2
block 76
340
0
102
{BLKREFS
331
1C7
102
}
 70
     0
280
     1
281
     0
  0
BLOCK_RECORD
  5
1CE
330
1
100
AcDbSymbolTableRecord
100
AcDbBlockTableRecord
  2
block 77
340
0
102
{BLKREFS
331
1CF
102
}
 70
     0
280
     1
281
     0
  0
BLOCK_RECORD
  5
1D7
330
1
100
AcDbSymbolTableRecord
100
AcDbBlockTableRecord
  2
block 78
340
0
102
{BLKREFS
331
1D8
102
}
 70
     0
280
     1
281
     0
  0
BLOCK_RECORD
  5
1E0
330
1
100
AcDbSymbolTableRecord
100
AcDbBlockTableRecord
  2
block 79
340
0
102
{BLKREFS
331
1E1
102
}
 70
     0
280
     1
281
     0
  0
BLOCK_RECORD
  5
1E8
330
1
100
AcDbSymbolTableRecord
100
AcDbBlockTableRecord
  2
block 80
340
0
102
{BLKREFS
331
1E9
102
}
 70
     0
280
     1
281
     0
  0
BLOCK_RECORD
  5
1F0
330
1
100
AcDbSymbolTableRecord
100
AcDbBlockTableRecord
  2
block 81
340
0
102
{BLKREFS
331
1F1
102
}
 70
     0
280
     1
281
     0
  0
BLOCK_RECORD
  5
1F9
330
1
100
AcDbSymbolTableRecord
100
AcDbBlockTableRecord
  2
block 82
340
0
102
{BLKREFS
331
1FA
102
}
 70
     0
280
     1
281
     0
  0
BLOCK_RECORD
  5
202
330
1
100
AcDbSymbolTableRecord
100
AcDbBlockTableRecord
  2
block 83
340
0
102
{BLKREFS
331
203
102
}
 70
     0
280
     1
281
     0
  0
ENDTAB
  0
ENDSEC
  0
SECTION
  2
BLOCKS
  0
BLOCK
  5
20
330
1F
100
AcDbEntity
  8
0
100
AcDbBlockBegin
  2
*Model_Space
 70
     0
 10
0.0
 20
0.0
 30
0.0
  3
*Model_Space
  1

  0
ENDBLK
  5
21
330
1F
100
AcDbEntity
  8
0
100
AcDbBlockEnd
  0
BLOCK
  5
1C
330
1B
100
AcDbEntity
 67
     1
  8
0
100
AcDbBlockBegin
  2
*Paper_Space
 70
     0
 10
0.0
 20
0.0
 30
0.0
  3
*Paper_Space
  1

  0
ENDBLK
  5
1D
330
1B
100
AcDbEntity
 67
     1
  8
0
100
AcDbBlockEnd
  0
BLOCK
  5
24
330
23
100
AcDbEntity
  8
0
100
AcDbBlockBegin
  2
*Paper_Space0
 70
     0
 10
0.0
 20
0.0
 30
0.0
  3
*Paper_Space0
  1

  0
ENDBLK
  5
25
330
23
100
AcDbEntity
  8
0
100
AcDbBlockEnd
  0
BLOCK
  5
42
330
40
100
AcDbEntity
  8
0
100
AcDbBlockBegin
  2
block 2
 70
     0
 10
0.0
 20
0.0
 30
0.0
  3
block 2
  1

  0
SPLINE
  5
44
330
40
100
AcDbEntity
  8
0
 62
   250
370
    25
100
AcDbSpline
210
0.0
220
0.0
230
1.0
 70
     8
 71
     3
 72
    53
 73
    49
 74
     0
 42
0.0000000001
 43
0.0000000001
 12
1.0
 22
0.0
 32
0.0
 13
1.0
 23
0.0
 33
0.0
 40
0.0
 40
0.0
 40
0.0
 40
0.0
 40
1.0
 40
1.0
 40
1.0
 40
2.0
 40
2.0
 40
2.0
 40
3.0
 40
3.0
 40
3.0
 40
4.0
 40
4.0
 40
4.0
 40
5.0
 40
5.0
 40
5.0
 40
6.0
 40
6.0
 40
6.0
 40
7.0
 40
7.0
 40
7.0
 40
8.0
 40
8.0
 40
8.0
 40
9.0
 40
9.0
 40
9.0
 40
10.0
 40
10.0
 40
10.0
 40
11.0
 40
11.0
 40
11.0
 40
12.0
 40
12.0
 40
12.0
 40
13.0
 40
13.0
 40
13.0
 40
14.0
 40
14.0
 40
14.0
 40
15.0
 40
15.0
 40
15.0
 40
16.0
 40
16.0
 40
16.0
 40
16.0
 10
-694.712891962481
 20
151.2582458897534
 30
0.0
 10
-694.5636661775334
 20
193.5704587327216
 30
0.0
 10
-687.0972263479931
 20
235.2178230785303
 30
0.0
 10
-672.5085537772264
 20
274.9392575716129
 30
0.0
 10
-658.0081466707421
 20
314.420378578389
 30
0.0
 10
-636.643741514709
 20
351.5136048024546
 30
0.0
 10
-610.2465468302771
 20
384.1827980335854
 30
0.0
 10
-583.1140182779536
 20
417.7620216070744
 30
0.0
 10
-552.4378888638275
 20
444.3920508495561
 30
0.0
 10
-515.327976163104
 20
466.4683653058348
 30
0.0
 10
-497.1448671853389
 20
477.2853297038272
 30
0.0
 10
-478.4723470221377
 20
486.6444675446623
 30
0.0
 10
-458.7434635246042
 20
494.3498097419575
 30
0.0
 10
-438.9909437916552
 20
502.0643594876931
 30
0.0
 10
-418.9198993276764
 20
507.6913710306153
 30
0.0
 10
-398.1082293012835
 20
511.6650455435222
 30
0.0
 10
-358.1682125473466
 20
519.2910123233107
 30
0.0
 10
-312.7171781939466
 20
521.099995727583
 30
0.0
 10
-272.3786262881369
 20
522.0147885950103
 30
0.0
 10
-240.7719700349135
 20
522.7315662542001
 30
0.0
 10
-177.6998752157488
 20
523.3428275250304
 30
0.0
 10
-146.0883858815593
 20
523.5605278368203
 30
0.0
 10
-61.887613257405
 20
524.1403564423201
 30
0.0
 10
22.30970212634356
 20
523.9873911932601
 30
0.0
 10
106.5099808590144
 20
523.7182908888814
 30
0.0
 10
190.7102595916865
 20
523.4491905845091
 30
0.0
 10
274.9068694161628
 20
523.06413161463
 30
0.0
 10
359.1022092339664
 20
521.9459965664909
 30
0.0
 10
390.4433282570993
 20
521.5297871549873
 30
0.0
 10
454.0506956140634
 20
520.5077140010264
 30
0.0
 10
485.383841817488
 20
519.5945439199073
 30
0.0
 10
525.6986163760168
 20
518.419611350794
 30
0.0
 10
571.1673249890339
 20
516.3174327931902
 30
0.0
 10
611.0410191718917
 20
508.4394402432887
 30
0.0
 10
631.8268304511577
 20
504.332732530609
 30
0.0
 10
651.861468056954
 20
498.5775914248294
 30
0.0
 10
671.5641753056831
 20
490.7364996245865
 30
0.0
 10
691.2431757630418
 20
482.9048623185185
 30
0.0
 10
709.8555469987504
 20
473.4266966293716
 30
0.0
 10
727.9690172768645
 20
462.4935266201313
 30
0.0
 10
764.9368303412481
 20
440.1800736942578
 30
0.0
 10
795.4418616331789
 20
413.3543223111606
 30
0.0
 10
822.3586301616974
 20
379.6018486596881
 30
0.0
 10
848.5279644808866
 20
346.7866046603227
 30
0.0
 10
869.6875810597177
 20
309.5149424976716
 30
0.0
 10
883.9196992549832
 20
269.9643239031101
 30
0.0
 10
898.2527477033776
 20
230.1332102220082
 30
0.0
 10
905.4528389096987
 20
188.4709938536201
 30
0.0
 10
905.3304596548629
 20
146.1408950832385
 30
0.0
  0
ENDBLK
  5
43
330
40
100
AcDbEntity
  8
0
100
AcDbBlockEnd
  0
BLOCK
  5
47
330
45
100
AcDbEntity
  8
0
100
AcDbBlockBegin
  2
block 3
 70
     0
 10
0.0
 20
0.0
 30
0.0
  3
block 3
  1

  0
SPLINE
  5
49
330
45
100
AcDbEntity
  8
0
 62
   250
370
    25
100
AcDbSpline
210
0.0
220
0.0
230
1.0
 70
     8
 71
     3
 72
    53
 73
    49
 74
     0
 42
0.0000000001
 43
0.0000000001
 12
1.0
 22
0.0
 32
0.0
 13
1.0
 23
0.0
 33
0.0
 40
0.0
 40
0.0
 40
0.0
 40
0.0
 40
1.0
 40
1.0
 40
1.0
 40
2.0
 40
2.0
 40
2.0
 40
3.0
 40
3.0
 40
3.0
 40
4.0
 40
4.0
 40
4.0
 40
5.0
 40
5.0
 40
5.0
 40
6.0
 40
6.0
 40
6.0
 40
7.0
 40
7.0
 40
7.0
 40
8.0
 40
8.0
 40
8.0
 40
9.0
 40
9.0
 40
9.0
 40
10.0
 40
10.0
 40
10.0
 40
11.0
 40
11.0
 40
11.0
 40
12.0
 40
12.0
 40
12.0
 40
13.0
 40
13.0
 40
13.0
 40
14.0
 40
14.0
 40
14.0
 40
15.0
 40
15.0
 40
15.0
 40
16.0
 40
16.0
 40
16.0
 40
16.0
 10
905.3304596548629
 20
146.1388489613644
 30
0.0
 10
905.1816219275222
 20
103.8087771234925
 30
0.0
 10
897.7147587624102
 20
62.19351677560334
 30
0.0
 10
883.1268623068321
 20
22.4549734741943
 30
0.0
 10
868.6416952805163
 20
-17.00367447312274
 30
0.0
 10
847.2438113372593
 20
-54.13916275916219
 30
0.0
 10
820.8649259158128
 20
-86.7862006045715
 30
0.0
 10
793.7325737533074
 20
-120.3657055534934
 30
0.0
 10
763.05640906121
 20
-146.995698845276
 30
0.0
 10
725.9465669164173
 20
-169.0722244116402
 30
0.0
 10
707.7634932166167
 20
-179.8892590922872
 30
0.0
 10
689.0908319415691
 20
-189.2481850289105
 30
0.0
 10
669.3620895558881
 20
-196.9538085077065
 30
0.0
 10
649.6096051008982
 20
-204.6686757551191
 30
0.0
 10
629.5385253589542
 20
-210.2955461861692
 30
0.0
 10
608.7268906105269
 20
-214.2692559770603
 30
0.0
 10
568.8035603332409
 20
-221.8920477401368
 30
0.0
 10
523.3220105415653
 20
-223.7035006018424
 30
0.0
 10
483.0004978920372
 20
-224.6207276487391
 30
0.0
 10
451.6620952720864
 20
-225.3335894539981
 30
0.0
 10
388.0500359459971
 20
-225.9490840804305
 30
0.0
 10
356.7068355230252
 20
-226.1649499381223
 30
0.0
 10
272.5059570649768
 20
-226.7449196554687
 30
0.0
 10
188.3085711252978
 20
-226.5918132945687
 30
0.0
 10
104.1082218367097
 20
-226.3227482681488
 30
0.0
 10
19.90787254810815
 20
-226.0536479637761
 30
0.0
 10
-64.28880783229796
 20
-225.6684478820497
 30
0.0
 10
-148.4842182060189
 20
-224.5504186678061
 30
0.0
 10
-180.0938378081587
 20
-224.1306814599478
 30
0.0
 10
-243.1606409328326
 20
-223.1162989019998
 30
0.0
 10
-274.7622171593228
 20
-222.1974843467605
 30
0.0
 10
-315.0942426419284
 20
-221.0248448452559
 30
0.0
 10
-360.5326827623994
 20
-218.9253121348981
 30
0.0
 10
-400.4232750896981
 20
-211.0439681784785
 30
0.0
 10
-421.209086368951
 20
-206.9371899098754
 30
0.0
 10
-441.2436886968087
 20
-201.1818724142842
 30
0.0
 10
-460.9464665014547
 20
-193.3410275597834
 30
0.0
 10
-480.6256080706723
 20
-185.5096029581554
 30
0.0
 10
-499.2378734724737
 20
-176.031155284754
 30
0.0
 10
-517.3513790285652
 20
-165.0980208296666
 30
0.0
 10
-554.3192626488658
 20
-142.7846037454489
 30
0.0
 10
-584.8241881069016
 20
-115.9586413722452
 30
0.0
 10
-611.7410977472811
 20
-82.20627440731674
 30
0.0
 10
-637.9285296616656
 20
-49.36862973079108
 30
0.0
 10
-659.054808565145
 20
-12.13930206462081
 30
0.0
 10
-673.3019198948379
 20
27.43399926065367
 30
0.0
 10
-687.6356739024917
 20
67.24803740171069
 30
0.0
 10
-694.8349889936101
 20
108.9426731651169
 30
0.0
 10
-694.712891962481
 20
151.2548944832295
 30
0.0
  0
ENDBLK
  5
48
330
45
100
AcDbEntity
  8
0
100
AcDbBlockEnd
  0
BLOCK
  5
4C
330
4A
100
AcDbEntity
  8
0
100
AcDbBlockBegin
  2
block 4
 70
     0
 10
0.0
 20
0.0
 30
0.0
  3
block 4
  1

  0
SPLINE
  5
4E
330
4A
100
AcDbEntity
  8
0
 62
   250
370
    25
100
AcDbSpline
210
0.0
220
0.0
230
1.0
 70
     8
 71
     3
 72
     8
 73
     4
 74
     0
 42
0.0000000001
 43
0.0000000001
 12
1.0
 22
0.0
 32
0.0
 13
1.0
 23
0.0
 33
0.0
 40
0.0
 40
0.0
 40
0.0
 40
0.0
 40
1.0
 40
1.0
 40
1.0
 40
1.0
 10
150.1149546686594
 20
-200.3385174226229
 30
0.0
 10
134.7814231798839
 20
-200.3638117223371
 30
0.0
 10
119.4480680809194
 20
-200.4126717015749
 30
0.0
 10
104.1144307582618
 20
-200.3636706104776
 30
0.0
  0
ENDBLK
  5
4D
330
4A
100
AcDbEntity
  8
0
100
AcDbBlockEnd
  0
BLOCK
  5
51
330
4F
100
AcDbEntity
  8
0
100
AcDbBlockBegin
  2
block 5
 70
     0
 10
0.0
 20
0.0
 30
0.0
  3
block 5
  1

  0
SPLINE
  5
53
330
4F
100
AcDbEntity
  8
0
 62
   250
370
    25
100
AcDbSpline
210
0.0
220
0.0
230
1.0
 70
     8
 71
     3
 72
     8
 73
     4
 74
     0
 42
0.0000000001
 43
0.0000000001
 12
1.0
 22
0.0
 32
0.0
 13
1.0
 23
0.0
 33
0.0
 40
0.0
 40
0.0
 40
0.0
 40
0.0
 40
1.0
 40
1.0
 40
1.0
 40
1.0
 10
58.11500046471124
 20
-200.0444755981594
 30
0.0
 10
73.44803806200447
 20
-200.1678073580094
 30
0.0
 10
88.7807934355782
 20
-200.3146695194046
 30
0.0
 10
104.1144307582618
 20
-200.3636706104776
 30
0.0
  0
ENDBLK
  5
52
330
4F
100
AcDbEntity
  8
0
100
AcDbBlockEnd
  0
BLOCK
  5
56
330
54
100
AcDbEntity
  8
0
100
AcDbBlockBegin
  2
block 6
 70
     0
 10
0.0
 20
0.0
 30
0.0
  3
block 6
  1

  0
SPLINE
  5
58
330
54
100
AcDbEntity
  8
0
 62
   250
370
    25
100
AcDbSpline
210
0.0
220
0.0
230
1.0
 70
     8
 71
     3
 72
   209
 73
   205
 74
     0
 42
0.0000000001
 43
0.0000000001
 12
1.0
 22
0.0
 32
0.0
 13
1.0
 23
0.0
 33
0.0
 40
0.0
 40
0.0
 40
0.0
 40
0.0
 40
1.0
 40
1.0
 40
1.0
 40
2.0
 40
2.0
 40
2.0
 40
3.0
 40
3.0
 40
3.0
 40
4.0
 40
4.0
 40
4.0
 40
5.0
 40
5.0
 40
5.0
 40
6.0
 40
6.0
 40
6.0
 40
7.0
 40
7.0
 40
7.0
 40
8.0
 40
8.0
 40
8.0
 40
9.0
 40
9.0
 40
9.0
 40
10.0
 40
10.0
 40
10.0
 40
11.0
 40
11.0
 40
11.0
 40
12.0
 40
12.0
 40
12.0
 40
13.0
 40
13.0
 40
13.0
 40
14.0
 40
14.0
 40
14.0
 40
15.0
 40
15.0
 40
15.0
 40
16.0
 40
16.0
 40
16.0
 40
17.0
 40
17.0
 40
17.0
 40
18.0
 40
18.0
 40
18.0
 40
19.0
 40
19.0
 40
19.0
 40
20.0
 40
20.0
 40
20.0
 40
21.0
 40
21.0
 40
21.0
 40
22.0
 40
22.0
 40
22.0
 40
23.0
 40
23.0
 40
23.0
 40
24.0
 40
24.0
 40
24.0
 40
25.0
 40
25.0
 40
25.0
 40
26.0
 40
26.0
 40
26.0
 40
27.0
 40
27.0
 40
27.0
 40
28.0
 40
28.0
 40
28.0
 40
29.0
 40
29.0
 40
29.0
 40
30.0
 40
30.0
 40
30.0
 40
31.0
 40
31.0
 40
31.0
 40
32.0
 40
32.0
 40
32.0
 40
33.0
 40
33.0
 40
33.0
 40
34.0
 40
34.0
 40
34.0
 40
35.0
 40
35.0
 40
35.0
 40
36.0
 40
36.0
 40
36.0
 40
37.0
 40
37.0
 40
37.0
 40
38.0
 40
38.0
 40
38.0
 40
39.0
 40
39.0
 40
39.0
 40
40.0
 40
40.0
 40
40.0
 40
41.0
 40
41.0
 40
41.0
 40
42.0
 40
42.0
 40
42.0
 40
43.0
 40
43.0
 40
43.0
 40
44.0
 40
44.0
 40
44.0
 40
45.0
 40
45.0
 40
45.0
 40
46.0
 40
46.0
 40
46.0
 40
47.0
 40
47.0
 40
47.0
 40
48.0
 40
48.0
 40
48.0
 40
49.0
 40
49.0
 40
49.0
 40
50.0
 40
50.0
 40
50.0
 40
51.0
 40
51.0
 40
51.0
 40
52.0
 40
52.0
 40
52.0
 40
53.0
 40
53.0
 40
53.0
 40
54.0
 40
54.0
 40
54.0
 40
55.0
 40
55.0
 40
55.0
 40
56.0
 40
56.0
 40
56.0
 40
57.0
 40
57.0
 40
57.0
 40
58.0
 40
58.0
 40
58.0
 40
59.0
 40
59.0
 40
59.0
 40
60.0
 40
60.0
 40
60.0
 40
61.0
 40
61.0
 40
61.0
 40
62.0
 40
62.0
 40
62.0
 40
63.0
 40
63.0
 40
63.0
 40
64.0
 40
64.0
 40
64.0
 40
65.0
 40
65.0
 40
65.0
 40
66.0
 40
66.0
 40
66.0
 40
67.0
 40
67.0
 40
67.0
 40
68.0
 40
68.0
 40
68.0
 40
68.0
 10
905.3188884828905
 20
146.1450226049516
 30
0.0
 10
905.3043892399468
 20
141.8290460137274
 30
0.0
 10
905.2078687322507
 20
137.5135280360269
 30
0.0
 10
905.0377583930141
 20
133.2009028513067
 30
0.0
 10
904.8692002841572
 20
128.9277184296213
 30
0.0
 10
904.6284281843515
 20
124.6573473728529
 30
0.0
 10
904.3123729107684
 20
120.3925592141765
 30
0.0
 10
903.673100937036
 20
111.7663212797055
 30
0.0
 10
902.7257465094403
 20
103.1627317971188
 30
0.0
 10
901.4694276788971
 20
94.60450977425256
 30
0.0
 10
898.9380574192602
 20
77.36067700610091
 30
0.0
 10
895.1521675052261
 20
60.30099520195238
 30
0.0
 10
890.1557495570439
 20
43.60435890937367
 30
0.0
 10
885.0815436997045
 20
26.64765347761517
 30
0.0
 10
878.758815441718
 20
10.06538833931965
 30
0.0
 10
871.3029590011657
 20
-5.987777918138564
 30
0.0
 10
863.9265485340701
 20
-21.8699518916007
 30
0.0
 10
855.4409988994854
 20
-37.23428065424371
 30
0.0
 10
845.9760271686262
 20
-51.96759250250743
 30
0.0
 10
841.1208269077125
 20
-59.5252609543407
 30
0.0
 10
836.007921124589
 20
-66.916911314881
 30
0.0
 10
830.6522323977383
 20
-74.12857351099483
 30
0.0
 10
825.3913002804146
 20
-81.21260003895645
 30
0.0
 10
819.8960872085449
 20
-88.12295315776962
 30
0.0
 10
814.1615484333673
 20
-94.8292232637991
 30
0.0
 10
808.4269038242943
 20
-101.5356344816894
 30
0.0
 10
802.4529335118993
 20
-108.0379274088305
 30
0.0
 10
796.242777234931
 20
-114.3065743906589
 30
0.0
 10
790.3927736857286
 20
-120.211646691469
 30
0.0
 10
784.3332190342688
 20
-125.9093904069433
 30
0.0
 10
778.0748025034526
 20
-131.3796265425846
 30
0.0
 10
771.7302724641218
 20
-136.9251458500807
 30
0.0
 10
765.181377183143
 20
-142.2369133783931
 30
0.0
 10
758.4470609268302
 20
-147.3019821152669
 30
0.0
 10
751.453063582362
 20
-152.5623849302464
 30
0.0
 10
744.2590401857462
 20
-157.5566860744525
 30
0.0
 10
736.8956472871203
 20
-162.2861202765816
 30
0.0
 10
729.3588631986628
 20
-167.1269270061491
 30
0.0
 10
721.6445956766399
 20
-171.6902372830924
 30
0.0
 10
713.7931321551669
 20
-176.0020156877639
 30
0.0
 10
711.1917351383032
 20
-177.4306320551871
 30
0.0
 10
708.5752391531305
 20
-178.8316257780086
 30
0.0
 10
705.9444555928044
 20
-180.2053496358517
 30
0.0
 10
700.537225761511
 20
-183.0288213606281
 30
0.0
 10
695.0694589451236
 20
-185.7370047041186
 30
0.0
 10
689.537592069331
 20
-188.3077451058949
 30
0.0
 10
686.8296556031775
 20
-189.5661453044868
 30
0.0
 10
684.1063379450082
 20
-190.7916311641149
 30
0.0
 10
681.3679918744481
 20
-191.9825084694275
 30
0.0
 10
678.3415659552358
 20
-193.2987292817326
 30
0.0
 10
675.2967602171207
 20
-194.5727223719191
 30
0.0
 10
672.2338216058578
 20
-195.801453835132
 30
0.0
 10
666.78404655076
 20
-197.987664501417
 30
0.0
 10
661.2766978595039
 20
-200.0306466365363
 30
0.0
 10
655.7188311247377
 20
-201.9253554917275
 30
0.0
 10
650.1693958232098
 20
-203.8172068318771
 30
0.0
 10
644.5696188679932
 20
-205.5612435056312
 30
0.0
 10
638.9275083567627
 20
-207.1560191164914
 30
0.0
 10
633.2166058170262
 20
-208.7702328851487
 30
0.0
 10
627.4623466603306
 20
-210.2315166827053
 30
0.0
 10
621.6760903908857
 20
-211.5489722237322
 30
0.0
 10
609.3708545533716
 20
-214.3506775164483
 30
0.0
 10
596.920943788196
 20
-216.5018571651442
 30
0.0
 10
584.4098257566197
 20
-218.1615795065031
 30
0.0
 10
577.5478385509796
 20
-219.0719273505525
 30
0.0
 10
570.6674715264379
 20
-219.8344252502397
 30
0.0
 10
563.7765211128897
 20
-220.4880553550436
 30
0.0
 10
556.1994495903042
 20
-221.2068085801713
 30
0.0
 10
548.6096427229438
 20
-221.7939397240841
 30
0.0
 10
541.0141208255258
 20
-222.2833861874984
 30
0.0
 10
532.5793361801947
 20
-222.8269137687113
 30
0.0
 10
524.1374959421923
 20
-223.2499671051029
 30
0.0
 10
515.6924806874895
 20
-223.5955500340079
 30
0.0
 10
505.3136685942108
 20
-224.0202967126504
 30
0.0
 10
494.9300939758887
 20
-224.3280263868902
 30
0.0
 10
484.5453199068115
 20
-224.5707034967233
 30
0.0
 10
472.1901657511641
 20
-224.859418348718
 30
0.0
 10
459.833282975326
 20
-225.0560577163754
 30
0.0
 10
447.4759415859565
 20
-225.2241924896792
 30
0.0
 10
443.067818954478
 20
-225.2841650273476
 30
0.0
 10
438.6596257670825
 20
-225.3405039348096
 30
0.0
 10
434.2513973017087
 20
-225.3947967203987
 30
0.0
 10
428.191101813024
 20
-225.4694448908348
 30
0.0
 10
422.1307357684095
 20
-225.5401772073337
 30
0.0
 10
416.0703344458308
 20
-225.6080167308396
 30
0.0
 10
406.2136009320568
 20
-225.7184014781357
 30
0.0
 10
396.3567263064361
 20
-225.8212367412791
 30
0.0
 10
386.4997811248728
 20
-225.9119363850362
 30
0.0
 10
367.6473786265962
 20
-226.0854334087488
 30
0.0
 10
348.7945880707174
 20
-226.2146565884791
 30
0.0
 10
329.9416564029803
 20
-226.3083195811475
 30
0.0
 10
308.4020256030186
 20
-226.4153529219332
 30
0.0
 10
286.8621831352809
 20
-226.4760310188726
 30
0.0
 10
265.3223053895784
 20
-226.5064406232792
 30
0.0
 10
241.5975575401934
 20
-226.5399546884553
 30
0.0
 10
217.8727391348779
 20
-226.5367796717431
 30
0.0
 10
194.1479912855058
 20
-226.5099684196019
 30
0.0
 10
164.1343820229337
 20
-226.4760310188726
 30
0.0
 10
134.1208433162901
 20
-226.4042050855139
 30
0.0
 10
104.1073751655907
 20
-226.3081784693008
 30
0.0
 10
74.09355423524143
 20
-226.2121165751093
 30
0.0
 10
44.07980386082193
 20
-226.0918187201132
 30
0.0
 10
14.06626515417897
 20
-225.9343026137931
 30
0.0
 10
-9.658271027416967
 20
-225.8097714031879
 30
0.0
 10
-33.38266609716584
 20
-225.6619567367912
 30
0.0
 10
-57.10681422116718
 20
-225.4767121512696
 30
0.0
 10
-78.64552779408558
 20
-225.3085068220604
 30
0.0
 10
-100.1839944212565
 20
-225.109397996963
 30
0.0
 10
-121.7219671569441
 20
-224.8645689313618
 30
0.0
 10
-141.4835180485153
 20
-224.6399541387608
 30
0.0
 10
-161.2446808824982
 20
-224.3768510881509
 30
0.0
 10
-181.0050323233271
 20
-224.0643236109034
 30
0.0
 10
-191.2210718937476
 20
-223.9027505387994
 30
0.0
 10
-201.4368645184142
 20
-223.7279482304376
 30
0.0
 10
-211.6525513091989
 20
-223.5465136649579
 30
0.0
 10
-221.8036441490942
 20
-223.3662079943163
 30
0.0
 10
-231.9545605991781
 20
-223.1793053445338
 30
0.0
 10
-242.1051242696256
 20
-222.9716239743383
 30
0.0
 10
-254.0913062066683
 20
-222.7263362952185
 30
0.0
 10
-266.0769236962983
 20
-222.4520501302378
 30
0.0
 10
-278.0600364505358
 20
-222.0866409859329
 30
0.0
 10
-288.2856716269723
 20
-221.7748190679577
 30
0.0
 10
-298.5094370713587
 20
-221.3966745788767
 30
0.0
 10
-308.7279813771716
 20
-220.9039472648817
 30
0.0
 10
-312.9095136500923
 20
-220.7022984264145
 30
0.0
 10
-317.0901992519065
 20
-220.4814936538554
 30
0.0
 10
-321.2693326233295
 20
-220.2351829138055
 30
0.0
 10
-325.4594021633828
 20
-219.9882724483647
 30
0.0
 10
-329.6479194730577
 20
-219.7157149035863
 30
0.0
 10
-333.8344964947403
 20
-219.4138766492279
 30
0.0
 10
-343.8616225714566
 20
-218.6909253464568
 30
0.0
 10
-353.8774244219416
 20
-217.7999098263115
 30
0.0
 10
-363.864227786552
 20
-216.6477668215136
 30
0.0
 10
-368.3084750524937
 20
-216.1350369022948
 30
0.0
 10
-372.747007288366
 20
-215.5706247667866
 30
0.0
 10
-377.1767553113768
 20
-214.9445820293131
 30
0.0
 10
-382.3161548449831
 20
-214.2183145979829
 30
0.0
 10
-387.4437715388145
 20
-213.4091086748389
 30
0.0
 10
-392.5547017560069
 20
-212.5041230812226
 30
0.0
 10
-399.8517368055764
 20
-211.2120323958538
 30
0.0
 10
-407.1147286205355
 20
-209.7246781833681
 30
0.0
 10
-414.3248034904853
 20
-208.0125680664475
 30
0.0
 10
-418.0278960245523
 20
-207.1331942742044
 30
0.0
 10
-421.7170537631138
 20
-206.1945887815179
 30
0.0
 10
-425.389560302989
 20
-205.1950582461371
 30
0.0
 10
-427.5963027439323
 20
-204.5944861982016
 30
0.0
 10
-429.7970479311257
 20
-203.9719007011338
 30
0.0
 10
-431.9910550273057
 20
-203.3263845278966
 30
0.0
 10
-437.6135862688787
 20
-201.6721655488176
 30
0.0
 10
-443.1918789444218
 20
-199.8673802221814
 30
0.0
 10
-448.7183835697688
 20
-197.9160502358335
 30
0.0
 10
-454.1068102466064
 20
-196.0134391168522
 30
0.0
 10
-459.4459536086529
 20
-193.9715153206412
 30
0.0
 10
-464.7294283445374
 20
-191.7945474807495
 30
0.0
 10
-470.2360009206095
 20
-189.5256462035832
 30
0.0
 10
-475.6821070675122
 20
-187.1100582806666
 30
0.0
 10
-481.0671823378259
 20
-184.5662349642466
 30
0.0
 10
-489.2662749100666
 20
-180.6931733006245
 30
0.0
 10
-497.3239734052257
 20
-176.5228595253945
 30
0.0
 10
-505.2433117281698
 20
-172.1051061215279
 30
0.0
 10
-513.0663412111816
 20
-167.7410810544633
 30
0.0
 10
-520.7543266505245
 20
-163.1356136123952
 30
0.0
 10
-528.2594311278905
 20
-158.2451355116789
 30
0.0
 10
-531.6789946705971
 20
-156.0169088473534
 30
0.0
 10
-535.0605991247304
 20
-153.729485762013
 30
0.0
 10
-538.4026922599382
 20
-151.3865351637875
 30
0.0
 10
-541.7485601372102
 20
-149.0409034404108
 30
0.0
 10
-545.0548461396132
 20
-146.6396030922894
 30
0.0
 10
-548.3173521895181
 20
-144.1799177163079
 30
0.0
 10
-555.1788455036619
 20
-139.0067925804379
 30
0.0
 10
-561.8465216872243
 20
-133.5753269255351
 30
0.0
 10
-568.3009778603335
 20
-127.9018191702636
 30
0.0
 10
-574.5248572650434
 20
-122.4309480313042
 30
0.0
 10
-580.550474515762
 20
-116.7350034918978
 30
0.0
 10
-586.3668934438588
 20
-110.8330003738289
 30
0.0
 10
-592.540219527105
 20
-104.5688336932349
 30
0.0
 10
-598.4778888152123
 20
-98.07253801971532
 30
0.0
 10
-604.1763382338928
 20
-91.3734293400585
 30
0.0
 10
-610.0322684809416
 20
-84.48911135752869
 30
0.0
 10
-615.6355379545274
 20
-77.39062086496219
 30
0.0
 10
-620.991896962686
 20
-70.1107663674262
 30
0.0
 10
-626.2652469230881
 20
-62.94373079382579
 30
0.0
 10
-631.2993064581595
 20
-55.60090513332563
 30
0.0
 10
-636.0801407723427
 20
-48.09629473702736
 30
0.0
 10
-645.6317904591281
 20
-33.10287847158751
 30
0.0
 10
-654.1727970520915
 20
-17.46366382552886
 30
0.0
 10
-661.567481504189
 20
-1.297537532301145
 30
0.0
 10
-668.9883774830693
 20
14.92588017195259
 30
0.0
 10
-675.2547668336118
 20
31.67998426534906
 30
0.0
 10
-680.2514317275226
 20
48.80605919485192
 30
0.0
 10
-682.6775678225061
 20
57.12170994788941
 30
0.0
 10
-684.8043351205586
 20
65.52506171560226
 30
0.0
 10
-686.6253835882926
 20
73.99388938162066
 30
0.0
 10
-688.4548987672177
 20
82.50226364354117
 30
0.0
 10
-689.9758728787606
 20
91.07671352913773
 30
0.0
 10
-691.1844606249033
 20
99.69515503391165
 30
0.0
 10
-692.3856752767161
 20
108.2608559848231
 30
0.0
 10
-693.2783841390872
 20
116.8700193854712
 30
0.0
 10
-693.8625872120417
 20
125.4998203941522
 30
0.0
 10
-694.1514078979314
 20
129.7663461741932
 30
0.0
 10
-694.3648395761478
 20
134.0379078095768
 30
0.0
 10
-694.5060219854394
 20
138.3118683464579
 30
0.0
 10
-694.6485096793809
 20
142.625798815808
 30
0.0
 10
-694.7173722638299
 20
146.9421634646339
 30
0.0
 10
-694.7042488614538
 20
151.25845755753
 30
0.0
  0
ENDBLK
  5
57
330
54
100
AcDbEntity
  8
0
100
AcDbBlockEnd
  0
BLOCK
  5
5B
330
59
100
AcDbEntity
  8
0
100
AcDbBlockBegin
  2
block 7
 70
     0
 10
0.0
 20
0.0
 30
0.0
  3
block 7
  1

  0
SPLINE
  5
5D
330
59
100
AcDbEntity
  8
0
 62
   250
370
    25
100
AcDbSpline
210
0.0
220
0.0
230
1.0
 70
     8
 71
     3
 72
   209
 73
   205
 74
     0
 42
0.0000000001
 43
0.0000000001
 12
1.0
 22
0.0
 32
0.0
 13
1.0
 23
0.0
 33
0.0
 40
0.0
 40
0.0
 40
0.0
 40
0.0
 40
1.0
 40
1.0
 40
1.0
 40
2.0
 40
2.0
 40
2.0
 40
3.0
 40
3.0
 40
3.0
 40
4.0
 40
4.0
 40
4.0
 40
5.0
 40
5.0
 40
5.0
 40
6.0
 40
6.0
 40
6.0
 40
7.0
 40
7.0
 40
7.0
 40
8.0
 40
8.0
 40
8.0
 40
9.0
 40
9.0
 40
9.0
 40
10.0
 40
10.0
 40
10.0
 40
11.0
 40
11.0
 40
11.0
 40
12.0
 40
12.0
 40
12.0
 40
13.0
 40
13.0
 40
13.0
 40
14.0
 40
14.0
 40
14.0
 40
15.0
 40
15.0
 40
15.0
 40
16.0
 40
16.0
 40
16.0
 40
17.0
 40
17.0
 40
17.0
 40
18.0
 40
18.0
 40
18.0
 40
19.0
 40
19.0
 40
19.0
 40
20.0
 40
20.0
 40
20.0
 40
21.0
 40
21.0
 40
21.0
 40
22.0
 40
22.0
 40
22.0
 40
23.0
 40
23.0
 40
23.0
 40
24.0
 40
24.0
 40
24.0
 40
25.0
 40
25.0
 40
25.0
 40
26.0
 40
26.0
 40
26.0
 40
27.0
 40
27.0
 40
27.0
 40
28.0
 40
28.0
 40
28.0
 40
29.0
 40
29.0
 40
29.0
 40
30.0
 40
30.0
 40
30.0
 40
31.0
 40
31.0
 40
31.0
 40
32.0
 40
32.0
 40
32.0
 40
33.0
 40
33.0
 40
33.0
 40
34.0
 40
34.0
 40
34.0
 40
35.0
 40
35.0
 40
35.0
 40
36.0
 40
36.0
 40
36.0
 40
37.0
 40
37.0
 40
37.0
 40
38.0
 40
38.0
 40
38.0
 40
39.0
 40
39.0
 40
39.0
 40
40.0
 40
40.0
 40
40.0
 40
41.0
 40
41.0
 40
41.0
 40
42.0
 40
42.0
 40
42.0
 40
43.0
 40
43.0
 40
43.0
 40
44.0
 40
44.0
 40
44.0
 40
45.0
 40
45.0
 40
45.0
 40
46.0
 40
46.0
 40
46.0
 40
47.0
 40
47.0
 40
47.0
 40
48.0
 40
48.0
 40
48.0
 40
49.0
 40
49.0
 40
49.0
 40
50.0
 40
50.0
 40
50.0
 40
51.0
 40
51.0
 40
51.0
 40
52.0
 40
52.0
 40
52.0
 40
53.0
 40
53.0
 40
53.0
 40
54.0
 40
54.0
 40
54.0
 40
55.0
 40
55.0
 40
55.0
 40
56.0
 40
56.0
 40
56.0
 40
57.0
 40
57.0
 40
57.0
 40
58.0
 40
58.0
 40
58.0
 40
59.0
 40
59.0
 40
59.0
 40
60.0
 40
60.0
 40
60.0
 40
61.0
 40
61.0
 40
61.0
 40
62.0
 40
62.0
 40
62.0
 40
63.0
 40
63.0
 40
63.0
 40
64.0
 40
64.0
 40
64.0
 40
65.0
 40
65.0
 40
65.0
 40
66.0
 40
66.0
 40
66.0
 40
67.0
 40
67.0
 40
67.0
 40
68.0
 40
68.0
 40
68.0
 40
68.0
 10
-694.7042488614538
 20
151.2588808930894
 30
0.0
 10
-694.6890793372279
 20
155.7582323377741
 30
0.0
 10
-694.5849387894353
 20
160.2571251689274
 30
0.0
 10
-694.400999488576
 20
164.7527371494871
 30
0.0
 10
-694.2169190758565
 20
169.2512419230656
 30
0.0
 10
-693.9529340761636
 20
173.7465011239886
 30
0.0
 10
-693.6050580796424
 20
178.2352691796596
 30
0.0
 10
-692.9370698437546
 20
186.8548750749477
 30
0.0
 10
-691.9597997032484
 20
195.4506330670111
 30
0.0
 10
-690.675540725727
 20
204.0002474830176
 30
0.0
 10
-689.3982667849596
 20
212.5034713772392
 30
0.0
 10
-687.8172848577648
 20
220.9610455868924
 30
0.0
 10
-685.9348174558597
 20
229.3510977747053
 30
0.0
 10
-684.049915874486
 20
237.7520155752306
 30
0.0
 10
-681.8626821472576
 20
246.0853055200278
 30
0.0
 10
-679.3811949278025
 20
254.329624441276
 30
0.0
 10
-674.3699249570539
 20
270.9784947932738
 30
0.0
 10
-668.1584281174836
 20
287.2647076821073
 30
0.0
 10
-660.8510213466831
 20
303.0413303904701
 30
0.0
 10
-653.3424243509336
 20
319.2521895496023
 30
0.0
 10
-644.6767807134967
 20
334.9250597677793
 30
0.0
 10
-634.9948495080847
 20
349.9396431899728
 30
0.0
 10
-630.1971170494407
 20
357.3799067707201
 30
0.0
 10
-625.1498635560955
 20
364.6585267234355
 30
0.0
 10
-619.8664593761343
 20
371.7621679779705
 30
0.0
 10
-614.5792451761309
 20
378.8709598151562
 30
0.0
 10
-609.055527509883
 20
385.8045260084259
 30
0.0
 10
-603.2906849641935
 20
392.5318219500266
 30
0.0
 10
-597.7480935875468
 20
398.9997895830938
 30
0.0
 10
-591.9825454825848
 20
405.2770445463378
 30
0.0
 10
-585.9967923304409
 20
411.3371636452038
 30
0.0
 10
-579.8458677539286
 20
417.5644650123548
 30
0.0
 10
-573.4624261210246
 20
423.5624243398335
 30
0.0
 10
-566.8588147189039
 20
429.3074053921588
 30
0.0
 10
-560.4627082971539
 20
434.871869106066
 30
0.0
 10
-553.8600846780115
 20
440.1990179605732
 30
0.0
 10
-547.0708053548152
 20
445.2763635566541
 30
0.0
 10
-540.2995530708854
 20
450.3402329707405
 30
0.0
 10
-533.3426328658935
 20
455.1556749669731
 30
0.0
 10
-526.2275615512198
 20
459.723747884241
 30
0.0
 10
-518.7353688084476
 20
464.5340040198451
 30
0.0
 10
-511.0677740319166
 20
469.0699387125235
 30
0.0
 10
-503.2647824320806
 20
473.3580457126995
 30
0.0
 10
-499.2590402504877
 20
475.5593553473052
 30
0.0
 10
-495.2175967699855
 20
477.6953654717621
 30
0.0
 10
-491.1422511667189
 20
479.7649119132678
 30
0.0
 10
-487.1850867406459
 20
481.7744152611758
 30
0.0
 10
-483.1959604797876
 20
483.7212649461874
 30
0.0
 10
-479.172755706341
 20
485.5950892470774
 30
0.0
 10
-473.7496860695019
 20
488.1208855884983
 30
0.0
 10
-468.2646683290381
 20
490.5140015097824
 30
0.0
 10
-462.7200661084951
 20
492.7603963815367
 30
0.0
 10
-457.3306163707268
 20
494.9439259225987
 30
0.0
 10
-451.8848630034477
 20
496.9888130677454
 30
0.0
 10
-446.3887679825066
 20
498.8881433361333
 30
0.0
 10
-440.7785840280958
 20
500.8268790895772
 30
0.0
 10
-435.1159770201716
 20
502.61391960064
 30
0.0
 10
-429.4094842258411
 20
504.2473598593201
 30
0.0
 10
-423.6068942593676
 20
505.9083169294061
 30
0.0
 10
-417.7589015540683
 20
507.4104173305578
 30
0.0
 10
-411.8770772819344
 20
508.764844177159
 30
0.0
 10
-408.9827320574808
 20
509.4313154606202
 30
0.0
 10
-406.0801670675527
 20
510.0620501672201
 30
0.0
 10
-403.1706523188608
 20
510.658212469742
 30
0.0
 10
-393.6361477222577
 20
512.6119060796352
 30
0.0
 10
-384.0266421756023
 20
514.1945813490619
 30
0.0
 10
-374.3797067098212
 20
515.4860370311013
 30
0.0
 10
-369.0983839296866
 20
516.193042694445
 30
0.0
 10
-363.8058427572278
 20
516.812770676472
 30
0.0
 10
-358.5059990463437
 20
517.3621191216359
 30
0.0
 10
-349.3927133320475
 20
518.3066865901332
 30
0.0
 10
-340.257837504184
 20
519.0431140749043
 30
0.0
 10
-331.114883022719
 20
519.6395938790974
 30
0.0
 10
-324.7836527755645
 20
520.052628273914
 30
0.0
 10
-318.4485419524382
 20
520.398528704478
 30
0.0
 10
-312.1106794481656
 20
520.692711640788
 30
0.0
 10
-310.0301968380172
 20
520.7892674264617
 30
0.0
 10
-307.9493967261972
 20
520.880284571884
 30
0.0
 10
-305.868420224566
 20
520.9665391922574
 30
0.0
 10
-295.7618128964414
 20
521.3854297289836
 30
0.0
 10
-285.6510074906739
 20
521.6922068982101
 30
0.0
 10
-275.5387556884227
 20
521.9353426215669
 30
0.0
 10
-263.5378275626951
 20
522.2238810837371
 30
0.0
 10
-251.534923871036
 20
522.4227429630997
 30
0.0
 10
-239.5316673997279
 20
522.5909482923215
 30
0.0
 10
-229.3423332475658
 20
522.7337534879276
 30
0.0
 10
-219.1527521496626
 20
522.8544041225605
 30
0.0
 10
-208.9630652178643
 20
522.9703627880612
 30
0.0
 10
-198.9327994024135
 20
523.0845222774417
 30
0.0
 10
-188.9024630310329
 20
523.1940603536201
 30
0.0
 10
-178.8720208257705
 20
523.2892402987142
 30
0.0
 10
-165.787106720422
 20
523.4133834517177
 30
0.0
 10
-152.7020162252746
 20
523.5130436981614
 30
0.0
 10
-139.6168198962197
 20
523.5961233018287
 30
0.0
 10
-133.2418802524837
 20
523.6366224037458
 30
0.0
 10
-126.8669053307824
 20
523.6731703737682
 30
0.0
 10
-120.4919304090815
 20
523.7055202661536
 30
0.0
 10
-98.66058613025073
 20
523.8163283490165
 30
0.0
 10
-76.8290301836303
 20
523.87795895097
 30
0.0
 10
-54.99743895904529
 20
523.9089682807473
 30
0.0
 10
-30.41145019059071
 20
523.9438934644548
 30
0.0
 10
-5.825461422136455
 20
523.9399423325663
 30
0.0
 10
18.76052734633096
 20
523.9105557890971
 30
0.0
 10
47.87380770643577
 20
523.8757717172556
 30
0.0
 10
76.98705278857601
 20
523.8052863464852
 30
0.0
 10
106.1001920368337
 20
523.712399469013
 30
0.0
 10
134.91583222021
 20
523.6204650965356
 30
0.0
 10
163.7314018476821
 20
523.5065878308675
 30
0.0
 10
192.5467950853169
 20
523.358596774646
 30
0.0
 10
217.4338107149763
 20
523.2307847134603
 30
0.0
 10
242.320755788706
 20
523.0775372407003
 30
0.0
 10
267.2073480828117
 20
522.8836142762049
 30
0.0
 10
288.7313507450165
 20
522.7159028384727
 30
0.0
 10
310.2551064614669
 20
522.5177817963407
 30
0.0
 10
331.7783330084703
 20
522.2741874594662
 30
0.0
 10
350.9236837143506
 20
522.0574749306612
 30
0.0
 10
370.0686463626292
 20
521.8048141571993
 30
0.0
 10
389.2129034516485
 20
521.5058334178685
 30
0.0
 10
399.160618832873
 20
521.3504692673112
 30
0.0
 10
409.1081578242994
 20
521.1826167177259
 30
0.0
 10
419.0555557038534
 20
521.0068971823217
 30
0.0
 10
425.0401446832064
 20
520.9012044041501
 30
0.0
 10
431.0247336625723
 20
520.7926541109441
 30
0.0
 10
437.0092168080313
 20
520.6806818552974
 30
0.0
 10
441.5154827335281
 20
520.5963322449385
 30
0.0
 10
446.0216781030939
 20
520.5100776245717
 30
0.0
 10
450.527802916744
 20
520.4196954824853
 30
0.0
 10
462.8301459612508
 20
520.1729261289171
 30
0.0
 10
475.1319245583592
 20
519.8954649472175
 30
0.0
 10
487.4312336980275
 20
519.5268807862199
 30
0.0
 10
497.6097375154409
 20
519.2218675151614
 30
0.0
 10
507.7865127126507
 20
518.8544122489892
 30
0.0
 10
517.9582431611123
 20
518.3736441645615
 30
0.0
 10
526.5255671147211
 20
517.9687237013119
 30
0.0
 10
535.0893279940288
 20
517.4833694816531
 30
0.0
 10
543.644657440111
 20
516.8750010038158
 30
0.0
 10
551.5507312488322
 20
516.3128113799811
 30
0.0
 10
559.4496083530214
 20
515.6455287033722
 30
0.0
 10
567.3335628787394
 20
514.8314544212841
 30
0.0
 10
574.1038979356082
 20
514.1324215776542
 30
0.0
 10
580.8631909899644
 20
513.3251206645309
 30
0.0
 10
587.6031164424382
 20
512.3748028880125
 30
0.0
 10
599.8970633316862
 20
510.641314325301
 30
0.0
 10
612.1265221039389
 20
508.431890759128
 30
0.0
 10
624.2119056738942
 20
505.5889455272698
 30
0.0
 10
630.0948235628946
 20
504.2050615812697
 30
0.0
 10
635.9435923833777
 20
502.6710699012569
 30
0.0
 10
641.7458648481921
 20
500.9801618402956
 30
0.0
 10
647.4430089822225
 20
499.3198397735518
 30
0.0
 10
653.0953148248592
 20
497.5082457999991
 30
0.0
 10
658.6948448343338
 20
495.544497970547
 30
0.0
 10
664.1727364262092
 20
493.6233659208156
 30
0.0
 10
669.6001099745603
 20
491.5566769943253
 30
0.0
 10
674.9701568324953
 20
489.351345671914
 30
0.0
 10
680.5398769629415
 20
487.0640283626827
 30
0.0
 10
686.0478606575516
 20
484.6275911024242
 30
0.0
 10
691.4933318011118
 20
482.0588967575756
 30
0.0
 10
699.7345815395424
 20
478.1713004752048
 30
0.0
 10
707.8325321908776
 20
473.9807370436619
 30
0.0
 10
715.791911002208
 20
469.544180373734
 30
0.0
 10
720.004805384548
 20
467.1959380218154
 30
0.0
 10
724.1788587292571
 20
464.77876252953
 30
0.0
 10
728.30546321326
 20
462.2821057858238
 30
0.0
 10
731.7988635332346
 20
460.168603001982
 30
0.0
 10
735.2582206185858
 20
457.9981263073423
 30
0.0
 10
738.6805711203909
 20
455.7712048713761
 30
0.0
 10
742.7729207019812
 20
453.1082830864349
 30
0.0
 10
746.8123180606086
 20
450.3646100434123
 30
0.0
 10
750.7934362237953
 20
447.5383512881993
 30
0.0
 10
753.7785516479227
 20
445.4191687522602
 30
0.0
 10
756.7308938441129
 20
443.2535604165695
 30
0.0
 10
759.648063910866
 20
441.0416321150051
 30
0.0
 10
766.2217596000646
 20
436.0572086743683
 30
0.0
 10
772.6168782388354
 20
430.8375517741705
 30
0.0
 10
778.8152163980764
 20
425.3937034169319
 30
0.0
 10
785.360619160698
 20
419.6450534563979
 30
0.0
 10
791.6866282692665
 20
413.646353291702
 30
0.0
 10
797.7812844942579
 20
407.4216977718098
 30
0.0
 10
803.6072284724668
 20
401.4714342507858
 30
0.0
 10
809.2218221722837
 20
395.3146888103284
 30
0.0
 10
814.6218200210951
 20
388.9755562993777
 30
0.0
 10
820.4499865109884
 20
382.133748088767
 30
0.0
 10
826.0282086306024
 20
375.0794607049341
 30
0.0
 10
831.3623072438867
 20
367.8456084877089
 30
0.0
 10
836.760893974165
 20
360.5243021993494
 30
0.0
 10
841.9093952223044
 20
353.019021332159
 30
0.0
 10
846.7932764674198
 20
345.3447590205636
 30
0.0
 10
856.3811213445982
 20
330.278951995587
 30
0.0
 10
864.9491508574788
 20
314.5618079334284
 30
0.0
 10
872.3591106677148
 20
298.3140127466669
 30
0.0
 10
879.6468676129282
 20
282.3341536914931
 30
0.0
 10
885.814408110175
 20
265.8410002696955
 30
0.0
 10
890.7517707477255
 20
248.9862830015927
 30
0.0
 10
895.6753044236264
 20
232.1787676484494
 30
0.0
 10
899.3755394426787
 20
215.0117345708763
 30
0.0
 10
901.8057325034331
 20
197.6670769478839
 30
0.0
 10
902.9917776310076
 20
189.2018121422165
 30
0.0
 10
903.87534950088
 20
180.6942843364766
 30
0.0
 10
904.4586353467868
 20
172.1662953119956
 30
0.0
 10
904.7568752488803
 20
167.8062565445528
 30
0.0
 10
904.9766216825304
 20
163.4408908046488
 30
0.0
 10
905.1208732746402
 20
159.0730556073036
 30
0.0
 10
905.2631845787698
 20
154.7654398933996
 30
0.0
 10
905.3320824411711
 20
150.4553900000083
 30
0.0
 10
905.3188884828905
 20
146.1454106625468
 30
0.0
  0
ENDBLK
  5
5C
330
59
100
AcDbEntity
  8
0
100
AcDbBlockEnd
  0
BLOCK
  5
60
330
5E
100
AcDbEntity
  8
0
100
AcDbBlockBegin
  2
block 8
 70
     0
 10
0.0
 20
0.0
 30
0.0
  3
block 8
  1

  0
SPLINE
  5
62
330
5E
100
AcDbEntity
  8
0
 62
   250
370
    25
100
AcDbSpline
210
0.0
220
0.0
230
1.0
 70
     8
 71
     3
 72
     8
 73
     4
 74
     0
 42
0.0000000001
 43
0.0000000001
 12
1.0
 22
0.0
 32
0.0
 13
1.0
 23
0.0
 33
0.0
 40
0.0
 40
0.0
 40
0.0
 40
0.0
 40
1.0
 40
1.0
 40
1.0
 40
1.0
 10
-320.7268986589772
 20
520.2699758060612
 30
0.0
 10
-319.2318538504904
 20
520.3510798437842
 30
0.0
 10
-317.7366679301572
 20
520.4290441427722
 30
0.0
 10
-316.2413056199992
 20
520.5038687030196
 30
0.0
  0
ENDBLK
  5
61
330
5E
100
AcDbEntity
  8
0
100
AcDbBlockEnd
  0
BLOCK
  5
65
330
63
100
AcDbEntity
  8
0
100
AcDbBlockBegin
  2
block 9
 70
     0
 10
0.0
 20
0.0
 30
0.0
  3
block 9
  1

  0
SPLINE
  5
67
330
63
100
AcDbEntity
  8
0
 62
   250
370
    25
100
AcDbSpline
210
0.0
220
0.0
230
1.0
 70
     8
 71
     3
 72
     8
 73
     4
 74
     0
 42
0.0000000001
 43
0.0000000001
 12
1.0
 22
0.0
 32
0.0
 13
1.0
 23
0.0
 33
0.0
 40
0.0
 40
0.0
 40
0.0
 40
0.0
 40
1.0
 40
1.0
 40
1.0
 40
1.0
 10
-465.7414472789455
 20
491.5306065794219
 30
0.0
 10
-464.9800429961319
 20
491.8476849139426
 30
0.0
 10
-464.2175450964441
 20
492.1620115673228
 30
0.0
 10
-463.4539183019316
 20
492.4735512615987
 30
0.0
  0
ENDBLK
  5
66
330
63
100
AcDbEntity
  8
0
100
AcDbBlockEnd
  0
BLOCK
  5
6A
330
68
100
AcDbEntity
  8
0
100
AcDbBlockBegin
  2
block 10
 70
     0
 10
0.0
 20
0.0
 30
0.0
  3
block 10
  1

  0
SPLINE
  5
6C
330
68
100
AcDbEntity
  8
0
 62
   250
370
    25
100
AcDbSpline
210
0.0
220
0.0
230
1.0
 70
     8
 71
     3
 72
     8
 73
     4
 74
     0
 42
0.0000000001
 43
0.0000000001
 12
1.0
 22
0.0
 32
0.0
 13
1.0
 23
0.0
 33
0.0
 40
0.0
 40
0.0
 40
0.0
 40
0.0
 40
1.0
 40
1.0
 40
1.0
 40
1.0
 10
-509.2469725099237
 20
470.0175753638255
 30
0.0
 10
-507.6901207096722
 20
470.9067564298603
 30
0.0
 10
-506.1276597132324
 20
471.7857421645094
 30
0.0
 10
-504.5594131308198
 20
472.6546736795861
 30
0.0
  0
ENDBLK
  5
6B
330
68
100
AcDbEntity
  8
0
100
AcDbBlockEnd
  0
BLOCK
  5
6F
330
6D
100
AcDbEntity
  8
0
100
AcDbBlockBegin
  2
block 11
 70
     0
 10
0.0
 20
0.0
 30
0.0
  3
block 11
  1

  0
SPLINE
  5
71
330
6D
100
AcDbEntity
  8
0
 62
   250
370
    25
100
AcDbSpline
210
0.0
220
0.0
230
1.0
 70
     8
 71
     3
 72
     8
 73
     4
 74
     0
 42
0.0000000001
 43
0.0000000001
 12
1.0
 22
0.0
 32
0.0
 13
1.0
 23
0.0
 33
0.0
 40
0.0
 40
0.0
 40
0.0
 40
0.0
 40
1.0
 40
1.0
 40
1.0
 40
1.0
 10
-383.2006439418925
 20
-214.0644321218808
 30
0.0
 10
-385.7082721322
 20
-213.6769742505037
 30
0.0
 10
-388.2120903024531
 20
-213.2678204316534
 30
0.0
 10
-390.7126276221182
 20
-212.8367942755406
 30
0.0
  0
ENDBLK
  5
70
330
6D
100
AcDbEntity
  8
0
100
AcDbBlockEnd
  0
BLOCK
  5
74
330
72
100
AcDbEntity
  8
0
100
AcDbBlockBegin
  2
block 12
 70
     0
 10
0.0
 20
0.0
 30
0.0
  3
block 12
  1

  0
SPLINE
  5
76
330
72
100
AcDbEntity
  8
0
 62
   250
370
    25
100
AcDbSpline
210
0.0
220
0.0
230
1.0
 70
     8
 71
     3
 72
     8
 73
     4
 74
     0
 42
0.0000000001
 43
0.0000000001
 12
1.0
 22
0.0
 32
0.0
 13
1.0
 23
0.0
 33
0.0
 40
0.0
 40
0.0
 40
0.0
 40
0.0
 40
1.0
 40
1.0
 40
1.0
 40
1.0
 10
-370.0302866093506
 20
-215.9125035095322
 30
0.0
 10
-373.5790733317622
 20
-215.4633797582372
 30
0.0
 10
-377.1219333563405
 20
-214.9759088607684
 30
0.0
 10
-380.6601719677229
 20
-214.4499144273264
 30
0.0
  0
ENDBLK
  5
75
330
72
100
AcDbEntity
  8
0
100
AcDbBlockEnd
  0
BLOCK
  5
79
330
77
100
AcDbEntity
  8
0
100
AcDbBlockBegin
  2
block 13
 70
     0
 10
0.0
 20
0.0
 30
0.0
  3
block 13
  1

  0
SPLINE
  5
7B
330
77
100
AcDbEntity
  8
0
 62
   250
370
    25
100
AcDbSpline
210
0.0
220
0.0
230
1.0
 70
     8
 71
     3
 72
     8
 73
     4
 74
     0
 42
0.0000000001
 43
0.0000000001
 12
1.0
 22
0.0
 32
0.0
 13
1.0
 23
0.0
 33
0.0
 40
0.0
 40
0.0
 40
0.0
 40
0.0
 40
1.0
 40
1.0
 40
1.0
 40
1.0
 10
-332.7140683789984
 20
-219.5048937946569
 30
0.0
 10
-333.8442684905804
 20
-219.4249186517532
 30
0.0
 10
-334.9742922123764
 20
-219.3427562751274
 30
0.0
 10
-336.1041748222996
 20
-219.2583713868164
 30
0.0
  0
ENDBLK
  5
7A
330
77
100
AcDbEntity
  8
0
100
AcDbBlockEnd
  0
BLOCK
  5
7E
330
7C
100
AcDbEntity
  8
0
100
AcDbBlockBegin
  2
block 14
 70
     0
 10
0.0
 20
0.0
 30
0.0
  3
block 14
  1

  0
SPLINE
  5
80
330
7C
100
AcDbEntity
  8
0
 62
   250
370
    25
100
AcDbSpline
210
0.0
220
0.0
230
1.0
 70
     8
 71
     3
 72
     8
 73
     4
 74
     0
 42
0.0000000001
 43
0.0000000001
 12
1.0
 22
0.0
 32
0.0
 13
1.0
 23
0.0
 33
0.0
 40
0.0
 40
0.0
 40
0.0
 40
0.0
 40
1.0
 40
1.0
 40
1.0
 40
1.0
 10
-328.9601402997358
 20
-219.7627404287277
 30
0.0
 10
-329.9937493476984
 20
-219.6938778442778
 30
0.0
 10
-331.0272525617788
 20
-219.6232866396256
 30
0.0
 10
-332.0606499419649
 20
-219.5508962588543
 30
0.0
  0
ENDBLK
  5
7F
330
7C
100
AcDbEntity
  8
0
100
AcDbBlockEnd
  0
BLOCK
  5
83
330
81
100
AcDbEntity
  8
0
100
AcDbBlockBegin
  2
block 15
 70
     0
 10
0.0
 20
0.0
 30
0.0
  3
block 15
  1

  0
SPLINE
  5
85
330
81
100
AcDbEntity
  8
0
 62
   250
370
    25
100
AcDbSpline
210
0.0
220
0.0
230
1.0
 70
     8
 71
     3
 72
     8
 73
     4
 74
     0
 42
0.0000000001
 43
0.0000000001
 12
1.0
 22
0.0
 32
0.0
 13
1.0
 23
0.0
 33
0.0
 40
0.0
 40
0.0
 40
0.0
 40
0.0
 40
1.0
 40
1.0
 40
1.0
 40
1.0
 10
-317.6946165978549
 20
-220.4497787648125
 30
0.0
 10
-320.1990697714501
 20
-220.3105366434998
 30
0.0
 10
-322.7029584976395
 20
-220.1624750313495
 30
0.0
 10
-325.2063886102977
 20
-220.0055586504063
 30
0.0
  0
ENDBLK
  5
84
330
81
100
AcDbEntity
  8
0
100
AcDbBlockEnd
  0
BLOCK
  5
88
330
86
100
AcDbEntity
  8
0
100
AcDbBlockBegin
  2
block 16
 70
     0
 10
0.0
 20
0.0
 30
0.0
  3
block 16
  1

  0
SPLINE
  5
8A
330
86
100
AcDbEntity
  8
0
 62
   250
370
    25
100
AcDbSpline
210
0.0
220
0.0
230
1.0
 70
     8
 71
     3
 72
     8
 73
     4
 74
     0
 42
0.0000000001
 43
0.0000000001
 12
1.0
 22
0.0
 32
0.0
 13
1.0
 23
0.0
 33
0.0
 40
0.0
 40
0.0
 40
0.0
 40
0.0
 40
1.0
 40
1.0
 40
1.0
 40
1.0
 10
-295.8506780861015
 20
-221.4783783419839
 30
0.0
 10
-297.4416789548717
 20
-221.4154777333453
 30
0.0
 10
-299.032538711795
 20
-221.350319335056
 30
0.0
 10
-300.6233631907596
 20
-221.2826562013625
 30
0.0
  0
ENDBLK
  5
89
330
86
100
AcDbEntity
  8
0
100
AcDbBlockEnd
  0
BLOCK
  5
8D
330
8B
100
AcDbEntity
  8
0
100
AcDbBlockBegin
  2
block 17
 70
     0
 10
0.0
 20
0.0
 30
0.0
  3
block 17
  1

  0
SPLINE
  5
8F
330
8B
100
AcDbEntity
  8
0
 62
   250
370
    25
100
AcDbSpline
210
0.0
220
0.0
230
1.0
 70
     8
 71
     3
 72
     8
 73
     4
 74
     0
 42
0.0000000001
 43
0.0000000001
 12
1.0
 22
0.0
 32
0.0
 13
1.0
 23
0.0
 33
0.0
 40
0.0
 40
0.0
 40
0.0
 40
0.0
 40
1.0
 40
1.0
 40
1.0
 40
1.0
 10
-233.6955986460435
 20
-223.1498835231058
 30
0.0
 10
-237.4007373020103
 20
-223.0785867591942
 30
0.0
 10
-241.1058406799866
 20
-223.0042913683942
 30
0.0
 10
-244.8108735020587
 20
-222.9270326286726
 30
0.0
  0
ENDBLK
  5
8E
330
8B
100
AcDbEntity
  8
0
100
AcDbBlockEnd
  0
BLOCK
  5
92
330
90
100
AcDbEntity
  8
0
100
AcDbBlockBegin
  2
block 18
 70
     0
 10
0.0
 20
0.0
 30
0.0
  3
block 18
  1

  0
SPLINE
  5
94
330
90
100
AcDbEntity
  8
0
 62
   250
370
    25
100
AcDbSpline
210
0.0
220
0.0
230
1.0
 70
     8
 71
     3
 72
     8
 73
     4
 74
     0
 42
0.0000000001
 43
0.0000000001
 12
1.0
 22
0.0
 32
0.0
 13
1.0
 23
0.0
 33
0.0
 40
0.0
 40
0.0
 40
0.0
 40
0.0
 40
1.0
 40
1.0
 40
1.0
 40
1.0
 10
-117.0236832769737
 20
-224.9281398213071
 30
0.0
 10
-131.1810474679226
 20
-224.7729167825903
 30
0.0
 10
-145.3381294351522
 20
-224.5955391829189
 30
0.0
 10
-159.4949644566532
 20
-224.3960070222428
 30
0.0
  0
ENDBLK
  5
93
330
90
100
AcDbEntity
  8
0
100
AcDbBlockEnd
  0
BLOCK
  5
97
330
95
100
AcDbEntity
  8
0
100
AcDbBlockBegin
  2
block 19
 70
     0
 10
0.0
 20
0.0
 30
0.0
  3
block 19
  1

  0
SPLINE
  5
99
330
95
100
AcDbEntity
  8
0
 62
   250
370
    25
100
AcDbSpline
210
0.0
220
0.0
230
1.0
 70
     8
 71
     3
 72
     8
 73
     4
 74
     0
 42
0.0000000001
 43
0.0000000001
 12
1.0
 22
0.0
 32
0.0
 13
1.0
 23
0.0
 33
0.0
 40
0.0
 40
0.0
 40
0.0
 40
0.0
 40
1.0
 40
1.0
 40
1.0
 40
1.0
 10
164.3925461586751
 20
-226.4745140664597
 30
0.0
 10
156.4368009775749
 20
-226.4592387083267
 30
0.0
 10
148.4810557964618
 20
-226.4417408385085
 30
0.0
 10
140.5253106153488
 20
-226.4222321247805
 30
0.0
  0
ENDBLK
  5
98
330
95
100
AcDbEntity
  8
0
100
AcDbBlockEnd
  0
BLOCK
  5
9C
330
9A
100
AcDbEntity
  8
0
100
AcDbBlockBegin
  2
block 20
 70
     0
 10
0.0
 20
0.0
 30
0.0
  3
block 20
  1

  0
SPLINE
  5
9E
330
9A
100
AcDbEntity
  8
0
 62
   250
370
    25
100
AcDbSpline
210
0.0
220
0.0
230
1.0
 70
     8
 71
     3
 72
     8
 73
     4
 74
     0
 42
0.0000000001
 43
0.0000000001
 12
1.0
 22
0.0
 32
0.0
 13
1.0
 23
0.0
 33
0.0
 40
0.0
 40
0.0
 40
0.0
 40
0.0
 40
1.0
 40
1.0
 40
1.0
 40
1.0
 10
484.4815020711241
 20
-224.5826274483318
 30
0.0
 10
482.0870103092539
 20
-224.6384724642981
 30
0.0
 10
479.6924479914796
 20
-224.6910719076364
 30
0.0
 10
477.2978151177614
 20
-224.7403905003927
 30
0.0
  0
ENDBLK
  5
9D
330
9A
100
AcDbEntity
  8
0
100
AcDbBlockEnd
  0
BLOCK
  5
A1
330
9F
100
AcDbEntity
  8
0
100
AcDbBlockBegin
  2
block 21
 70
     0
 10
0.0
 20
0.0
 30
0.0
  3
block 21
  1

  0
SPLINE
  5
A3
330
9F
100
AcDbEntity
  8
0
 62
   250
370
    25
100
AcDbSpline
210
0.0
220
0.0
230
1.0
 70
     8
 71
     3
 72
     8
 73
     4
 74
     0
 42
0.0000000001
 43
0.0000000001
 12
1.0
 22
0.0
 32
0.0
 13
1.0
 23
0.0
 33
0.0
 40
0.0
 40
0.0
 40
0.0
 40
0.0
 40
1.0
 40
1.0
 40
1.0
 40
1.0
 10
518.4924220820391
 20
-223.4891869745289
 30
0.0
 10
517.0426741784893
 20
-223.5515231357549
 30
0.0
 10
515.592855719011
 20
-223.6114251175179
 30
0.0
 10
514.1428961476731
 20
-223.6690693096175
 30
0.0
  0
ENDBLK
  5
A2
330
9F
100
AcDbEntity
  8
0
100
AcDbBlockEnd
  0
BLOCK
  5
A6
330
A4
100
AcDbEntity
  8
0
100
AcDbBlockBegin
  2
block 22
 70
     0
 10
0.0
 20
0.0
 30
0.0
  3
block 22
  1

  0
SPLINE
  5
A8
330
A4
100
AcDbEntity
  8
0
 62
   250
370
    25
100
AcDbSpline
210
0.0
220
0.0
230
1.0
 70
     8
 71
     3
 72
     8
 73
     4
 74
     0
 42
0.0000000001
 43
0.0000000001
 12
1.0
 22
0.0
 32
0.0
 13
1.0
 23
0.0
 33
0.0
 40
0.0
 40
0.0
 40
0.0
 40
0.0
 40
1.0
 40
1.0
 40
1.0
 40
1.0
 10
551.653284288268
 20
-221.5408556150566
 30
0.0
 10
548.2180926078056
 20
-221.8060753434691
 30
0.0
 10
544.7815956427057
 20
-222.0499519040573
 30
0.0
 10
541.3434053353677
 20
-222.2724500188544
 30
0.0
  0
ENDBLK
  5
A7
330
A4
100
AcDbEntity
  8
0
100
AcDbBlockEnd
  0
BLOCK
  5
AB
330
A9
100
AcDbEntity
  8
0
100
AcDbBlockBegin
  2
block 23
 70
     0
 10
0.0
 20
0.0
 30
0.0
  3
block 23
  1

  0
SPLINE
  5
AD
330
A9
100
AcDbEntity
  8
0
 62
   250
370
    25
100
AcDbSpline
210
0.0
220
0.0
230
1.0
 70
     8
 71
     3
 72
     8
 73
     4
 74
     0
 42
0.0000000001
 43
0.0000000001
 12
1.0
 22
0.0
 32
0.0
 13
1.0
 23
0.0
 33
0.0
 40
0.0
 40
0.0
 40
0.0
 40
0.0
 40
1.0
 40
1.0
 40
1.0
 40
1.0
 10
578.6623399688889
 20
-218.899700333512
 30
0.0
 10
571.8113242098442
 20
-219.7231938318104
 30
0.0
 10
564.9512420142327
 20
-220.4284003190342
 30
0.0
 10
558.0759902943691
 20
-221.0159547984873
 30
0.0
  0
ENDBLK
  5
AC
330
A9
100
AcDbEntity
  8
0
100
AcDbBlockEnd
  0
BLOCK
  5
B0
330
AE
100
AcDbEntity
  8
0
100
AcDbBlockBegin
  2
block 24
 70
     0
 10
0.0
 20
0.0
 30
0.0
  3
block 24
  1

  0
SPLINE
  5
B2
330
AE
100
AcDbEntity
  8
0
 62
   250
370
    25
100
AcDbSpline
210
0.0
220
0.0
230
1.0
 70
     8
 71
     3
 72
     8
 73
     4
 74
     0
 42
0.0000000001
 43
0.0000000001
 12
1.0
 22
0.0
 32
0.0
 13
1.0
 23
0.0
 33
0.0
 40
0.0
 40
0.0
 40
0.0
 40
0.0
 40
1.0
 40
1.0
 40
1.0
 40
1.0
 10
615.8943144227766
 20
-212.8273045034078
 30
0.0
 10
608.7497860087309
 20
-214.3285229554693
 30
0.0
 10
601.5776349493891
 20
-215.6329609280125
 30
0.0
 10
594.3620214391942
 20
-216.7435112140332
 30
0.0
  0
ENDBLK
  5
B1
330
AE
100
AcDbEntity
  8
0
100
AcDbBlockEnd
  0
BLOCK
  5
B5
330
B3
100
AcDbEntity
  8
0
100
AcDbBlockBegin
  2
block 25
 70
     0
 10
0.0
 20
0.0
 30
0.0
  3
block 25
  1

  0
SPLINE
  5
B7
330
B3
100
AcDbEntity
  8
0
 62
   250
370
    25
100
AcDbSpline
210
0.0
220
0.0
230
1.0
 70
     8
 71
     3
 72
     8
 73
     4
 74
     0
 42
0.0000000001
 43
0.0000000001
 12
1.0
 22
0.0
 32
0.0
 13
1.0
 23
0.0
 33
0.0
 40
0.0
 40
0.0
 40
0.0
 40
0.0
 40
1.0
 40
1.0
 40
1.0
 40
1.0
 10
640.2566761816088
 20
-206.788704962172
 30
0.0
 10
636.6546197345391
 20
-207.8219612305043
 30
0.0
 10
633.0379229326928
 20
-208.7948921815204
 30
0.0
 10
629.4035871491676
 20
-209.7082386524454
 30
0.0
  0
ENDBLK
  5
B6
330
B3
100
AcDbEntity
  8
0
100
AcDbBlockEnd
  0
BLOCK
  5
BA
330
B8
100
AcDbEntity
  8
0
100
AcDbBlockBegin
  2
block 26
 70
     0
 10
0.0
 20
0.0
 30
0.0
  3
block 26
  1

  0
SPLINE
  5
BC
330
B8
100
AcDbEntity
  8
0
 62
   250
370
    25
100
AcDbSpline
210
0.0
220
0.0
230
1.0
 70
     8
 71
     3
 72
     8
 73
     4
 74
     0
 42
0.0000000001
 43
0.0000000001
 12
1.0
 22
0.0
 32
0.0
 13
1.0
 23
0.0
 33
0.0
 40
0.0
 40
0.0
 40
0.0
 40
0.0
 40
1.0
 40
1.0
 40
1.0
 40
1.0
 10
657.2294687930162
 20
-201.4175292094104
 30
0.0
 10
655.8242416792023
 20
-201.9041534357487
 30
0.0
 10
654.41591010462
 20
-202.3813231679171
 30
0.0
 10
653.0042624014789
 20
-202.8490031279516
 30
0.0
  0
ENDBLK
  5
BB
330
B8
100
AcDbEntity
  8
0
100
AcDbBlockEnd
  0
BLOCK
  5
BF
330
BD
100
AcDbEntity
  8
0
100
AcDbBlockBegin
  2
block 27
 70
     0
 10
0.0
 20
0.0
 30
0.0
  3
block 27
  1

  0
SPLINE
  5
C1
330
BD
100
AcDbEntity
  8
0
 62
   250
370
    25
100
AcDbSpline
210
0.0
220
0.0
230
1.0
 70
     8
 71
     3
 72
     8
 73
     4
 74
     0
 42
0.0000000001
 43
0.0000000001
 12
1.0
 22
0.0
 32
0.0
 13
1.0
 23
0.0
 33
0.0
 40
0.0
 40
0.0
 40
0.0
 40
0.0
 40
1.0
 40
1.0
 40
1.0
 40
1.0
 10
667.7123156001934
 20
-197.5888118478656
 30
0.0
 10
664.9334351497503
 20
-198.6569580219415
 30
0.0
 10
662.1415018528745
 20
-199.6873214972806
 30
0.0
 10
659.3349282012198
 20
-200.6804314433328
 30
0.0
  0
ENDBLK
  5
C0
330
BD
100
AcDbEntity
  8
0
100
AcDbBlockEnd
  0
BLOCK
  5
C4
330
C2
100
AcDbEntity
  8
0
100
AcDbBlockBegin
  2
block 28
 70
     0
 10
0.0
 20
0.0
 30
0.0
  3
block 28
  1

  0
SPLINE
  5
C6
330
C2
100
AcDbEntity
  8
0
 62
   250
370
    25
100
AcDbSpline
210
0.0
220
0.0
230
1.0
 70
     8
 71
     3
 72
     8
 73
     4
 74
     0
 42
0.0000000001
 43
0.0000000001
 12
1.0
 22
0.0
 32
0.0
 13
1.0
 23
0.0
 33
0.0
 40
0.0
 40
0.0
 40
0.0
 40
0.0
 40
1.0
 40
1.0
 40
1.0
 40
1.0
 10
682.3076909839957
 20
-191.5839380395826
 30
0.0
 10
680.9210906348267
 20
-192.1917420700142
 30
0.0
 10
679.5306802656156
 20
-192.7905502197935
 30
0.0
 10
678.1363540424675
 20
-193.3803977668627
 30
0.0
  0
ENDBLK
  5
C5
330
C2
100
AcDbEntity
  8
0
100
AcDbBlockEnd
  0
BLOCK
  5
C9
330
C7
100
AcDbEntity
  8
0
100
AcDbBlockBegin
  2
block 29
 70
     0
 10
0.0
 20
0.0
 30
0.0
  3
block 29
  1

  0
SPLINE
  5
CB
330
C7
100
AcDbEntity
  8
0
 62
   250
370
    25
100
AcDbSpline
210
0.0
220
0.0
230
1.0
 70
     8
 71
     3
 72
     8
 73
     4
 74
     0
 42
0.0000000001
 43
0.0000000001
 12
1.0
 22
0.0
 32
0.0
 13
1.0
 23
0.0
 33
0.0
 40
0.0
 40
0.0
 40
0.0
 40
0.0
 40
1.0
 40
1.0
 40
1.0
 40
1.0
 10
727.454523459478
 20
-168.1657571664596
 30
0.0
 10
723.992908584476
 20
-170.2456399986875
 30
0.0
 10
720.5018013321164
 20
-172.2718650500304
 30
0.0
 10
716.9787322449718
 20
-174.2458434389931
 30
0.0
  0
ENDBLK
  5
CA
330
C7
100
AcDbEntity
  8
0
100
AcDbBlockEnd
  0
BLOCK
  5
CE
330
CC
100
AcDbEntity
  8
0
100
AcDbBlockBegin
  2
block 30
 70
     0
 10
0.0
 20
0.0
 30
0.0
  3
block 30
  1

  0
SPLINE
  5
D0
330
CC
100
AcDbEntity
  8
0
 62
   250
370
    25
100
AcDbSpline
210
0.0
220
0.0
230
1.0
 70
     8
 71
     3
 72
     8
 73
     4
 74
     0
 42
0.0000000001
 43
0.0000000001
 12
1.0
 22
0.0
 32
0.0
 13
1.0
 23
0.0
 33
0.0
 40
0.0
 40
0.0
 40
0.0
 40
0.0
 40
1.0
 40
1.0
 40
1.0
 40
1.0
 10
749.0098176751596
 20
-154.1673911099205
 30
0.0
 10
748.3781304635595
 20
-154.6102706505336
 30
0.0
 10
747.7450674113792
 20
-155.0511040693227
 30
0.0
 10
747.1105226847374
 20
-155.489891366289
 30
0.0
  0
ENDBLK
  5
CF
330
CC
100
AcDbEntity
  8
0
100
AcDbBlockEnd
  0
BLOCK
  5
D3
330
D1
100
AcDbEntity
  8
0
100
AcDbBlockBegin
  2
block 31
 70
     0
 10
0.0
 20
0.0
 30
0.0
  3
block 31
  1

  0
SPLINE
  5
D5
330
D1
100
AcDbEntity
  8
0
 62
   250
370
    25
100
AcDbSpline
210
0.0
220
0.0
230
1.0
 70
     8
 71
     3
 72
     8
 73
     4
 74
     0
 42
0.0000000001
 43
0.0000000001
 12
1.0
 22
0.0
 32
0.0
 13
1.0
 23
0.0
 33
0.0
 40
0.0
 40
0.0
 40
0.0
 40
0.0
 40
1.0
 40
1.0
 40
1.0
 40
1.0
 10
795.9853539364261
 20
-114.580931104639
 30
0.0
 10
794.905213254812
 20
-115.6688681886703
 30
0.0
 10
793.8180875364566
 20
-116.7496085683648
 30
0.0
 10
792.723800391536
 20
-117.823328633518
 30
0.0
  0
ENDBLK
  5
D4
330
D1
100
AcDbEntity
  8
0
100
AcDbBlockEnd
  0
BLOCK
  5
D8
330
D6
100
AcDbEntity
  8
0
100
AcDbBlockBegin
  2
block 32
 70
     0
 10
0.0
 20
0.0
 30
0.0
  3
block 32
  1

  0
SPLINE
  5
DA
330
D6
100
AcDbEntity
  8
0
 62
   250
370
    25
100
AcDbSpline
210
0.0
220
0.0
230
1.0
 70
     8
 71
     3
 72
     8
 73
     4
 74
     0
 42
0.0000000001
 43
0.0000000001
 12
1.0
 22
0.0
 32
0.0
 13
1.0
 23
0.0
 33
0.0
 40
0.0
 40
0.0
 40
0.0
 40
0.0
 40
1.0
 40
1.0
 40
1.0
 40
1.0
 10
800.798185363372
 20
-109.637818283942
 30
0.0
 10
799.7393525716063
 20
-110.7467457556366
 30
0.0
 10
798.6734289092169
 20
-111.8486529127925
 30
0.0
 10
797.600308542309
 20
-112.9436808672808
 30
0.0
  0
ENDBLK
  5
D9
330
D6
100
AcDbEntity
  8
0
100
AcDbBlockEnd
  0
BLOCK
  5
DD
330
DB
100
AcDbEntity
  8
0
100
AcDbBlockBegin
  2
block 33
 70
     0
 10
0.0
 20
0.0
 30
0.0
  3
block 33
  1

  0
SPLINE
  5
DF
330
DB
100
AcDbEntity
  8
0
 62
   250
370
    25
100
AcDbSpline
210
0.0
220
0.0
230
1.0
 70
     8
 71
     3
 72
     8
 73
     4
 74
     0
 42
0.0000000001
 43
0.0000000001
 12
1.0
 22
0.0
 32
0.0
 13
1.0
 23
0.0
 33
0.0
 40
0.0
 40
0.0
 40
0.0
 40
0.0
 40
1.0
 40
1.0
 40
1.0
 40
1.0
 10
803.9527761234062
 20
-106.2912096539844
 30
0.0
 10
803.4305917100062
 20
-106.8523409247407
 30
0.0
 10
802.9066786764167
 20
-107.411778853286
 30
0.0
 10
802.3809311887155
 20
-107.9695234396446
 30
0.0
  0
ENDBLK
  5
DE
330
DB
100
AcDbEntity
  8
0
100
AcDbBlockEnd
  0
BLOCK
  5
E2
330
E0
100
AcDbEntity
  8
0
100
AcDbBlockBegin
  2
block 34
 70
     0
 10
0.0
 20
0.0
 30
0.0
  3
block 34
  1

  0
SPLINE
  5
E4
330
E0
100
AcDbEntity
  8
0
 62
   250
370
    25
100
AcDbSpline
210
0.0
220
0.0
230
1.0
 70
     8
 71
     3
 72
     8
 73
     4
 74
     0
 42
0.0000000001
 43
0.0000000001
 12
1.0
 22
0.0
 32
0.0
 13
1.0
 23
0.0
 33
0.0
 40
0.0
 40
0.0
 40
0.0
 40
0.0
 40
1.0
 40
1.0
 40
1.0
 40
1.0
 10
814.829571947219
 20
-94.06203341437892
 30
0.0
 10
814.3187823159803
 20
-94.66271128102582
 30
0.0
 10
813.8060876747272
 20
-95.26173108345162
 30
0.0
 10
813.2914880234582
 20
-95.8591280995936
 30
0.0
  0
ENDBLK
  5
E3
330
E0
100
AcDbEntity
  8
0
100
AcDbBlockEnd
  0
BLOCK
  5
E7
330
E5
100
AcDbEntity
  8
0
100
AcDbBlockBegin
  2
block 35
 70
     0
 10
0.0
 20
0.0
 30
0.0
  3
block 35
  1

  0
SPLINE
  5
E9
330
E5
100
AcDbEntity
  8
0
 62
   250
370
    25
100
AcDbSpline
210
0.0
220
0.0
230
1.0
 70
     8
 71
     3
 72
     8
 73
     4
 74
     0
 42
0.0000000001
 43
0.0000000001
 12
1.0
 22
0.0
 32
0.0
 13
1.0
 23
0.0
 33
0.0
 40
0.0
 40
0.0
 40
0.0
 40
0.0
 40
1.0
 40
1.0
 40
1.0
 40
1.0
 10
819.3747494662766
 20
-88.61363433750573
 30
0.0
 10
818.3761714359101
 20
-89.83386378072309
 30
0.0
 10
817.3700086434242
 20
-91.04770791274419
 30
0.0
 10
816.3561905328901
 20
-92.25534312336589
 30
0.0
  0
ENDBLK
  5
E8
330
E5
100
AcDbEntity
  8
0
100
AcDbBlockEnd
  0
BLOCK
  5
EC
330
EA
100
AcDbEntity
  8
0
100
AcDbBlockBegin
  2
block 36
 70
     0
 10
0.0
 20
0.0
 30
0.0
  3
block 36
  1

  0
SPLINE
  5
EE
330
EA
100
AcDbEntity
  8
0
 62
   250
370
    25
100
AcDbSpline
210
0.0
220
0.0
230
1.0
 70
     8
 71
     3
 72
     8
 73
     4
 74
     0
 42
0.0000000001
 43
0.0000000001
 12
1.0
 22
0.0
 32
0.0
 13
1.0
 23
0.0
 33
0.0
 40
0.0
 40
0.0
 40
0.0
 40
0.0
 40
1.0
 40
1.0
 40
1.0
 40
1.0
 10
823.8704320027655
 20
-83.01378696781667
 30
0.0
 10
823.3766816278277
 20
-83.64067636057334
 30
0.0
 10
822.8810615208396
 20
-84.26601352298881
 30
0.0
 10
822.3834658478943
 20
-84.88983373300297
 30
0.0
  0
ENDBLK
  5
ED
330
EA
100
AcDbEntity
  8
0
100
AcDbBlockEnd
  0
BLOCK
  5
F1
330
EF
100
AcDbEntity
  8
0
100
AcDbBlockBegin
  2
block 37
 70
     0
 10
0.0
 20
0.0
 30
0.0
  3
block 37
  1

  0
SPLINE
  5
F3
330
EF
100
AcDbEntity
  8
0
 62
   250
370
    25
100
AcDbSpline
210
0.0
220
0.0
230
1.0
 70
     8
 71
     3
 72
     8
 73
     4
 74
     0
 42
0.0000000001
 43
0.0000000001
 12
1.0
 22
0.0
 32
0.0
 13
1.0
 23
0.0
 33
0.0
 40
0.0
 40
0.0
 40
0.0
 40
0.0
 40
1.0
 40
1.0
 40
1.0
 40
1.0
 10
839.720468152838
 20
-61.42360339180093
 30
0.0
 10
839.260619900676
 20
-62.09628357982206
 30
0.0
 10
838.7987255266279
 20
-62.76751737138579
 30
0.0
 10
838.3347497527528
 20
-63.43734004444354
 30
0.0
  0
ENDBLK
  5
F2
330
EF
100
AcDbEntity
  8
0
100
AcDbBlockEnd
  0
BLOCK
  5
F6
330
F4
100
AcDbEntity
  8
0
100
AcDbBlockBegin
  2
block 38
 70
     0
 10
0.0
 20
0.0
 30
0.0
  3
block 38
  1

  0
SPLINE
  5
F8
330
F4
100
AcDbEntity
  8
0
  6
AI-Linetype-1
 62
     6
370
    25
100
AcDbSpline
210
0.0
220
0.0
230
1.0
 70
     8
 71
     3
 72
   191
 73
   187
 74
     0
 42
0.0000000001
 43
0.0000000001
 12
1.0
 22
0.0
 32
0.0
 13
1.0
 23
0.0
 33
0.0
 40
0.0
 40
0.0
 40
0.0
 40
0.0
 40
1.0
 40
1.0
 40
1.0
 40
2.0
 40
2.0
 40
2.0
 40
3.0
 40
3.0
 40
3.0
 40
4.0
 40
4.0
 40
4.0
 40
5.0
 40
5.0
 40
5.0
 40
6.0
 40
6.0
 40
6.0
 40
7.0
 40
7.0
 40
7.0
 40
8.0
 40
8.0
 40
8.0
 40
9.0
 40
9.0
 40
9.0
 40
10.0
 40
10.0
 40
10.0
 40
11.0
 40
11.0
 40
11.0
 40
12.0
 40
12.0
 40
12.0
 40
13.0
 40
13.0
 40
13.0
 40
14.0
 40
14.0
 40
14.0
 40
15.0
 40
15.0
 40
15.0
 40
16.0
 40
16.0
 40
16.0
 40
17.0
 40
17.0
 40
17.0
 40
18.0
 40
18.0
 40
18.0
 40
19.0
 40
19.0
 40
19.0
 40
20.0
 40
20.0
 40
20.0
 40
21.0
 40
21.0
 40
21.0
 40
22.0
 40
22.0
 40
22.0
 40
23.0
 40
23.0
 40
23.0
 40
24.0
 40
24.0
 40
24.0
 40
25.0
 40
25.0
 40
25.0
 40
26.0
 40
26.0
 40
26.0
 40
27.0
 40
27.0
 40
27.0
 40
28.0
 40
28.0
 40
28.0
 40
29.0
 40
29.0
 40
29.0
 40
30.0
 40
30.0
 40
30.0
 40
31.0
 40
31.0
 40
31.0
 40
32.0
 40
32.0
 40
32.0
 40
33.0
 40
33.0
 40
33.0
 40
34.0
 40
34.0
 40
34.0
 40
35.0
 40
35.0
 40
35.0
 40
36.0
 40
36.0
 40
36.0
 40
37.0
 40
37.0
 40
37.0
 40
38.0
 40
38.0
 40
38.0
 40
39.0
 40
39.0
 40
39.0
 40
40.0
 40
40.0
 40
40.0
 40
41.0
 40
41.0
 40
41.0
 40
42.0
 40
42.0
 40
42.0
 40
43.0
 40
43.0
 40
43.0
 40
44.0
 40
44.0
 40
44.0
 40
45.0
 40
45.0
 40
45.0
 40
46.0
 40
46.0
 40
46.0
 40
47.0
 40
47.0
 40
47.0
 40
48.0
 40
48.0
 40
48.0
 40
49.0
 40
49.0
 40
49.0
 40
50.0
 40
50.0
 40
50.0
 40
51.0
 40
51.0
 40
51.0
 40
52.0
 40
52.0
 40
52.0
 40
53.0
 40
53.0
 40
53.0
 40
54.0
 40
54.0
 40
54.0
 40
55.0
 40
55.0
 40
55.0
 40
56.0
 40
56.0
 40
56.0
 40
57.0
 40
57.0
 40
57.0
 40
58.0
 40
58.0
 40
58.0
 40
59.0
 40
59.0
 40
59.0
 40
60.0
 40
60.0
 40
60.0
 40
61.0
 40
61.0
 40
61.0
 40
62.0
 40
62.0
 40
62.0
 40
62.0
 10
-541.0449058803778
 20
152.7204469143653
 30
0.0
 10
-541.050232852846
 20
149.9369097727683
 30
0.0
 10
-540.9992561958165
 20
147.1533020752351
 30
0.0
 10
-540.8952567598832
 20
144.371669943659
 30
0.0
 10
-540.7912926019147
 20
141.5913783746849
 30
0.0
 10
-540.6343762209725
 20
138.8130270937029
 30
0.0
 10
-540.4217559359098
 20
136.0389444462815
 30
0.0
 10
-540.0000078841423
 20
130.5363935580215
 30
0.0
 10
-539.3590778461304
 20
125.050484986413
 30
0.0
 10
-538.4994244354236
 20
119.5991225606881
 30
0.0
 10
-537.6935699187904
 20
114.4891096996553
 30
0.0
 10
-536.6954857799068
 20
109.4094006083438
 30
0.0
 10
-535.506018689904
 20
104.3748825869404
 30
0.0
 10
-534.1621399543252
 20
98.68673447725686
 30
0.0
 10
-532.5739260446667
 20
93.0563011141203
 30
0.0
 10
-530.7552059225128
 20
87.5016095363815
 30
0.0
 10
-529.1248701246026
 20
82.52216041436263
 30
0.0
 10
-527.3093250191613
 20
77.60363633350569
 30
0.0
 10
-525.317248985142
 20
72.75767902140227
 30
0.0
 10
-523.043513691799
 20
67.22665895647143
 30
0.0
 10
-520.5398366333993
 20
61.79021910886428
 30
0.0
 10
-517.827772645532
 20
56.46024815193504
 30
0.0
 10
-515.0761620607611
 20
51.05248928779938
 30
0.0
 10
-512.1100967368297
 20
45.75430377505479
 30
0.0
 10
-508.9447461979765
 20
40.57800362254952
 30
0.0
 10
-506.0948512073288
 20
35.91753783701258
 30
0.0
 10
-503.0833831445843
 20
31.35588562430444
 30
0.0
 10
-499.9251940322779
 20
26.89819756694566
 30
0.0
 10
-496.4091452598402
 20
21.93536436525232
 30
0.0
 10
-492.7112385863625
 20
17.10140156039202
 30
0.0
 10
-488.8209964567651
 20
12.42640125432555
 30
0.0
 10
-485.5012342723489
 20
8.43702814849917
 30
0.0
 10
-482.0414538514443
 20
4.563402037477171
 30
0.0
 10
-478.4337882082128
 20
0.8322988947550205
 30
0.0
 10
-474.9153405342648
 20
-2.806587654105991
 30
0.0
 10
-471.2562396204731
 20
-6.309865715325948
 30
0.0
 10
-467.4620946629993
 20
-9.660249087258505
 30
0.0
 10
-463.6866117481475
 20
-12.99415765075207
 30
0.0
 10
-459.7773900742509
 20
-16.17665319938247
 30
0.0
 10
-455.7495638876084
 20
-19.20075069662656
 30
0.0
 10
-451.3684994540112
 20
-22.49006791557098
 30
0.0
 10
-446.8470640042769
 20
-25.59202387593844
 30
0.0
 10
-442.2152790852041
 20
-28.51787224774713
 30
0.0
 10
-439.9284556674685
 20
-29.96243425420062
 30
0.0
 10
-437.614715163704
 20
-31.36409825829033
 30
0.0
 10
-435.2790317667365
 20
-32.72815595443232
 30
0.0
 10
-432.5504929699938
 20
-34.32162624039476
 30
0.0
 10
-429.7920031823635
 20
-35.86376709097566
 30
0.0
 10
-427.0080074272421
 20
-37.35891769557292
 30
0.0
 10
-421.975782346275
 20
-40.06142128711249
 30
0.0
 10
-416.8601954379281
 20
-42.61025407420242
 30
0.0
 10
-411.6425141036685
 20
-44.93344901347122
 30
0.0
 10
-406.8345157577084
 20
-47.07418633092355
 30
0.0
 10
-401.9398394558089
 20
-49.0233643122709
 30
0.0
 10
-396.9655407906611
 20
-50.74288275806854
 30
0.0
 10
-393.7792351415769
 20
-51.84436657968421
 30
0.0
 10
-390.5602268204773
 20
-52.85158768561597
 30
0.0
 10
-387.3159947555933
 20
-53.76874415342907
 30
0.0
 10
-383.9509003882999
 20
-54.72004968887526
 30
0.0
 10
-380.5586772671944
 20
-55.57437610555941
 30
0.0
 10
-377.1475451577388
 20
-56.34449402586121
 30
0.0
 10
-373.5276733391793
 20
-57.16170802604071
 30
0.0
 10
-369.8865641866893
 20
-57.88402430723107
 30
0.0
 10
-366.2319082962626
 20
-58.52841156936954
 30
0.0
 10
-362.2887844996213
 20
-59.22363437539385
 30
0.0
 10
-358.3299267312967
 20
-59.82808698402854
 30
0.0
 10
-354.3621789162292
 20
-60.36547618605354
 30
0.0
 10
-349.7287006549245
 20
-60.99303586009124
 30
0.0
 10
-345.0831220521864
 20
-61.52919033342125
 30
0.0
 10
-340.4309111923432
 20
-61.99817556624753
 30
0.0
 10
-335.4791904237213
 20
-62.49735873493248
 30
0.0
 10
-330.5199201709584
 20
-62.92044733861178
 30
0.0
 10
-325.5569810099875
 20
-63.29206539506023
 30
0.0
 10
-319.4763654144207
 20
-63.74739805642226
 30
0.0
 10
-313.3901406226665
 20
-64.12540142408109
 30
0.0
 10
-307.3011641497789
 20
-64.44946478716146
 30
0.0
 10
-301.0055293676394
 20
-64.78449959655367
 30
0.0
 10
-294.7068606806471
 20
-65.0617843814282
 30
0.0
 10
-288.4069219869826
 20
-65.30252119719792
 30
0.0
 10
-280.0162347958212
 20
-65.62312731994952
 30
0.0
 10
-271.6232192590921
 20
-65.8788219917967
 30
0.0
 10
-263.229321773266
 20
-66.09856841990313
 30
0.0
 10
-252.6265298907282
 20
-66.37610015050562
 30
0.0
 10
-242.0223268896711
 20
-66.59619935823535
 30
0.0
 10
-231.417876942847
 20
-66.8014112658187
 30
0.0
 10
-221.8169792192347
 20
-66.98722029404293
 30
0.0
 10
-212.2158698278461
 20
-67.16078786930889
 30
0.0
 10
-202.6146546025625
 20
-67.32765263170673
 30
0.0
 10
-194.1326327643137
 20
-67.4750439588285
 30
0.0
 10
-185.6505403701351
 20
-67.61724942545646
 30
0.0
 10
-177.1683068641097
 20
-67.75010623205513
 30
0.0
 10
-160.1432323110362
 20
-68.01680762817969
 30
0.0
 10
-143.1175933105376
 20
-68.24604382818787
 30
0.0
 10
-126.0916368083802
 20
-68.44568181770272
 30
0.0
 10
-92.02843485577348
 20
-68.84513418653061
 30
0.0
 10
-57.96392761854258
 20
-69.12633482523968
 30
0.0
 10
-23.89906760166273
 20
-69.34735125999254
 30
0.0
 10
19.37048333251795
 20
-69.62812856313441
 30
0.0
 10
62.64059871411098
 20
-69.81182091363173
 30
0.0
 10
105.910890485541
 20
-69.94834662831002
 30
0.0
 10
150.0432345691819
 20
-70.0875534681407
 30
0.0
 10
194.175719764683
 20
-70.17765338424927
 30
0.0
 10
238.308275516126
 20
-70.16258969427777
 30
0.0
 10
271.0138756054133
 20
-70.1514418581408
 30
0.0
 10
303.7195109726641
 20
-70.08254399747204
 30
0.0
 10
336.4246171704677
 20
-69.90132110436339
 30
0.0
 10
353.0460765449475
 20
-69.80921034440914
 30
0.0
 10
369.6673595296162
 20
-69.68810109929997
 30
0.0
 10
386.2883250126003
 20
-69.5327722306292
 30
0.0
 10
395.4272930842117
 20
-69.44739956150863
 30
0.0
 10
404.5661553219413
 20
-69.3516551714146
 30
0.0
 10
413.7049470037283
 20
-69.24949019214596
 30
0.0
 10
423.0148720856959
 20
-69.14542020291282
 30
0.0
 10
432.3247266117325
 20
-69.03471795674263
 30
0.0
 10
441.6344400259223
 20
-68.91113925428328
 30
0.0
 10
452.1208851853521
 20
-68.77196769241814
 30
0.0
 10
462.6071892329364
 20
-68.61649771188652
 30
0.0
 10
473.0923643856813
 20
-68.40123158500033
 30
0.0
 10
481.0545301561224
 20
-68.23775350701557
 30
0.0
 10
489.0160609232223
 20
-68.0398088597002
 30
0.0
 10
496.9757572362117
 20
-67.78242084565483
 30
0.0
 10
503.8622273484243
 20
-67.55974634666676
 30
0.0
 10
510.7473568980086
 20
-67.29255105905932
 30
0.0
 10
517.6290644851656
 20
-66.9537062297279
 30
0.0
 10
522.8753915256501
 20
-66.69536571069388
 30
0.0
 10
528.119707722226
 20
-66.39536191800389
 30
0.0
 10
533.3601080648905
 20
-66.0356678128431
 30
0.0
 10
538.3362059061764
 20
-65.6941065804066
 30
0.0
 10
543.3087053951983
 20
-65.29871117725871
 30
0.0
 10
548.2741845695268
 20
-64.82856177165569
 30
0.0
 10
552.9450574719663
 20
-64.38628195640793
 30
0.0
 10
557.6097214528664
 20
-63.87785596157358
 30
0.0
 10
562.2630612075473
 20
-63.27583753233765
 30
0.0
 10
569.8868407535895
 20
-62.28953625813937
 30
0.0
 10
577.4802106952503
 20
-61.0520206133039
 30
0.0
 10
584.9885960232104
 20
-59.40468087869149
 30
0.0
 10
588.4074892846104
 20
-58.65456556308723
 30
0.0
 10
591.808814120261
 20
-57.81950091391545
 30
0.0
 10
595.1827985343227
 20
-56.88735131205936
 30
0.0
 10
598.4236439147318
 20
-55.9919613470859
 30
0.0
 10
601.6392655513416
 20
-55.00700063545099
 30
0.0
 10
604.8232781328038
 20
-53.9281299877824
 30
0.0
 10
609.8076662954821
 20
-52.23919753543098
 30
0.0
 10
614.7144429388028
 20
-50.32007637808402
 30
0.0
 10
619.5355646871269
 20
-48.20869032538421
 30
0.0
 10
624.7800925514788
 20
-45.911883302049
 30
0.0
 10
629.9232668271615
 20
-43.38753342089097
 30
0.0
 10
634.9837495567596
 20
-40.70923051160135
 30
0.0
 10
637.7809392701757
 20
-39.22879081733948
 30
0.0
 10
640.5528699618405
 20
-37.70129032116417
 30
0.0
 10
643.2953082761488
 20
-36.1219312201974
 30
0.0
 10
645.642139509523
 20
-34.77039720073412
 30
0.0
 10
647.9673453513792
 20
-33.38090409366004
 30
0.0
 10
650.265528273317
 20
-31.94794853686341
 30
0.0
 10
654.9133293877416
 20
-29.04996975538431
 30
0.0
 10
659.4505340870908
 20
-25.9742958770551
 30
0.0
 10
663.8498019497661
 20
-22.71168407568919
 30
0.0
 10
667.8804150955202
 20
-19.72244120535043
 30
0.0
 10
671.7952106876133
 20
-16.57628195803548
 30
0.0
 10
675.5768319681004
 20
-13.27758080108208
 30
0.0
 10
679.3909089748558
 20
-9.95058671823319
 30
0.0
 10
683.069518602375
 20
-6.468475434501628
 30
0.0
 10
686.6096269458076
 20
-2.851320110501887
 30
0.0
 10
690.251547491451
 20
0.8698699247898304
 30
0.0
 10
693.7469233773712
 20
4.734006263897258
 30
0.0
 10
697.1016813014112
 20
8.715829885749347
 30
0.0
 10
701.0199341339243
 20
13.36648839771782
 30
0.0
 10
704.7463806797389
 20
18.17766163883929
 30
0.0
 10
708.2911809922966
 20
23.11953973084773
 30
0.0
 10
715.0111391175251
 20
32.48792016140208
 30
0.0
 10
721.0783490870219
 20
42.32581499422469
 30
0.0
 10
726.3675741309477
 20
52.56951222912518
 30
0.0
 10
731.5131825860926
 20
62.53497217416377
 30
0.0
 10
735.922469390362
 20
72.88446801844957
 30
0.0
 10
739.4754189124519
 20
83.52190259226913
 30
0.0
 10
742.9609875245661
 20
93.95758249882769
 30
0.0
 10
745.622357079111
 20
104.6703708004305
 30
0.0
 10
747.4045645092009
 20
115.5277634701273
 30
0.0
 10
748.2983669884323
 20
120.9728111405664
 30
0.0
 10
748.9710471934585
 20
126.4542393078382
 30
0.0
 10
749.4268032018716
 20
131.9533329556796
 30
0.0
 10
749.6564980211878
 20
134.7246991999131
 30
0.0
 10
749.8311239397373
 20
137.5005457455094
 30
0.0
 10
749.9525859675242
 20
140.2787559146446
 30
0.0
 10
750.0739068834644
 20
143.0534382874435
 30
0.0
 10
750.1422050204889
 20
145.8304842837885
 30
0.0
 10
750.1544111958036
 20
148.6078125038398
 30
0.0
  0
ENDBLK
  5
F7
330
F4
100
AcDbEntity
  8
0
100
AcDbBlockEnd
  0
BLOCK
  5
FC
330
FA
100
AcDbEntity
  8
0
100
AcDbBlockBegin
  2
block 39
 70
     0
 10
0.0
 20
0.0
 30
0.0
  3
block 39
  1

  0
SPLINE
  5
FE
330
FA
100
AcDbEntity
  8
0
  6
AI-Linetype-2
 62
     6
370
    25
100
AcDbSpline
210
0.0
220
0.0
230
1.0
 70
     8
 71
     3
 72
   182
 73
   178
 74
     0
 42
0.0000000001
 43
0.0000000001
 12
1.0
 22
0.0
 32
0.0
 13
1.0
 23
0.0
 33
0.0
 40
0.0
 40
0.0
 40
0.0
 40
0.0
 40
1.0
 40
1.0
 40
1.0
 40
2.0
 40
2.0
 40
2.0
 40
3.0
 40
3.0
 40
3.0
 40
4.0
 40
4.0
 40
4.0
 40
5.0
 40
5.0
 40
5.0
 40
6.0
 40
6.0
 40
6.0
 40
7.0
 40
7.0
 40
7.0
 40
8.0
 40
8.0
 40
8.0
 40
9.0
 40
9.0
 40
9.0
 40
10.0
 40
10.0
 40
10.0
 40
11.0
 40
11.0
 40
11.0
 40
12.0
 40
12.0
 40
12.0
 40
13.0
 40
13.0
 40
13.0
 40
14.0
 40
14.0
 40
14.0
 40
15.0
 40
15.0
 40
15.0
 40
16.0
 40
16.0
 40
16.0
 40
17.0
 40
17.0
 40
17.0
 40
18.0
 40
18.0
 40
18.0
 40
19.0
 40
19.0
 40
19.0
 40
20.0
 40
20.0
 40
20.0
 40
21.0
 40
21.0
 40
21.0
 40
22.0
 40
22.0
 40
22.0
 40
23.0
 40
23.0
 40
23.0
 40
24.0
 40
24.0
 40
24.0
 40
25.0
 40
25.0
 40
25.0
 40
26.0
 40
26.0
 40
26.0
 40
27.0
 40
27.0
 40
27.0
 40
28.0
 40
28.0
 40
28.0
 40
29.0
 40
29.0
 40
29.0
 40
30.0
 40
30.0
 40
30.0
 40
31.0
 40
31.0
 40
31.0
 40
32.0
 40
32.0
 40
32.0
 40
33.0
 40
33.0
 40
33.0
 40
34.0
 40
34.0
 40
34.0
 40
35.0
 40
35.0
 40
35.0
 40
36.0
 40
36.0
 40
36.0
 40
37.0
 40
37.0
 40
37.0
 40
38.0
 40
38.0
 40
38.0
 40
39.0
 40
39.0
 40
39.0
 40
40.0
 40
40.0
 40
40.0
 40
41.0
 40
41.0
 40
41.0
 40
42.0
 40
42.0
 40
42.0
 40
43.0
 40
43.0
 40
43.0
 40
44.0
 40
44.0
 40
44.0
 40
45.0
 40
45.0
 40
45.0
 40
46.0
 40
46.0
 40
46.0
 40
47.0
 40
47.0
 40
47.0
 40
48.0
 40
48.0
 40
48.0
 40
49.0
 40
49.0
 40
49.0
 40
50.0
 40
50.0
 40
50.0
 40
51.0
 40
51.0
 40
51.0
 40
52.0
 40
52.0
 40
52.0
 40
53.0
 40
53.0
 40
53.0
 40
54.0
 40
54.0
 40
54.0
 40
55.0
 40
55.0
 40
55.0
 40
56.0
 40
56.0
 40
56.0
 40
57.0
 40
57.0
 40
57.0
 40
58.0
 40
58.0
 40
58.0
 40
59.0
 40
59.0
 40
59.0
 40
59.0
 10
750.1544111958036
 20
148.6078125038398
 30
0.0
 10
750.1600203919788
 20
151.3938191028768
 30
0.0
 10
750.108373453642
 20
154.1798962578372
 30
0.0
 10
750.0037742923308
 20
156.9639625688883
 30
0.0
 10
749.898963463243
 20
159.7531441846183
 30
0.0
 10
749.741024021357
 20
162.5402796784807
 30
0.0
 10
749.5272748414691
 20
165.3232170946937
 30
0.0
 10
749.1034806678409
 20
170.8412902868153
 30
0.0
 10
748.460363396101
 20
176.3428533920967
 30
0.0
 10
747.5950302332833
 20
181.8090327001267
 30
0.0
 10
745.8672567006292
 20
192.722940941381
 30
0.0
 10
743.2535476745554
 20
203.4959489970437
 30
0.0
 10
739.8061850967425
 20
213.994423941971
 30
0.0
 10
738.1648072963208
 20
218.9929585679442
 30
0.0
 10
736.3344807242283
 20
223.9292275886277
 30
0.0
 10
734.327976003208
 20
228.7927181709253
 30
0.0
 10
732.0387889619342
 20
234.341412635223
 30
0.0
 10
729.5202951589188
 20
239.7953152120211
 30
0.0
 10
726.7910508029051
 20
245.1410908311725
 30
0.0
 10
721.6862942292997
 20
255.1397475914687
 30
0.0
 10
715.8442987777827
 20
264.7599776389974
 30
0.0
 10
709.3765075345201
 20
273.9366578534145
 30
0.0
 10
706.0356491280444
 20
278.6767108419809
 30
0.0
 10
702.52785539902
 20
283.2984415414955
 30
0.0
 10
698.8470232598145
 20
287.779342611347
 30
0.0
 10
695.5240860587127
 20
291.8244902779964
 30
0.0
 10
692.0601428381291
 20
295.7548787298886
 30
0.0
 10
688.4455979920382
 20
299.5418269828374
 30
0.0
 10
684.719116168258
 20
303.4460039079655
 30
0.0
 10
680.8325429468371
 20
307.197674197571
 30
0.0
 10
676.7929691983974
 20
310.7767999684654
 30
0.0
 10
673.0223546424829
 20
314.1175878190164
 30
0.0
 10
669.118389385125
 20
317.3080562677729
 30
0.0
 10
665.0944437744411
 20
320.3388919323983
 30
0.0
 10
660.7110157173114
 20
323.6404506877237
 30
0.0
 10
656.185170522158
 20
326.7526373358202
 30
0.0
 10
651.5493639152725
 20
329.689351394247
 30
0.0
 10
649.2661035718309
 20
331.1357831692494
 30
0.0
 10
646.9561378101441
 20
332.5396697204543
 30
0.0
 10
644.6237705417227
 20
333.9053149593988
 30
0.0
 10
641.8862358643173
 20
335.5082045018257
 30
0.0
 10
639.117832968999
 20
337.0584593229372
 30
0.0
 10
636.3239593841438
 20
338.5617591748435
 30
0.0
 10
631.2625594274975
 20
341.2851121109833
 30
0.0
 10
626.1175506977153
 20
343.8544061811972
 30
0.0
 10
620.8689658675673
 20
346.1954871065692
 30
0.0
 10
616.0443163229205
 20
348.3474781484057
 30
0.0
 10
611.1321774291674
 20
350.3066398426204
 30
0.0
 10
606.1399222806626
 20
352.034660321023
 30
0.0
 10
602.9419043477528
 20
353.1416475327297
 30
0.0
 10
599.7109720750444
 20
354.1537723010328
 30
0.0
 10
596.4543574450342
 20
355.0747388120474
 30
0.0
 10
593.0660501778525
 20
356.0329588523495
 30
0.0
 10
589.6499438755651
 20
356.8925417071461
 30
0.0
 10
586.2152460865856
 20
357.6672105041774
 30
0.0
 10
578.714163297038
 20
359.3590357921879
 30
0.0
 10
571.1245328195015
 20
360.6460111728842
 30
0.0
 10
563.5041752358871
 20
361.6780327124971
 30
0.0
 10
559.232684156434
 20
362.2565207553827
 30
0.0
 10
554.9515269150351
 20
362.754857265558
 30
0.0
 10
550.663984362259
 20
363.19660792253
 30
0.0
 10
545.6689775326079
 20
363.7112428517697
 30
0.0
 10
540.6652923239909
 20
364.1490423768466
 30
0.0
 10
535.6580793190383
 20
364.5318788350335
 30
0.0
 10
529.5373526791423
 20
364.9998410187742
 30
0.0
 10
523.411299066792
 20
365.3856408258975
 30
0.0
 10
517.2820351597634
 20
365.716689233888
 30
0.0
 10
510.9832606388885
 20
366.0568746344015
 30
0.0
 10
504.6810994335126
 20
366.3392041750202
 30
0.0
 10
498.3777034994424
 20
366.5839626846981
 30
0.0
 10
490.1231186908582
 20
366.9045335375888
 30
0.0
 10
481.866381926518
 20
367.1606868294152
 30
0.0
 10
473.6086573791999
 20
367.3804685410443
 30
0.0
 10
462.7715492641383
 20
367.6689011693263
 30
0.0
 10
451.9327125288847
 20
367.8946801347181
 30
0.0
 10
441.0937346817728
 20
368.1048662403114
 30
0.0
 10
431.4252796583616
 20
368.2923686154779
 30
0.0
 10
421.7566482451253
 20
368.4674884255044
 30
0.0
 10
412.0878757200422
 20
368.635658476761
 30
0.0
 10
403.5762203925898
 20
368.7837200889126
 30
0.0
 10
395.0644239532766
 20
368.9263841726655
 30
0.0
 10
386.5524864021173
 20
369.0597348740967
 30
0.0
 10
369.5140767788911
 20
369.3266832227127
 30
0.0
 10
352.4751379862166
 20
369.5564133199932
 30
0.0
 10
335.4358816918836
 20
369.7565099280756
 30
0.0
 10
301.6200135402833
 20
370.153633961417
 30
0.0
 10
267.802804826069
 20
370.4341290479503
 30
0.0
 10
233.9852786101821
 20
370.6548632645989
 30
0.0
 10
191.4880681274581
 20
370.9322186123849
 30
0.0
 10
148.9903990312046
 20
371.1152406862022
 30
0.0
 10
106.4925182671604
 20
371.2521897398981
 30
0.0
 10
61.99811644572669
 20
371.3956299388466
 30
0.0
 10
17.50353823448065
 20
371.4885873722621
 30
0.0
 10
-26.99107525474312
 20
371.4768045324997
 30
0.0
 10
-60.84285637301667
 20
371.4678086518492
 30
0.0
 10
-94.69467276926794
 20
371.3982052301691
 30
0.0
 10
-128.5459247181066
 20
371.2080217297918
 30
0.0
 10
-145.530288501486
 20
371.1125948389505
 30
0.0
 10
-162.5145464509708
 20
370.9867936216733
 30
0.0
 10
-179.4984163428676
 20
370.8251499936407
 30
0.0
 10
-188.0784050853218
 20
370.7434815084983
 30
0.0
 10
-196.6582879938814
 20
370.6526760308588
 30
0.0
 10
-205.2381003465111
 20
370.556331912968
 30
0.0
 10
-214.4285742446001
 20
370.4531438702012
 30
0.0
 10
-223.6189423087943
 20
370.343605794017
 30
0.0
 10
-232.8091692611419
 20
370.2216851527057
 30
0.0
 10
-242.8374242326835
 20
370.0886166749744
 30
0.0
 10
-252.8655028144134
 20
369.9407667306128
 30
0.0
 10
-262.8924877792701
 20
369.7384123328728
 30
0.0
 10
-271.3206754454609
 20
369.5683372716017
 30
0.0
 10
-279.7481222744274
 20
369.3597386743575
 30
0.0
 10
-288.1738052052134
 20
369.0860875127193
 30
0.0
 10
-300.1480631906472
 20
368.6971126889037
 30
0.0
 10
-312.1187933797455
 20
368.1767274516485
 30
0.0
 10
-324.0713201397526
 20
367.3590195393298
 30
0.0
 10
-329.084600954398
 20
367.016047179718
 30
0.0
 10
-334.0946714743916
 20
366.6207928784269
 30
0.0
 10
-339.0973336220779
 20
366.148738450943
 30
0.0
 10
-343.7524372749146
 20
365.7095278073351
 30
0.0
 10
-348.4011203384223
 20
365.2038182028232
 30
0.0
 10
-353.0386555655104
 20
364.6053275547139
 30
0.0
 10
-360.7042394981319
 20
363.616098184634
 30
0.0
 10
-368.3394138263474
 20
362.3733966479385
 30
0.0
 10
-375.8886157578962
 20
360.7167434893831
 30
0.0
 10
-379.3218318723954
 20
359.9633473042412
 30
0.0
 10
-382.7372326154304
 20
359.1243667800338
 30
0.0
 10
-386.1251165470459
 20
358.1874546295981
 30
0.0
 10
-389.3786972722233
 20
357.2876548965846
 30
0.0
 10
-392.6068778637915
 20
356.2975788553794
 30
0.0
 10
-395.8029907866742
 20
355.2126050927862
 30
0.0
 10
-400.8109446288639
 20
353.5125247613496
 30
0.0
 10
-405.740122778905
 20
351.5794687600097
 30
0.0
 10
-410.5831168645028
 20
349.4534422991883
 30
0.0
 10
-415.8385808974977
 20
347.1463340525227
 30
0.0
 10
-420.9925149519997
 20
344.6120357219406
 30
0.0
 10
-426.0635105146747
 20
341.9234315796963
 30
0.0
 10
-428.8545618624672
 20
340.4436268513774
 30
0.0
 10
-431.6204953003574
 20
338.9171140995888
 30
0.0
 10
-434.3566894151488
 20
337.3384252400228
 30
0.0
 10
-436.7100117937944
 20
335.9806469868971
 30
0.0
 10
-439.0413560012723
 20
334.5843099198468
 30
0.0
 10
-441.3454303430786
 20
333.144298734173
 30
0.0
 10
-446.0147510151525
 20
330.2260350505717
 30
0.0
 10
-450.5722052654547
 20
327.1284887572658
 30
0.0
 10
-454.9891826657247
 20
323.8412528550655
 30
0.0
 10
-459.0313669834451
 20
320.8329245310495
 30
0.0
 10
-462.9558992934329
 20
317.6657042601402
 30
0.0
 10
-466.7462695088169
 20
314.3455540181355
 30
0.0
 10
-470.8095147706626
 20
310.7863602965421
 30
0.0
 10
-474.7185953326996
 20
307.0513764835878
 30
0.0
 10
-478.4704772900881
 20
303.1652265977328
 30
0.0
 10
-482.1071061412289
 20
299.3984573398123
 30
0.0
 10
-485.5960261598549
 20
295.4896590014812
 30
0.0
 10
-488.9427759862172
 20
291.463279211335
 30
0.0
 10
-492.4101411692475
 20
287.2918011579677
 30
0.0
 10
-495.7249291608187
 20
282.9940632737789
 30
0.0
 10
-498.8956066721274
 20
278.5923259536641
 30
0.0
 10
-505.6550055603781
 20
269.2084582605345
 30
0.0
 10
-511.7593985032456
 20
259.3517953026903
 30
0.0
 10
-517.0820670564042
 20
249.0853082446942
 30
0.0
 10
-519.8426382438738
 20
243.7606641255848
 30
0.0
 10
-522.392952769813
 20
238.3257763710312
 30
0.0
 10
-524.714948317004
 20
232.7955675595252
 30
0.0
 10
-526.7515451407589
 20
227.945059267738
 30
0.0
 10
-528.6125282629852
 20
223.0211728121938
 30
0.0
 10
-530.2851270609675
 20
218.0337860226341
 30
0.0
 10
-533.7990591556139
 20
207.5556664625539
 30
0.0
 10
-536.4814896542774
 20
196.797016537969
 30
0.0
 10
-538.2776318798857
 20
185.8919983434834
 30
0.0
 10
-539.1767966095503
 20
180.4326982382937
 30
0.0
 10
-539.8538512820187
 20
174.9367090512219
 30
0.0
 10
-540.3122531376963
 20
169.4228339367502
 30
0.0
 10
-540.5436412992499
 20
166.6399670764606
 30
0.0
 10
-540.7192902787309
 20
163.8525846368504
 30
0.0
 10
-540.8418106454262
 20
161.0628385737077
 30
0.0
 10
-540.963872398591
 20
158.2837111775237
 30
0.0
 10
-541.0331583185933
 20
155.5022554357594
 30
0.0
 10
-541.0449058803778
 20
152.7204469143653
 30
0.0
  0
ENDBLK
  5
FD
330
FA
100
AcDbEntity
  8
0
100
AcDbBlockEnd
  0
BLOCK
  5
102
330
100
100
AcDbEntity
  8
0
100
AcDbBlockBegin
  2
block 40
 70
     0
 10
0.0
 20
0.0
 30
0.0
  3
block 40
  1

  0
SPLINE
  5
104
330
100
100
AcDbEntity
  8
0
  6
AI-Linetype-3
 62
     6
370
    25
100
AcDbSpline
210
0.0
220
0.0
230
1.0
 70
     8
 71
     3
 72
   191
 73
   187
 74
     0
 42
0.0000000001
 43
0.0000000001
 12
1.0
 22
0.0
 32
0.0
 13
1.0
 23
0.0
 33
0.0
 40
0.0
 40
0.0
 40
0.0
 40
0.0
 40
1.0
 40
1.0
 40
1.0
 40
2.0
 40
2.0
 40
2.0
 40
3.0
 40
3.0
 40
3.0
 40
4.0
 40
4.0
 40
4.0
 40
5.0
 40
5.0
 40
5.0
 40
6.0
 40
6.0
 40
6.0
 40
7.0
 40
7.0
 40
7.0
 40
8.0
 40
8.0
 40
8.0
 40
9.0
 40
9.0
 40
9.0
 40
10.0
 40
10.0
 40
10.0
 40
11.0
 40
11.0
 40
11.0
 40
12.0
 40
12.0
 40
12.0
 40
13.0
 40
13.0
 40
13.0
 40
14.0
 40
14.0
 40
14.0
 40
15.0
 40
15.0
 40
15.0
 40
16.0
 40
16.0
 40
16.0
 40
17.0
 40
17.0
 40
17.0
 40
18.0
 40
18.0
 40
18.0
 40
19.0
 40
19.0
 40
19.0
 40
20.0
 40
20.0
 40
20.0
 40
21.0
 40
21.0
 40
21.0
 40
22.0
 40
22.0
 40
22.0
 40
23.0
 40
23.0
 40
23.0
 40
24.0
 40
24.0
 40
24.0
 40
25.0
 40
25.0
 40
25.0
 40
26.0
 40
26.0
 40
26.0
 40
27.0
 40
27.0
 40
27.0
 40
28.0
 40
28.0
 40
28.0
 40
29.0
 40
29.0
 40
29.0
 40
30.0
 40
30.0
 40
30.0
 40
31.0
 40
31.0
 40
31.0
 40
32.0
 40
32.0
 40
32.0
 40
33.0
 40
33.0
 40
33.0
 40
34.0
 40
34.0
 40
34.0
 40
35.0
 40
35.0
 40
35.0
 40
36.0
 40
36.0
 40
36.0
 40
37.0
 40
37.0
 40
37.0
 40
38.0
 40
38.0
 40
38.0
 40
39.0
 40
39.0
 40
39.0
 40
40.0
 40
40.0
 40
40.0
 40
41.0
 40
41.0
 40
41.0
 40
42.0
 40
42.0
 40
42.0
 40
43.0
 40
43.0
 40
43.0
 40
44.0
 40
44.0
 40
44.0
 40
45.0
 40
45.0
 40
45.0
 40
46.0
 40
46.0
 40
46.0
 40
47.0
 40
47.0
 40
47.0
 40
48.0
 40
48.0
 40
48.0
 40
49.0
 40
49.0
 40
49.0
 40
50.0
 40
50.0
 40
50.0
 40
51.0
 40
51.0
 40
51.0
 40
52.0
 40
52.0
 40
52.0
 40
53.0
 40
53.0
 40
53.0
 40
54.0
 40
54.0
 40
54.0
 40
55.0
 40
55.0
 40
55.0
 40
56.0
 40
56.0
 40
56.0
 40
57.0
 40
57.0
 40
57.0
 40
58.0
 40
58.0
 40
58.0
 40
59.0
 40
59.0
 40
59.0
 40
60.0
 40
60.0
 40
60.0
 40
61.0
 40
61.0
 40
61.0
 40
62.0
 40
62.0
 40
62.0
 40
62.0
 10
-525.1126015197992
 20
152.7557954336326
 30
0.0
 10
-525.118281271891
 20
150.1279399442639
 30
0.0
 10
-525.0679748961686
 20
147.5000844548959
 30
0.0
 10
-524.9671857548999
 20
144.8741692535002
 30
0.0
 10
-524.8728877588896
 20
142.4172354965293
 30
0.0
 10
-524.7343864748021
 20
139.9620303597606
 30
0.0
 10
-524.5486479978096
 20
137.5103530193275
 30
0.0
 10
-524.1437275345663
 20
132.1647185120222
 30
0.0
 10
-523.5143686685335
 20
126.8359468711997
 30
0.0
 10
-522.6615591827024
 20
121.543185237485
 30
0.0
 10
-521.8686164006566
 20
116.6220505873977
 30
0.0
 10
-520.8824914913467
 20
111.7320311002
 30
0.0
 10
-519.7035725123731
 20
106.8889313030612
 30
0.0
 10
-518.5110715175175
 20
101.9901276032199
 30
0.0
 10
-517.1212961516426
 20
97.13930193228813
 30
0.0
 10
-515.5468759256361
 20
92.34947185844682
 30
0.0
 10
-513.8760057478567
 20
87.26630552683352
 30
0.0
 10
-511.9972072541278
 20
82.25186066606385
 30
0.0
 10
-509.9210638334626
 20
77.32038957298668
 30
0.0
 10
-507.8990368085742
 20
72.51747137507326
 30
0.0
 10
-505.6898249101909
 20
67.79332886732044
 30
0.0
 10
-503.3107848962776
 20
63.15692265218028
 30
0.0
 10
-498.2255723143657
 20
53.24642577263347
 30
0.0
 10
-492.3645267626383
 20
43.7368982143133
 30
0.0
 10
-485.8515444483452
 20
34.69995424098207
 30
0.0
 10
-482.8742960100294
 20
30.56897539387895
 30
0.0
 10
-479.7608393552547
 20
26.53677484163269
 30
0.0
 10
-476.5008027627898
 20
22.62536603283785
 30
0.0
 10
-473.1960689907778
 20
18.66036999906087
 30
0.0
 10
-469.7407335932446
 20
14.81951711515589
 30
0.0
 10
-466.1272823640141
 20
11.13349920845293
 30
0.0
 10
-462.8114007555824
 20
7.75101289067155
 30
0.0
 10
-459.3623448355315
 20
4.498913922125817
 30
0.0
 10
-455.7848771289169
 20
1.394629616229251
 30
0.0
 10
-452.2344676201714
 20
-1.686230122580894
 30
0.0
 10
-448.5575513349025
 20
-4.621497710375643
 30
0.0
 10
-444.7704972480651
 20
-7.406410622188633
 30
0.0
 10
-440.4541678772041
 20
-10.58051001576424
 30
0.0
 10
-435.994821642954
 20
-13.55924005329565
 30
0.0
 10
-431.4285831797775
 20
-16.36196833613794
 30
0.0
 10
-429.1357977862377
 20
-17.7693120922043
 30
0.0
 10
-426.8160600286845
 20
-19.13224089354534
 30
0.0
 10
-424.4751554931434
 20
-20.45784561060648
 30
0.0
 10
-421.9356360239875
 20
-21.89591647196838
 30
0.0
 10
-419.3712455906636
 20
-23.29003099210946
 30
0.0
 10
-416.7829014202406
 20
-24.63877805253914
 30
0.0
 10
-412.1639576798318
 20
-27.04558176281081
 30
0.0
 10
-407.4687077047141
 20
-29.30788693886526
 30
0.0
 10
-402.6794419572925
 20
-31.35407931696585
 30
0.0
 10
-398.244790297379
 20
-33.24875284632207
 30
0.0
 10
-393.729528491232
 20
-34.95818179486544
 30
0.0
 10
-389.1450513210127
 20
-36.4525210063349
 30
0.0
 10
-382.9154921641982
 20
-38.48308524705134
 30
0.0
 10
-376.5581209462105
 20
-40.11652546445615
 30
0.0
 10
-370.1418002514731
 20
-41.4481627131044
 30
0.0
 10
-362.5969375094014
 20
-43.01401035446522
 30
0.0
 10
-354.9706179499896
 20
-44.16251970001468
 30
0.0
 10
-347.3208385449486
 20
-45.0892717736133
 30
0.0
 10
-342.4162491353559
 20
-45.6834584951686
 30
0.0
 10
-337.5019935638182
 20
-46.18648696175831
 30
0.0
 10
-332.580999901261
 20
-46.62199340823381
 30
0.0
 10
-327.7864071813711
 20
-47.04631674057985
 30
0.0
 10
-322.9853938721523
 20
-47.40654001517749
 30
0.0
 10
-318.1822638851295
 20
-47.72446501277543
 30
0.0
 10
-312.1796831444681
 20
-48.12180070386359
 30
0.0
 10
-306.1737509972892
 20
-48.45302549331787
 30
0.0
 10
-300.1652082808299
 20
-48.73785976215387
 30
0.0
 10
-294.00377087124
 20
-49.02989073532804
 30
0.0
 10
-287.8395817805042
 20
-49.27313228642502
 30
0.0
 10
-281.6746165745788
 20
-49.48571728815882
 30
0.0
 10
-272.8335356254374
 20
-49.79055416169236
 30
0.0
 10
-263.9907966120101
 20
-50.03234931633193
 30
0.0
 10
-255.1472109274634
 20
-50.24313514198376
 30
0.0
 10
-243.1137917975163
 20
-50.52990969873436
 30
0.0
 10
-231.0788909930948
 20
-50.75925173263915
 30
0.0
 10
-219.0438843547915
 20
-50.97920982852213
 30
0.0
 10
-201.704447870373
 20
-51.29618232115837
 30
0.0
 10
-184.3648702740946
 20
-51.59375193442393
 30
0.0
 10
-167.0245871185442
 20
-51.85170439586913
 30
0.0
 10
-151.252268321713
 20
-52.0863028461577
 30
0.0
 10
-135.479349799517
 20
-52.28812806935492
 30
0.0
 10
-119.7062196095316
 20
-52.46603483399439
 30
0.0
 10
-86.17917214380816
 20
-52.84421459146551
 30
0.0
 10
-52.65113689511868
 20
-53.11437322791882
 30
0.0
 10
-19.12271358882849
 20
-53.32586461280439
 30
0.0
 10
0.9146404201627694
 20
-53.45223027431145
 30
0.0
 10
20.95210026304904
 20
-53.55767610408375
 30
0.0
 10
40.98963066185836
 20
-53.64855213535586
 30
0.0
 10
62.79638620024071
 20
-53.74747154205946
 30
0.0
 10
84.60317701659437
 20
-53.82914002513488
 30
0.0
 10
106.4100383888647
 20
-53.89800260783939
 30
0.0
 10
147.3253849953283
 20
-54.0272963402268
 30
0.0
 10
188.2408727136516
 20
-54.11161067049036
 30
0.0
 10
229.1564309878918
 20
-54.11122261290153
 30
0.0
 10
248.6129333304528
 20
-54.11101094512499
 30
0.0
 10
268.0694356730003
 20
-54.09167862169694
 30
0.0
 10
287.5258674596437
 20
-54.04225419630298
 30
0.0
 10
302.2087674704915
 20
-54.00496538998733
 30
0.0
 10
316.8916322033859
 20
-53.95056677189024
 30
0.0
 10
331.5743911023863
 20
-53.87422526115407
 30
0.0
 10
348.1495305109981
 20
-53.78804119889286
 30
0.0
 10
364.724564085728
 20
-53.67391699035817
 30
0.0
 10
381.2992448808091
 20
-53.52610232768333
 30
0.0
 10
399.2652179941842
 20
-53.36586982222513
 30
0.0
 10
417.2308030499719
 20
-53.1660554429121
 30
0.0
 10
435.1960706040877
 20
-52.93925342231294
 30
0.0
 10
446.1287819997966
 20
-52.80124603319889
 30
0.0
 10
457.0613522836599
 20
-52.65321970274751
 30
0.0
 10
467.992970062509
 20
-52.44652612075406
 30
0.0
 10
476.4356569716314
 20
-52.2868933406471
 30
0.0
 10
484.8778147113043
 20
-52.09226482182785
 30
0.0
 10
493.3181027189166
 20
-51.83575875684005
 30
0.0
 10
499.2903796890723
 20
-51.65428891798933
 30
0.0
 10
505.261739432167
 20
-51.44180975015085
 30
0.0
 10
511.2310530534004
 20
-51.18036477042419
 30
0.0
 10
516.9586067918374
 20
-50.92946790145758
 30
0.0
 10
522.6843260761896
 20
-50.63348579651029
 30
0.0
 10
528.4059883947579
 20
-50.27171029157275
 30
0.0
 10
533.245207738279
 20
-49.96570924527531
 30
0.0
 10
538.0815695667712
 20
-49.61268267501713
 30
0.0
 10
542.9121105312989
 20
-49.19329825739583
 30
0.0
 10
547.3500783197713
 20
-48.80802762946904
 30
0.0
 10
551.7831777492935
 20
-48.36673559716134
 30
0.0
 10
556.2078457455771
 20
-47.84645620694346
 30
0.0
 10
563.8331069660937
 20
-46.94983151328785
 30
0.0
 10
571.4332855546713
 20
-45.81850253543679
 30
0.0
 10
578.9531362207232
 20
-44.27166971584497
 30
0.0
 10
582.7606868042664
 20
-43.48846367146464
 30
0.0
 10
586.5476703351615
 20
-42.59871818047662
 30
0.0
 10
590.2981764519832
 20
-41.57717422178548
 30
0.0
 10
592.6720658832527
 20
-40.9305997259916
 30
0.0
 10
595.0313502376958
 20
-40.23121412039067
 30
0.0
 10
597.3733131121331
 20
-39.47651266967083
 30
0.0
 10
598.2278512181806
 20
-39.20116817275069
 30
0.0
 10
599.0800609786335
 20
-38.91841530370173
 30
0.0
 10
599.9298718375896
 20
-38.62881850993915
 30
0.0
 10
600.9421377177324
 20
-38.2838353151253
 30
0.0
 10
601.9510169133998
 20
-37.92911540268048
 30
0.0
 10
602.9561919229072
 20
-37.5641648811218
 30
0.0
 10
605.7181389509436
 20
-36.56142407641029
 30
0.0
 10
608.452251665896
 20
-35.48156564577597
 30
0.0
 10
611.1572247831401
 20
-34.33397352724834
 30
0.0
 10
615.8922330229383
 20
-32.32510523342892
 30
0.0
 10
620.5379527375353
 20
-30.10859085261456
 30
0.0
 10
625.1101884544748
 20
-27.75219935070132
 30
0.0
 10
627.7797072185506
 20
-26.37642937103538
 30
0.0
 10
630.4241786286535
 20
-24.95296358612766
 30
0.0
 10
633.0424385119935
 20
-23.48229588747386
 30
0.0
 10
635.4517117405017
 20
-22.12903324784684
 30
0.0
 10
637.8387951300512
 20
-20.73583595472759
 30
0.0
 10
640.1968094778229
 20
-19.29483702248535
 30
0.0
 10
644.6893522755779
 20
-16.54936487268043
 30
0.0
 10
649.0762375731261
 20
-13.63043098151514
 30
0.0
 10
653.3259974271527
 20
-10.52283054716224
 30
0.0
 10
657.1335480106965
 20
-7.738587916630286
 30
0.0
 10
660.8309607926719
 20
-4.802932271260829
 30
0.0
 10
664.4006673473564
 20
-1.719532519145044
 30
0.0
 10
668.1183296802965
 20
1.491679290933925
 30
0.0
 10
671.6974201732323
 20
4.863088328508129
 30
0.0
 10
675.1350107551922
 20
8.372540033134982
 30
0.0
 10
678.5264577611084
 20
11.83486037994555
 30
0.0
 10
681.780144320174
 20
15.43148392979935
 30
0.0
 10
684.9017501844819
 20
19.13870389194213
 30
0.0
 10
688.3315090585942
 20
23.21189743654278
 30
0.0
 10
691.6018115383806
 20
27.41861806902955
 30
0.0
 10
694.723876016218
 20
31.7329012090232
 30
0.0
 10
701.3420572171998
 20
40.87836019485511
 30
0.0
 10
707.2941199143559
 20
50.50726837811942
 30
0.0
 10
712.442162548965
 20
60.55298568773514
 30
0.0
 10
716.9921731490066
 20
69.43177855540674
 30
0.0
 10
720.9141301676675
 20
78.63618701648706
 30
0.0
 10
724.1050572299413
 20
88.08877594341605
 30
0.0
 10
725.7791024244201
 20
93.04797551497605
 30
0.0
 10
727.251957393962
 20
98.07547322185357
 30
0.0
 10
728.5149790375531
 20
103.1550059233464
 30
0.0
 10
729.7710156443887
 20
108.2063162548722
 30
0.0
 10
730.8195825488197
 20
113.3091324115803
 30
0.0
 10
731.655881947811
 20
118.4465915274095
 30
0.0
 10
732.4709792908353
 20
123.4535221821768
 30
0.0
 10
733.0844630733578
 20
128.493411422915
 30
0.0
 10
733.4984852511469
 20
133.5493785732112
 30
0.0
 10
733.6976293542098
 20
135.9810180304692
 30
0.0
 10
733.8505946032631
 20
138.4163969518387
 30
0.0
 10
733.9597798998053
 20
140.8537514391716
 30
0.0
 10
734.07757301941
 20
143.4833708267017
 30
0.0
 10
734.1443894819718
 20
146.1153185598179
 30
0.0
 10
734.1556078743221
 20
148.7475132386827
 30
0.0
  0
ENDBLK
  5
103
330
100
100
AcDbEntity
  8
0
100
AcDbBlockEnd
  0
BLOCK
  5
108
330
106
100
AcDbEntity
  8
0
100
AcDbBlockBegin
  2
block 41
 70
     0
 10
0.0
 20
0.0
 30
0.0
  3
block 41
  1

  0
SPLINE
  5
10A
330
106
100
AcDbEntity
  8
0
  6
AI-Linetype-4
 62
     6
370
    25
100
AcDbSpline
210
0.0
220
0.0
230
1.0
 70
     8
 71
     3
 72
   173
 73
   169
 74
     0
 42
0.0000000001
 43
0.0000000001
 12
1.0
 22
0.0
 32
0.0
 13
1.0
 23
0.0
 33
0.0
 40
0.0
 40
0.0
 40
0.0
 40
0.0
 40
1.0
 40
1.0
 40
1.0
 40
2.0
 40
2.0
 40
2.0
 40
3.0
 40
3.0
 40
3.0
 40
4.0
 40
4.0
 40
4.0
 40
5.0
 40
5.0
 40
5.0
 40
6.0
 40
6.0
 40
6.0
 40
7.0
 40
7.0
 40
7.0
 40
8.0
 40
8.0
 40
8.0
 40
9.0
 40
9.0
 40
9.0
 40
10.0
 40
10.0
 40
10.0
 40
11.0
 40
11.0
 40
11.0
 40
12.0
 40
12.0
 40
12.0
 40
13.0
 40
13.0
 40
13.0
 40
14.0
 40
14.0
 40
14.0
 40
15.0
 40
15.0
 40
15.0
 40
16.0
 40
16.0
 40
16.0
 40
17.0
 40
17.0
 40
17.0
 40
18.0
 40
18.0
 40
18.0
 40
19.0
 40
19.0
 40
19.0
 40
20.0
 40
20.0
 40
20.0
 40
21.0
 40
21.0
 40
21.0
 40
22.0
 40
22.0
 40
22.0
 40
23.0
 40
23.0
 40
23.0
 40
24.0
 40
24.0
 40
24.0
 40
25.0
 40
25.0
 40
25.0
 40
26.0
 40
26.0
 40
26.0
 40
27.0
 40
27.0
 40
27.0
 40
28.0
 40
28.0
 40
28.0
 40
29.0
 40
29.0
 40
29.0
 40
30.0
 40
30.0
 40
30.0
 40
31.0
 40
31.0
 40
31.0
 40
32.0
 40
32.0
 40
32.0
 40
33.0
 40
33.0
 40
33.0
 40
34.0
 40
34.0
 40
34.0
 40
35.0
 40
35.0
 40
35.0
 40
36.0
 40
36.0
 40
36.0
 40
37.0
 40
37.0
 40
37.0
 40
38.0
 40
38.0
 40
38.0
 40
39.0
 40
39.0
 40
39.0
 40
40.0
 40
40.0
 40
40.0
 40
41.0
 40
41.0
 40
41.0
 40
42.0
 40
42.0
 40
42.0
 40
43.0
 40
43.0
 40
43.0
 40
44.0
 40
44.0
 40
44.0
 40
45.0
 40
45.0
 40
45.0
 40
46.0
 40
46.0
 40
46.0
 40
47.0
 40
47.0
 40
47.0
 40
48.0
 40
48.0
 40
48.0
 40
49.0
 40
49.0
 40
49.0
 40
50.0
 40
50.0
 40
50.0
 40
51.0
 40
51.0
 40
51.0
 40
52.0
 40
52.0
 40
52.0
 40
53.0
 40
53.0
 40
53.0
 40
54.0
 40
54.0
 40
54.0
 40
55.0
 40
55.0
 40
55.0
 40
56.0
 40
56.0
 40
56.0
 40
56.0
 10
734.1556078743221
 20
148.7475132386827
 30
0.0
 10
734.1617462399444
 20
151.0349363817952
 30
0.0
 10
734.1225877006287
 20
153.322359524909
 30
0.0
 10
734.0457875744373
 20
155.6084773833852
 30
0.0
 10
733.9566401610701
 20
158.2613449487547
 30
0.0
 10
733.8167983143805
 20
160.912483893947
 30
0.0
 10
733.622310902467
 20
163.5597069851835
 30
0.0
 10
733.2392627765099
 20
168.7737546892189
 30
0.0
 10
732.6441940908416
 20
173.9726328690101
 30
0.0
 10
731.8339298288021
 20
179.1375383701066
 30
0.0
 10
730.2278299917102
 20
189.3753797218588
 30
0.0
 10
727.7761173733064
 20
199.4799409281147
 30
0.0
 10
724.531532528786
 20
209.3215401956152
 30
0.0
 10
721.28782963335
 20
219.1605288938418
 30
0.0
 10
717.2516778473506
 20
228.736696765134
 30
0.0
 10
712.5409761242887
 20
237.9639655789865
 30
0.0
 10
707.485608699383
 20
247.8663487773275
 30
0.0
 10
701.653420521657
 20
257.3668806952364
 30
0.0
 10
695.1710594795471
 20
266.4020962766498
 30
0.0
 10
689.2289451680552
 20
274.6843037305358
 30
0.0
 10
682.7405163162387
 20
282.5755255166828
 30
0.0
 10
675.6319008688787
 20
289.8795103250422
 30
0.0
 10
672.4197011946962
 20
293.1799754635002
 30
0.0
 10
669.080888910096
 20
296.3605308045631
 30
0.0
 10
665.6208262654711
 20
299.4003623498397
 30
0.0
 10
661.9232018157192
 20
302.648933604213
 30
0.0
 10
658.087111359832
 20
305.736813735568
 30
0.0
 10
654.1287827609808
 20
308.6608982831135
 30
0.0
 10
649.9534946875518
 20
311.7452153401738
 30
0.0
 10
645.6422100654534
 20
314.6473217165711
 30
0.0
 10
641.229430742814
 20
317.3816460993057
 30
0.0
 10
638.8305645135008
 20
318.8680830847363
 30
0.0
 10
636.4017120153483
 20
320.3049192537105
 30
0.0
 10
633.9489763360132
 20
321.7003038157414
 30
0.0
 10
631.4769436107151
 20
323.1066598243921
 30
0.0
 10
628.9806396466565
 20
324.4708939447986
 30
0.0
 10
626.4618988979009
 20
325.7927592312379
 30
0.0
 10
621.636120458416
 20
328.3253994975476
 30
0.0
 10
616.7280032524814
 20
330.7024992234743
 30
0.0
 10
611.7166980037806
 20
332.843271872981
 30
0.0
 10
607.3133026193927
 20
334.7243634343193
 30
0.0
 10
602.8301790378548
 20
336.4229620912875
 30
0.0
 10
598.2788278752088
 20
337.909469632635
 30
0.0
 10
591.9327103275225
 20
339.982155812895
 30
0.0
 10
585.453947637665
 20
341.6424073237087
 30
0.0
 10
578.9146479627143
 20
342.9909074724706
 30
0.0
 10
571.5451872543957
 20
344.5106115773287
 30
0.0
 10
564.098891141906
 20
345.634320543678
 30
0.0
 10
556.6294526854729
 20
346.5441039403141
 30
0.0
 10
552.1827712400678
 20
347.0856912335418
 30
0.0
 10
547.7279405851203
 20
347.5514661835488
 30
0.0
 10
543.2673949001266
 20
347.9600908329392
 30
0.0
 10
538.1091922120659
 20
348.4326038739532
 30
0.0
 10
532.9434047618843
 20
348.8286695683926
 30
0.0
 10
527.7748656305575
 20
349.1747463887812
 30
0.0
 10
522.0454068820926
 20
349.5584295180941
 30
0.0
 10
516.3125614491523
 20
349.8806584352644
 30
0.0
 10
510.5773171147018
 20
350.1592132338177
 30
0.0
 10
504.6815227690792
 20
350.4455291843028
 30
0.0
 10
498.7832236880638
 20
350.6856662807718
 30
0.0
 10
492.884077935916
 20
350.8963815558135
 30
0.0
 10
484.7936062128056
 20
351.1854139094795
 30
0.0
 10
476.7015822593034
 20
351.4190951386614
 30
0.0
 10
468.6087469126605
 20
351.6222609295485
 30
0.0
 10
457.1855659925932
 20
351.909035493558
 30
0.0
 10
445.7607975641832
 20
352.134955570803
 30
0.0
 10
434.3359233018786
 20
352.3500805912635
 30
0.0
 10
416.911043590241
 20
352.6782009283095
 30
0.0
 10
399.4858816548959
 20
352.9811680774931
 30
0.0
 10
382.0600847162096
 20
353.2473403109136
 30
0.0
 10
365.0132789377099
 20
353.5077269583413
 30
0.0
 10
347.9658381558799
 20
353.7329061983556
 30
0.0
 10
330.9181151503313
 20
353.9285577830543
 30
0.0
 10
298.5695986059931
 20
354.2997525133447
 30
0.0
 10
266.2199884447821
 20
354.5645841841511
 30
0.0
 10
233.8700607819128
 20
354.7752641812338
 30
0.0
 10
212.1861431118899
 20
354.9164818684907
 30
0.0
 10
190.5020843299953
 20
355.0333930390109
 30
0.0
 10
168.8179197142316
 20
355.1323477261827
 30
0.0
 10
147.1889298331147
 20
355.2310554676124
 30
0.0
 10
125.5598693960814
 20
355.3118772816414
 30
0.0
 10
103.9307736810957
 20
355.3805634762599
 30
0.0
 10
62.35572916013589
 20
355.5126088930598
 30
0.0
 10
20.78050824933848
 20
355.5997807404827
 30
0.0
 10
-20.79471266143295
 20
355.5982637880429
 30
0.0
 10
-40.23315268676248
 20
355.5975229508122
 30
0.0
 10
-59.67159271209169
 20
355.5774145117066
 30
0.0
 10
-79.10996218149144
 20
355.5274256376557
 30
0.0
 10
-93.93778406575498
 20
355.48929015929
 30
0.0
 10
-108.7655706720668
 20
355.4337626449815
 30
0.0
 10
-123.5932514444711
 20
355.3556219561754
 30
0.0
 10
-140.5100579280514
 20
355.2664745428024
 30
0.0
 10
-157.4267585777366
 20
355.1479405859799
 30
0.0
 10
-174.3431064477989
 20
354.9941992217438
 30
0.0
 10
-191.1234930471433
 20
354.8416925862079
 30
0.0
 10
-207.9035974227684
 20
354.654578268636
 30
0.0
 10
-224.6834195746872
 20
354.4450624443558
 30
0.0
 10
-235.4894478040362
 20
354.3101242345627
 30
0.0
 10
-246.2953349215385
 20
354.1659079204313
 30
0.0
 10
-257.1004106458867
 20
353.9677868782927
 30
0.0
 10
-265.3035601839103
 20
353.8173616425893
 30
0.0
 10
-273.506215830451
 20
353.6358212432405
 30
0.0
 10
-281.7073192466006
 20
353.398823885506
 30
0.0
 10
-287.765991948977
 20
353.2237393534373
 30
0.0
 10
-293.8238179802214
 20
353.0183863288229
 30
0.0
 10
-299.8797742794289
 20
352.7656902773958
 30
0.0
 10
-305.7447709630578
 20
352.5209670457022
 30
0.0
 10
-311.6080037485061
 20
352.2318288581415
 30
0.0
 10
-317.4673559579956
 20
351.8762269876412
 30
0.0
 10
-322.6597429925405
 20
351.5610889411134
 30
0.0
 10
-327.849060844268
 20
351.1937042308706
 30
0.0
 10
-333.0320639405612
 20
350.7520241298226
 30
0.0
 10
-337.4221948107258
 20
350.3779013285735
 30
0.0
 10
-341.8077395456722
 20
349.9504735247209
 30
0.0
 10
-346.1854172947802
 20
349.4476214352372
 30
0.0
 10
-353.7906759100853
 20
348.5740685069511
 30
0.0
 10
-361.3720513441953
 20
347.4728668812247
 30
0.0
 10
-368.8774733232453
 20
345.9680147989394
 30
0.0
 10
-373.3107138646142
 20
345.0791512345495
 30
0.0
 10
-377.7174606555263
 20
344.0494227625528
 30
0.0
 10
-382.0737246808918
 20
342.8388947284303
 30
0.0
 10
-384.2046195006573
 20
342.2467541137269
 30
0.0
 10
-386.3234139789895
 20
341.6113979939317
 30
0.0
 10
-388.4281325499567
 20
340.9320502538541
 30
0.0
 10
-390.9681811885732
 20
340.1121903857795
 30
0.0
 10
-393.4877333304898
 20
339.2283362921935
 30
0.0
 10
-395.9838609047288
 20
338.2829221525832
 30
0.0
 10
-398.0522078954922
 20
337.4995044206427
 30
0.0
 10
-400.1045034129333
 20
336.673823688617
 30
0.0
 10
-402.1403241214862
 20
335.8097605324777
 30
0.0
 10
-406.8565644848063
 20
333.8080183365008
 30
0.0
 10
-411.4845041058659
 20
331.6000764447962
 30
0.0
 10
-416.0392772309515
 20
329.2533863232619
 30
0.0
 10
-418.5600641015818
 20
327.9546633807808
 30
0.0
 10
-421.0584494654778
 20
326.6133952145082
 30
0.0
 10
-423.5337983193234
 20
325.2302521057449
 30
0.0
 10
-426.0899689871791
 20
323.8019532039102
 30
0.0
 10
-428.6215861925447
 20
322.3289571225081
 30
0.0
 10
-431.1205007259016
 20
320.8023385368319
 30
0.0
 10
-435.5127835518354
 20
318.1190260890846
 30
0.0
 10
-439.8041008466881
 20
315.2700483254862
 30
0.0
 10
-443.9652777347746
 20
312.2412235047758
 30
0.0
 10
-447.6299878447409
 20
309.5738214184911
 30
0.0
 10
-451.1937324236141
 20
306.7669302651594
 30
0.0
 10
-454.6404952760498
 20
303.8225961666482
 30
0.0
 10
-458.3064753927009
 20
300.6910771946359
 30
0.0
 10
-461.8400925908745
 20
297.4040882381771
 30
0.0
 10
-465.2362315659165
 20
293.9829724650856
 30
0.0
 10
-472.5213779418549
 20
286.644203584885
 30
0.0
 10
-479.1737434893068
 20
278.6882467359954
 30
0.0
 10
-485.2647308061037
 20
270.3276163696041
 30
0.0
 10
-491.6582972144839
 20
261.5515879848762
 30
0.0
 10
-497.4332645356624
 20
252.3296814214375
 30
0.0
 10
-502.4748382769101
 20
242.7162600208513
 30
0.0
 10
-507.4120245246359
 20
233.3019121673795
 30
0.0
 10
-511.6458740172008
 20
223.5120656721041
 30
0.0
 10
-515.0478691341589
 20
213.4404540836104
 30
0.0
 10
-518.2499440328526
 20
203.9606656081617
 30
0.0
 10
-520.7150622773145
 20
194.2312855420369
 30
0.0
 10
-522.3930938816598
 20
184.3668261543102
 30
0.0
 10
-523.2802288258335
 20
179.1516142774781
 30
0.0
 10
-523.9474056685606
 20
173.8986197019165
 30
0.0
 10
-524.3976230367357
 20
168.6276686430122
 30
0.0
 10
-524.6133830605457
 20
166.1015900778915
 30
0.0
 10
-524.7792953221388
 20
163.5713839910576
 30
0.0
 10
-524.8982878924985
 20
161.0389201145596
 30
0.0
 10
-525.0279696857343
 20
158.279795323593
 30
0.0
 10
-525.1019122968975
 20
155.5179894074097
 30
0.0
 10
-525.1126015197992
 20
152.7557954336326
 30
0.0
  0
ENDBLK
  5
109
330
106
100
AcDbEntity
  8
0
100
AcDbBlockEnd
  0
BLOCK
  5
10E
330
10C
100
AcDbEntity
  8
0
100
AcDbBlockBegin
  2
block 42
 70
     0
 10
0.0
 20
0.0
 30
0.0
  3
block 42
  1

  0
SPLINE
  5
110
330
10C
100
AcDbEntity
  8
0
 62
   250
370
    25
100
AcDbSpline
210
0.0
220
0.0
230
1.0
 70
     8
 71
     3
 72
    41
 73
    37
 74
     0
 42
0.0000000001
 43
0.0000000001
 12
1.0
 22
0.0
 32
0.0
 13
1.0
 23
0.0
 33
0.0
 40
0.0
 40
0.0
 40
0.0
 40
0.0
 40
1.0
 40
1.0
 40
1.0
 40
2.0
 40
2.0
 40
2.0
 40
3.0
 40
3.0
 40
3.0
 40
4.0
 40
4.0
 40
4.0
 40
5.0
 40
5.0
 40
5.0
 40
6.0
 40
6.0
 40
6.0
 40
7.0
 40
7.0
 40
7.0
 40
8.0
 40
8.0
 40
8.0
 40
9.0
 40
9.0
 40
9.0
 40
10.0
 40
10.0
 40
10.0
 40
11.0
 40
11.0
 40
11.0
 40
12.0
 40
12.0
 40
12.0
 40
12.0
 10
413.5716668582153
 20
321.5708053260768
 30
0.0
 10
407.7918311780991
 20
324.2664297830279
 30
0.0
 10
401.8808320302854
 20
326.6867450140543
 30
0.0
 10
395.8530628237983
 20
328.7706848646084
 30
0.0
 10
390.0767549400176
 20
330.7676645355305
 30
0.0
 10
384.1932020476747
 20
332.4557503594218
 30
0.0
 10
378.241880187743
 20
333.846866287905
 30
0.0
 10
371.7728542157726
 20
335.3590209086028
 30
0.0
 10
365.2237472670172
 20
336.5203361838758
 30
0.0
 10
358.6420787580853
 20
337.4264153943582
 30
0.0
 10
351.2709247075287
 20
338.4411860099066
 30
0.0
 10
343.8589187754172
 20
339.1358796640342
 30
0.0
 10
336.4364705661593
 20
339.6580993554056
 30
0.0
 10
331.9298165830621
 20
339.9751776899129
 30
0.0
 10
327.419317301971
 20
340.2287204124525
 30
0.0
 10
322.9066660651117
 20
340.4392592976826
 30
0.0
 10
317.3322186875741
 20
340.699398999369
 30
0.0
 10
311.7544904594437
 20
340.8939569671944
 30
0.0
 10
306.1761272279708
 20
341.0547186461501
 30
0.0
 10
300.3321914884615
 20
341.223170921113
 30
0.0
 10
294.4875149117266
 20
341.3545107786343
 30
0.0
 10
288.6424149994272
 20
341.4701519424638
 30
0.0
 10
283.5942795569906
 20
341.5699885787252
 30
0.0
 10
278.5458266128847
 20
341.6581482091195
 30
0.0
 10
273.4973383908255
 20
341.7434150465202
 30
0.0
 10
267.9175287628548
 20
341.8376777645719
 30
0.0
 10
262.3376838569205
 20
341.9284126862881
 30
0.0
 10
256.7577683950692
 20
342.0131150762704
 30
0.0
 10
246.6607566729724
 20
342.166362549037
 30
0.0
 10
236.563356893288
 20
342.2997485284261
 30
0.0
 10
226.4657807237798
 20
342.4128849568698
 30
0.0
 10
214.7737464450819
 20
342.5438720347551
 30
0.0
 10
203.0814652206433
 20
342.6476598029121
 30
0.0
 10
191.3890428843444
 20
342.736242768866
 30
0.0
 10
162.6897141461113
 20
342.9536255789778
 30
0.0
 10
133.9897151265581
 20
343.079179850513
 30
0.0
 10
105.2897513849698
 20
343.1729486770755
 30
0.0
  0
ENDBLK
  5
10F
330
10C
100
AcDbEntity
  8
0
100
AcDbBlockEnd
  0
BLOCK
  5
113
330
111
100
AcDbEntity
  8
0
100
AcDbBlockBegin
  2
block 43
 70
     0
 10
0.0
 20
0.0
 30
0.0
  3
block 43
  1

  0
SPLINE
  5
115
330
111
100
AcDbEntity
  8
0
 62
   250
370
    25
100
AcDbSpline
210
0.0
220
0.0
230
1.0
 70
     8
 71
     3
 72
    41
 73
    37
 74
     0
 42
0.0000000001
 43
0.0000000001
 12
1.0
 22
0.0
 32
0.0
 13
1.0
 23
0.0
 33
0.0
 40
0.0
 40
0.0
 40
0.0
 40
0.0
 40
1.0
 40
1.0
 40
1.0
 40
2.0
 40
2.0
 40
2.0
 40
3.0
 40
3.0
 40
3.0
 40
4.0
 40
4.0
 40
4.0
 40
5.0
 40
5.0
 40
5.0
 40
6.0
 40
6.0
 40
6.0
 40
7.0
 40
7.0
 40
7.0
 40
8.0
 40
8.0
 40
8.0
 40
9.0
 40
9.0
 40
9.0
 40
10.0
 40
10.0
 40
10.0
 40
11.0
 40
11.0
 40
11.0
 40
12.0
 40
12.0
 40
12.0
 40
12.0
 10
105.2897513849698
 20
343.1729486770755
 30
0.0
 10
76.58971708745167
 20
343.2636835987981
 30
0.0
 10
47.88957695605171
 20
343.3196344486539
 30
0.0
 10
19.18936626872162
 20
343.2864731631138
 30
0.0
 10
7.496908654470992
 20
343.2729617031549
 30
0.0
 10
-4.19554895979247
 20
343.2446687765529
 30
0.0
 10
-15.88783018421862
 20
343.1875890318782
 30
0.0
 10
-25.98597080115264
 20
343.1383057170682
 30
0.0
 10
-36.08400558417946
 20
343.0675381226101
 30
0.0
 10
-46.18193453332442
 20
342.9813893361256
 30
0.0
 10
-56.54540071255376
 20
342.8929827599898
 30
0.0
 10
-66.90883161380569
 20
342.7883483207208
 30
0.0
 10
-77.27169806764464
 20
342.6504114840521
 30
0.0
 10
-83.64907189085582
 20
342.5655327042525
 30
0.0
 10
-90.02619876832588
 20
342.4680596915358
 30
0.0
 10
-96.40254953059359
 20
342.3219030894057
 30
0.0
 10
-101.7160810912546
 20
342.2000882819827
 30
0.0
 10
-107.0290482044899
 20
342.0445124636484
 30
0.0
 10
-112.339475304381
 20
341.8302693922711
 30
0.0
 10
-116.8532554360666
 20
341.6481998234618
 30
0.0
 10
-121.3651658357022
 20
341.4237261427133
 30
0.0
 10
-125.8736189949192
 20
341.1355757381377
 30
0.0
 10
-133.2994186107014
 20
340.6610165752489
 30
0.0
 10
-140.7158695661969
 20
340.0137012258796
 30
0.0
 10
-148.0934794840479
 20
339.0459561354785
 30
0.0
 10
-154.6807219111758
 20
338.1819282572977
 30
0.0
 10
-161.2369902864972
 20
337.0624526465569
 30
0.0
 10
-167.7154354746837
 20
335.5917143548126
 30
0.0
 10
-173.6756826593237
 20
334.2386280708196
 30
0.0
 10
-179.5700306084504
 20
332.5882543897339
 30
0.0
 10
-185.3592149488536
 20
330.6282107464348
 30
0.0
 10
-188.3796436143032
 20
329.6055731450676
 30
0.0
 10
-191.3714265735144
 20
328.4986917672427
 30
0.0
 10
-194.3326235384953
 20
327.3151513750667
 30
0.0
 10
-197.2939616153485
 20
326.1315757049322
 30
0.0
 10
-200.2246431420412
 20
324.8713762984179
 30
0.0
 10
-203.1229394983966
 20
323.5410795787465
 30
0.0
  0
ENDBLK
  5
114
330
111
100
AcDbEntity
  8
0
100
AcDbBlockEnd
  0
BLOCK
  5
118
330
116
100
AcDbEntity
  8
0
100
AcDbBlockBegin
  2
block 44
 70
     0
 10
0.0
 20
0.0
 30
0.0
  3
block 44
  1

  0
SPLINE
  5
11A
330
116
100
AcDbEntity
  8
0
 62
   250
370
    25
100
AcDbSpline
210
0.0
220
0.0
230
1.0
 70
     8
 71
     3
 72
     8
 73
     4
 74
     0
 42
0.0000000001
 43
0.0000000001
 12
1.0
 22
0.0
 32
0.0
 13
1.0
 23
0.0
 33
0.0
 40
0.0
 40
0.0
 40
0.0
 40
0.0
 40
1.0
 40
1.0
 40
1.0
 40
1.0
 10
-694.7042488614538
 20
151.25845755753
 30
0.0
 10
-694.7042488614538
 20
151.25845755753
 30
0.0
 10
-694.709963891523
 20
151.2578931101173
 30
0.0
 10
-694.7124333489502
 20
151.2557058764029
 30
0.0
  0
ENDBLK
  5
119
330
116
100
AcDbEntity
  8
0
100
AcDbBlockEnd
  0
BLOCK
  5
11D
330
11B
100
AcDbEntity
  8
0
100
AcDbBlockBegin
  2
block 45
 70
     0
 10
0.0
 20
0.0
 30
0.0
  3
block 45
  1

  0
SPLINE
  5
11F
330
11B
100
AcDbEntity
  8
0
 62
   250
370
    25
100
AcDbSpline
210
0.0
220
0.0
230
1.0
 70
     8
 71
     3
 72
    11
 73
     7
 74
     0
 42
0.0000000001
 43
0.0000000001
 12
1.0
 22
0.0
 32
0.0
 13
1.0
 23
0.0
 33
0.0
 40
0.0
 40
0.0
 40
0.0
 40
0.0
 40
1.0
 40
1.0
 40
1.0
 40
2.0
 40
2.0
 40
2.0
 40
2.0
 10
-694.7124333489502
 20
151.2557058764029
 30
0.0
 10
-694.7518388340072
 20
151.2210981943476
 30
0.0
 10
-694.6607864106262
 20
151.2468863855576
 30
0.0
 10
-694.6344690499685
 20
151.2453694331306
 30
0.0
 10
-694.6076225198625
 20
151.2438524807049
 30
0.0
 10
-694.580775989757
 20
151.2427235858796
 30
0.0
 10
-694.5539294596643
 20
151.2417005249419
 30
0.0
  0
ENDBLK
  5
11E
330
11B
100
AcDbEntity
  8
0
100
AcDbBlockEnd
  0
BLOCK
  5
122
330
120
100
AcDbEntity
  8
0
100
AcDbBlockBegin
  2
block 46
 70
     0
 10
0.0
 20
0.0
 30
0.0
  3
block 46
  1

  0
SPLINE
  5
124
330
120
100
AcDbEntity
  8
0
 62
   250
370
    25
100
AcDbSpline
210
0.0
220
0.0
230
1.0
 70
     8
 71
     3
 72
    41
 73
    37
 74
     0
 42
0.0000000001
 43
0.0000000001
 12
1.0
 22
0.0
 32
0.0
 13
1.0
 23
0.0
 33
0.0
 40
0.0
 40
0.0
 40
0.0
 40
0.0
 40
1.0
 40
1.0
 40
1.0
 40
2.0
 40
2.0
 40
2.0
 40
3.0
 40
3.0
 40
3.0
 40
4.0
 40
4.0
 40
4.0
 40
5.0
 40
5.0
 40
5.0
 40
6.0
 40
6.0
 40
6.0
 40
7.0
 40
7.0
 40
7.0
 40
8.0
 40
8.0
 40
8.0
 40
9.0
 40
9.0
 40
9.0
 40
10.0
 40
10.0
 40
10.0
 40
11.0
 40
11.0
 40
11.0
 40
12.0
 40
12.0
 40
12.0
 40
12.0
 10
412.567867689274
 20
-21.68968173123253
 30
0.0
 10
406.77092219694
 20
-24.34829953748237
 30
0.0
 10
400.8445418570992
 20
-26.73079673162286
 30
0.0
 10
394.8035434143531
 20
-28.77614243860447
 30
0.0
 10
389.0145707417403
 20
-30.73618603239657
 30
0.0
 10
383.1203286264954
 20
-32.38659494974891
 30
0.0
 10
377.1602225537147
 20
-33.73968119956493
 30
0.0
 10
370.6816362536689
 20
-35.21045473209994
 30
0.0
 10
364.1252620444646
 20
-36.3298597586505
 30
0.0
 10
357.5379137834425
 20
-37.19388761500137
 30
0.0
 10
350.1604449774384
 20
-38.16152684707831
 30
0.0
 10
342.7441351338022
 20
-38.80880690213159
 30
0.0
 10
335.3184766298672
 20
-39.28357772077722
 30
0.0
 10
330.809882358804
 20
-39.57186922994197
 30
0.0
 10
326.2978661252852
 20
-39.79655457280138
 30
0.0
 10
321.7839448817404
 20
-39.97827135738007
 30
0.0
 10
316.2079452738129
 20
-40.20274503246167
 30
0.0
 10
310.6290881508565
 20
-40.36163697533085
 30
0.0
 10
305.049807692347
 20
-40.48676790814421
 30
0.0
 10
299.2049194478241
 20
-40.61786081661231
 30
0.0
 10
293.3595373118189
 20
-40.71184130858989
 30
0.0
 10
287.513802396175
 20
-40.79008782930209
 30
0.0
 10
282.4651377842919
 20
-40.85771568332445
 30
0.0
 10
277.4161909487012
 20
-40.91356069789305
 30
0.0
 10
272.3672793910767
 20
-40.96658347544841
 30
0.0
 10
266.7869758716245
 20
-41.02518017107353
 30
0.0
 10
261.2066723521716
 20
-41.08024907046578
 30
0.0
 10
255.6262982767895
 20
-41.12928543827091
 30
0.0
 10
245.5285104395047
 20
-41.21797423587351
 30
0.0
 10
235.4305109344287
 20
-41.28683681857673
 30
0.0
 10
225.3323703175078
 20
-41.33541457287738
 30
0.0
 10
213.6397715913973
 20
-41.39164764502069
 30
0.0
 10
201.9470670314055
 20
-41.42071668607971
 30
0.0
 10
190.2543271934483
 20
-41.43454564737036
 30
0.0
 10
161.5541870620483
 20
-41.46851832520399
 30
0.0
 10
132.8539763747057
 20
-41.41062718881261
 30
0.0
 10
104.153977355165
 20
-41.32095060826995
 30
0.0
  0
ENDBLK
  5
123
330
120
100
AcDbEntity
  8
0
100
AcDbBlockEnd
  0
BLOCK
  5
127
330
125
100
AcDbEntity
  8
0
100
AcDbBlockBegin
  2
block 47
 70
     0
 10
0.0
 20
0.0
 30
0.0
  3
block 47
  1

  0
SPLINE
  5
129
330
125
100
AcDbEntity
  8
0
 62
   250
370
    25
100
AcDbSpline
210
0.0
220
0.0
230
1.0
 70
     8
 71
     3
 72
    77
 73
    73
 74
     0
 42
0.0000000001
 43
0.0000000001
 12
1.0
 22
0.0
 32
0.0
 13
1.0
 23
0.0
 33
0.0
 40
0.0
 40
0.0
 40
0.0
 40
0.0
 40
1.0
 40
1.0
 40
1.0
 40
2.0
 40
2.0
 40
2.0
 40
3.0
 40
3.0
 40
3.0
 40
4.0
 40
4.0
 40
4.0
 40
5.0
 40
5.0
 40
5.0
 40
6.0
 40
6.0
 40
6.0
 40
7.0
 40
7.0
 40
7.0
 40
8.0
 40
8.0
 40
8.0
 40
9.0
 40
9.0
 40
9.0
 40
10.0
 40
10.0
 40
10.0
 40
11.0
 40
11.0
 40
11.0
 40
12.0
 40
12.0
 40
12.0
 40
13.0
 40
13.0
 40
13.0
 40
14.0
 40
14.0
 40
14.0
 40
15.0
 40
15.0
 40
15.0
 40
16.0
 40
16.0
 40
16.0
 40
17.0
 40
17.0
 40
17.0
 40
18.0
 40
18.0
 40
18.0
 40
19.0
 40
19.0
 40
19.0
 40
20.0
 40
20.0
 40
20.0
 40
21.0
 40
21.0
 40
21.0
 40
22.0
 40
22.0
 40
22.0
 40
23.0
 40
23.0
 40
23.0
 40
24.0
 40
24.0
 40
24.0
 40
24.0
 10
-204.126738667337
 20
-19.71820807762408
 30
0.0
 10
-208.0765652770329
 20
-17.87362925493004
 30
0.0
 10
-211.9728046604123
 20
-15.91288010190548
 30
0.0
 10
-215.8049087064462
 20
-13.83405560854744
 30
0.0
 10
-219.6373302541257
 20
-11.75505472537711
 30
0.0
 10
-223.4055811865074
 20
-9.557978501886126
 30
0.0
 10
-227.0899058440835
 20
-7.226810743115618
 30
0.0
 10
-234.1071513663922
 20
-2.78683222290364
 30
0.0
 10
-240.8199127871031
 20
2.139523565622381
 30
0.0
 10
-247.133151272956
 20
7.533135966809653
 30
0.0
 10
-253.2887678185944
 20
12.79209238533041
 30
0.0
 10
-259.064546532927
 20
18.49526890702636
 30
0.0
 10
-264.4303247572896
 20
24.55888037109008
 30
0.0
 10
-267.1820411759551
 20
27.66845637134238
 30
0.0
 10
-269.8259481386454
 20
30.87285953467201
 30
0.0
 10
-272.3632098181635
 20
34.15963674031079
 30
0.0
 10
-275.0272604979115
 20
37.61059758321426
 30
0.0
 10
-277.5737297258569
 20
41.15239917941148
 30
0.0
 10
-279.992175224827
 20
44.77992622437824
 30
0.0
 10
-284.5988775119557
 20
51.6896443398682
 30
0.0
 10
-288.7411101337141
 20
58.91030241640216
 30
0.0
 10
-292.3419671300287
 20
66.3933226996859
 30
0.0
 10
-295.9427182924612
 20
73.87613131519181
 30
0.0
 10
-299.0021291073888
 20
81.62126685948454
 30
0.0
 10
-301.4510900446597
 20
89.55595089603656
 30
0.0
 10
-303.8388789934821
 20
97.29244333953115
 30
0.0
 10
-305.6462748894047
 20
105.2091356152249
 30
0.0
 10
-306.8408220061344
 20
113.2171009196168
 30
0.0
 10
-307.4228378453554
 20
117.1185614415698
 30
0.0
 10
-307.8593320857823
 20
121.0416826330195
 30
0.0
 10
-308.1540794695177
 20
124.9754577693942
 30
0.0
 10
-308.4643138791497
 20
129.1161381607738
 30
0.0
 10
-308.6662880795276
 20
133.2690412283984
 30
0.0
 10
-308.6014746006227
 20
137.4208529552749
 30
0.0
 10
-308.4140962962846
 20
149.423903161287
 30
0.0
 10
-309.1250848782161
 20
154.6912414377373
 30
0.0
 10
-308.6014746006227
 20
167.0730109902545
 30
0.0
 10
-308.5716647215941
 20
175.3107329323367
 30
0.0
 10
-307.9123195867338
 20
183.5470790338843
 30
0.0
 10
-306.6220633554494
 20
191.6834473872915
 30
0.0
 10
-305.3734703988724
 20
199.557206581591
 30
0.0
 10
-303.5340773902003
 20
207.3373380611946
 30
0.0
 10
-301.1321772560482
 20
214.9388572123748
 30
0.0
 10
-298.650301978979
 20
222.7936368624011
 30
0.0
 10
-295.5678193760228
 20
230.4577743985135
 30
0.0
 10
-291.9546856484636
 20
237.8609608397912
 30
0.0
 10
-288.3413049751626
 20
245.2645353386642
 30
0.0
 10
-284.1972026213418
 20
252.4071587426967
 30
0.0
 10
-279.595933140563
 20
259.2407471878453
 30
0.0
 10
-277.2212323161398
 20
262.7674851831787
 30
0.0
 10
-274.72478724021
 20
266.2119549679985
 30
0.0
 10
-272.1171813018069
 20
269.5701348544736
 30
0.0
 10
-269.5094342515441
 20
272.9285264087382
 30
0.0
 10
-266.7646998400721
 20
276.1778277516664
 30
0.0
 10
-263.9589758890722
 20
279.3726814165602
 30
0.0
 10
-262.0896550396276
 20
281.5012609457706
 30
0.0
 10
-248.7236092096086
 20
294.5415541496135
 30
0.0
 10
-246.2661600458526
 20
296.5979584116105
 30
0.0
 10
-243.1072546877329
 20
299.2413443002958
 30
0.0
 10
-239.8703711257863
 20
301.7928501815412
 30
0.0
 10
-236.5373091491945
 20
304.2130948566441
 30
0.0
 10
-233.3118802387791
 20
306.555198842941
 30
0.0
 10
-230.0055236804457
 20
308.7851894617369
 30
0.0
 10
-226.630022313957
 20
310.9050422789775
 30
0.0
 10
-222.9166991705066
 20
313.2370567677557
 30
0.0
 10
-219.1196966980047
 20
315.4357911110274
 30
0.0
 10
-215.2560188748
 20
317.5093239623988
 30
0.0
 10
-213.2658125728434
 20
318.5773995805513
 30
0.0
 10
-211.2579320112435
 20
319.612278635211
 30
0.0
 10
-209.2354463728308
 20
320.617982814154
 30
0.0
 10
-207.2131018462651
 20
321.623616437198
 30
0.0
 10
-205.1761522428865
 20
322.6000751845561
 30
0.0
 10
-203.1229394983966
 20
323.5410795787465
 30
0.0
  0
ENDBLK
  5
128
330
125
100
AcDbEntity
  8
0
100
AcDbBlockEnd
  0
BLOCK
  5
12C
330
12A
100
AcDbEntity
  8
0
100
AcDbBlockBegin
  2
block 48
 70
     0
 10
0.0
 20
0.0
 30
0.0
  3
block 48
  1

  0
SPLINE
  5
12E
330
12A
100
AcDbEntity
  8
0
 62
   250
370
    25
100
AcDbSpline
210
0.0
220
0.0
230
1.0
 70
     8
 71
     3
 72
    41
 73
    37
 74
     0
 42
0.0000000001
 43
0.0000000001
 12
1.0
 22
0.0
 32
0.0
 13
1.0
 23
0.0
 33
0.0
 40
0.0
 40
0.0
 40
0.0
 40
0.0
 40
1.0
 40
1.0
 40
1.0
 40
2.0
 40
2.0
 40
2.0
 40
3.0
 40
3.0
 40
3.0
 40
4.0
 40
4.0
 40
4.0
 40
5.0
 40
5.0
 40
5.0
 40
6.0
 40
6.0
 40
6.0
 40
7.0
 40
7.0
 40
7.0
 40
8.0
 40
8.0
 40
8.0
 40
9.0
 40
9.0
 40
9.0
 40
10.0
 40
10.0
 40
10.0
 40
11.0
 40
11.0
 40
11.0
 40
12.0
 40
12.0
 40
12.0
 40
12.0
 10
-204.126738667337
 20
-19.71820807762408
 30
0.0
 10
-201.2370148560794
 20
-21.06702569398228
 30
0.0
 10
-198.3144472609407
 20
-22.34592238875454
 30
0.0
 10
-195.3607292241841
 20
-23.54840701686213
 30
0.0
 10
-192.407187577233
 20
-24.75082108905147
 30
0.0
 10
-189.4225660445812
 20
-25.87682309456329
 30
0.0
 10
-186.4087343582978
 20
-26.91875771555235
 30
0.0
 10
-180.6322148067278
 20
-28.91573733603681
 30
0.0
 10
-174.748520802525
 20
-30.60378783931525
 30
0.0
 10
-168.7970931087242
 20
-31.99493901061172
 30
0.0
 10
-162.3282082486012
 20
-33.5070583151565
 30
0.0
 10
-155.7792071337274
 20
-34.66840883905524
 30
0.0
 10
-149.1976444586914
 20
-35.57452330460104
 30
0.0
 10
-141.8263845742392
 20
-36.58936445043688
 30
0.0
 10
-134.4142375302816
 20
-37.28409336497833
 30
0.0
 10
-126.9916129311989
 20
-37.80613665333832
 30
0.0
 10
-122.4851000599613
 20
-38.12307386799747
 30
0.0
 10
-117.9747066127648
 20
-38.3763696383973
 30
0.0
 10
-113.4621964877513
 20
-38.58729657589588
 30
0.0
 10
-108.1532510623216
 20
-38.83547704174584
 30
0.0
 10
-102.8413775659468
 20
-39.02502553397948
 30
0.0
 10
-97.52876323233488
 20
-39.1807777382046
 30
0.0
 10
-91.15347080896238
 20
-39.36768038327706
 30
0.0
 10
-84.77708476872978
 20
-39.50593471811909
 30
0.0
 10
-78.40041650479085
 20
-39.63159482036674
 30
0.0
 10
-68.0386083898407
 20
-39.83574838908022
 30
0.0
 10
-57.67605943766656
 20
-40.00659956122827
 30
0.0
 10
-47.31336937363925
 20
-40.16125814861799
 30
0.0
 10
-37.21618126173143
 20
-40.31193032624466
 30
0.0
 10
-27.11885203796402
 20
-40.44725659020634
 30
0.0
 10
-17.0212405904906
 20
-40.56106329705634
 30
0.0
 10
-5.329523813464277
 20
-40.69289704274939
 30
0.0
 10
6.362510465233272
 20
-40.79590869311265
 30
0.0
 10
18.05465057781267
 20
-40.88413887719663
 30
0.0
 10
46.75404987198834
 20
-41.10074556664618
 30
0.0
 10
75.4539430576472
 20
-41.22824012295161
 30
0.0
 10
104.153977355165
 20
-41.32095060826995
 30
0.0
  0
ENDBLK
  5
12D
330
12A
100
AcDbEntity
  8
0
100
AcDbBlockEnd
  0
BLOCK
  5
131
330
12F
100
AcDbEntity
  8
0
100
AcDbBlockBegin
  2
block 49
 70
     0
 10
0.0
 20
0.0
 30
0.0
  3
block 49
  1

  0
SPLINE
  5
133
330
12F
100
AcDbEntity
  8
0
 62
   250
370
    25
100
AcDbSpline
210
0.0
220
0.0
230
1.0
 70
     8
 71
     3
 72
    68
 73
    64
 74
     0
 42
0.0000000001
 43
0.0000000001
 12
1.0
 22
0.0
 32
0.0
 13
1.0
 23
0.0
 33
0.0
 40
0.0
 40
0.0
 40
0.0
 40
0.0
 40
1.0
 40
1.0
 40
1.0
 40
2.0
 40
2.0
 40
2.0
 40
3.0
 40
3.0
 40
3.0
 40
4.0
 40
4.0
 40
4.0
 40
5.0
 40
5.0
 40
5.0
 40
6.0
 40
6.0
 40
6.0
 40
7.0
 40
7.0
 40
7.0
 40
8.0
 40
8.0
 40
8.0
 40
9.0
 40
9.0
 40
9.0
 40
10.0
 40
10.0
 40
10.0
 40
11.0
 40
11.0
 40
11.0
 40
12.0
 40
12.0
 40
12.0
 40
13.0
 40
13.0
 40
13.0
 40
14.0
 40
14.0
 40
14.0
 40
15.0
 40
15.0
 40
15.0
 40
16.0
 40
16.0
 40
16.0
 40
17.0
 40
17.0
 40
17.0
 40
18.0
 40
18.0
 40
18.0
 40
19.0
 40
19.0
 40
19.0
 40
20.0
 40
20.0
 40
20.0
 40
21.0
 40
21.0
 40
21.0
 40
21.0
 10
413.5716668582153
 20
321.5708053260768
 30
0.0
 10
417.5220226373709
 20
319.7266850703204
 30
0.0
 10
421.418614800387
 20
317.7659711457145
 30
0.0
 10
425.2508952362201
 20
315.6868996540977
 30
0.0
 10
429.0832109500303
 20
313.607828162481
 30
0.0
 10
432.8512149366573
 20
311.4103991038533
 30
0.0
 10
436.5353279264576
 20
309.0790548963754
 30
0.0
 10
443.5526440046958
 20
304.6385118165875
 30
0.0
 10
450.2657229270654
 20
299.7121911815753
 30
0.0
 10
456.5792436366243
 20
294.3184022543103
 30
0.0
 10
462.7347190704159
 20
289.0596573707273
 30
0.0
 10
468.5103919508541
 20
283.356621816809
 30
0.0
 10
473.8760290633689
 20
277.2932218673418
 30
0.0
 10
476.6277454820348
 20
274.183681066497
 30
0.0
 10
479.2716171667602
 20
270.9793483781597
 30
0.0
 10
481.8089846801599
 20
267.6926416454007
 30
0.0
 10
484.4731764717681
 20
264.2416454373646
 30
0.0
 10
487.0199279234192
 20
260.6998437516875
 30
0.0
 10
489.438514534237
 20
257.0722813371142
 30
0.0
 10
494.0452873772956
 20
250.1627747148574
 30
0.0
 10
498.1870966635005
 20
242.9422222898017
 30
0.0
 10
501.7880242157449
 20
235.4593076513738
 30
0.0
 10
505.3890928798361
 20
227.9761107892333
 30
0.0
 10
508.4492445319999
 20
220.2305164357564
 30
0.0
 10
510.8979232455651
 20
212.2953735852504
 30
0.0
 10
513.2240463144567
 20
204.7573900460385
 30
0.0
 10
514.9983867587207
 20
197.0483436625891
 30
0.0
 10
516.1942038821356
 20
189.2506084792913
 30
0.0
 10
517.4530274480832
 20
181.0421319687927
 30
0.0
 10
517.7905929847054
 20
177.7358926796339
 30
0.0
 10
517.9857859188922
 20
169.4339304388596
 30
0.0
 10
518.1778786979263
 20
161.2638242571016
 30
0.0
 10
518.3881072390541
 20
144.6683724683026
 30
0.0
 10
518.046438069465
 20
134.7789921144459
 30
0.0
 10
517.7597040783712
 20
126.4796729172163
 30
0.0
 10
517.3466996665697
 20
118.1721378167912
 30
0.0
 10
516.0353472132136
 20
109.9718722138989
 30
0.0
 10
514.7896470496297
 20
102.1819336572946
 30
0.0
 10
512.9660232905736
 20
94.4843880843432
 30
0.0
 10
510.5916752457867
 20
86.96143314756209
 30
0.0
 10
508.0922668209463
 20
79.0420950246879
 30
0.0
 10
504.9825849082483
 20
71.31622124788959
 30
0.0
 10
501.3336793258507
 20
63.85620219611994
 30
0.0
 10
497.6849148553241
 20
56.3964653680579
 30
0.0
 10
493.4969619930623
 20
49.20251270909603
 30
0.0
 10
488.8460564178682
 20
42.32260447187079
 30
0.0
 10
486.4042921851286
 20
38.71059973040057
 30
0.0
 10
483.8349275589784
 20
35.18513183080714
 30
0.0
 10
481.1486870402865
 20
31.7512455217401
 30
0.0
 10
478.5903644166617
 20
28.48080201271153
 30
0.0
 10
475.9260315131952
 20
25.29343810523998
 30
0.0
 10
473.1544536011652
 20
22.20153636418178
 30
0.0
 10
467.7501165628649
 20
16.17256785924043
 30
0.0
 10
461.9380368242574
 20
10.50653903200054
 30
0.0
 10
455.7490473252908
 20
5.287270321255606
 30
0.0
 10
449.4010953235198
 20
-0.0660546468302666
 30
0.0
 10
442.6566190137651
 20
-4.949371321159873
 30
0.0
 10
435.6110452868898
 20
-9.344970164613361
 30
0.0
 10
431.9120449965582
 20
-11.652713356309
 30
0.0
 10
428.1300709364485
 20
-13.82601223311594
 30
0.0
 10
424.2845259863922
 20
-15.88056548830579
 30
0.0
 10
420.4390163142873
 20
-17.93508346553267
 30
0.0
 10
416.5299710302155
 20
-19.87085582115529
 30
0.0
 10
412.567867689274
 20
-21.68968173123253
 30
0.0
  0
ENDBLK
  5
132
330
12F
100
AcDbEntity
  8
0
100
AcDbBlockEnd
  0
BLOCK
  5
136
330
134
100
AcDbEntity
  8
0
100
AcDbBlockBegin
  2
block 50
 70
     0
 10
0.0
 20
0.0
 30
0.0
  3
block 50
  1

  0
SPLINE
  5
138
330
134
100
AcDbEntity
  8
0
 62
   250
370
    25
100
AcDbSpline
210
0.0
220
0.0
230
1.0
 70
    11
 71
     3
 72
    17
 73
    13
 74
     0
 42
0.0000000001
 43
0.0000000001
 12
1.0
 22
0.0
 32
0.0
 13
1.0
 23
0.0
 33
0.0
 40
0.0
 40
0.0
 40
0.0
 40
0.0
 40
1.0
 40
1.0
 40
1.0
 40
2.0
 40
2.0
 40
2.0
 40
3.0
 40
3.0
 40
3.0
 40
4.0
 40
4.0
 40
4.0
 40
4.0
 10
78.436047991195
 20
149.8911183592736
 30
0.0
 10
78.436047991195
 20
164.4234698421031
 30
0.0
 10
90.21661478916474
 20
176.2024217429567
 30
0.0
 10
104.7489662719946
 20
176.2024217429567
 30
0.0
 10
119.2813177548231
 20
176.2024217429567
 30
0.0
 10
131.0618845527926
 20
164.4234698421031
 30
0.0
 10
131.0618845527926
 20
149.8911183592736
 30
0.0
 10
131.0618845527926
 20
135.3587668764441
 30
0.0
 10
119.2813177548231
 20
123.5782000784747
 30
0.0
 10
104.7489662719946
 20
123.5782000784747
 30
0.0
 10
90.21661478916474
 20
123.5782000784747
 30
0.0
 10
78.436047991195
 20
135.3587668764441
 30
0.0
 10
78.436047991195
 20
149.8911183592736
 30
0.0
  0
ENDBLK
  5
137
330
134
100
AcDbEntity
  8
0
100
AcDbBlockEnd
  0
BLOCK
  5
13B
330
139
100
AcDbEntity
  8
0
100
AcDbBlockBegin
  2
block 51
 70
     0
 10
0.0
 20
0.0
 30
0.0
  3
block 51
  1

  0
SPLINE
  5
13D
330
139
100
AcDbEntity
  8
0
 62
   250
370
    25
100
AcDbSpline
210
0.0
220
0.0
230
1.0
 70
    11
 71
     3
 72
    17
 73
    13
 74
     0
 42
0.0000000001
 43
0.0000000001
 12
1.0
 22
0.0
 32
0.0
 13
1.0
 23
0.0
 33
0.0
 40
0.0
 40
0.0
 40
0.0
 40
0.0
 40
1.0
 40
1.0
 40
1.0
 40
2.0
 40
2.0
 40
2.0
 40
3.0
 40
3.0
 40
3.0
 40
4.0
 40
4.0
 40
4.0
 40
4.0
 10
59.76288498453647
 20
150.3690202456621
 30
0.0
 10
59.76288498453647
 20
175.0828674026652
 30
0.0
 10
79.79686796054693
 20
195.1152354815605
 30
0.0
 10
104.5091002204348
 20
195.1152354815605
 30
0.0
 10
129.2230550372445
 20
195.1152354815605
 30
0.0
 10
149.257038013255
 20
175.0828674026652
 30
0.0
 10
149.257038013255
 20
150.3690202456621
 30
0.0
 10
149.257038013255
 20
125.6551730886591
 30
0.0
 10
129.2230550372445
 20
105.621190112655
 30
0.0
 10
104.5091002204348
 20
105.621190112655
 30
0.0
 10
79.79686796054693
 20
105.621190112655
 30
0.0
 10
59.76288498453647
 20
125.6551730886591
 30
0.0
 10
59.76288498453647
 20
150.3690202456621
 30
0.0
  0
ENDBLK
  5
13C
330
139
100
AcDbEntity
  8
0
100
AcDbBlockEnd
  0
BLOCK
  5
140
330
13E
100
AcDbEntity
  8
0
100
AcDbBlockBegin
  2
block 52
 70
     0
 10
0.0
 20
0.0
 30
0.0
  3
block 52
  1

  0
SPLINE
  5
142
330
13E
100
AcDbEntity
  8
0
 62
   250
370
    25
100
AcDbSpline
210
0.0
220
0.0
230
1.0
 70
     8
 71
     3
 72
    38
 73
    34
 74
     0
 42
0.0000000001
 43
0.0000000001
 12
1.0
 22
0.0
 32
0.0
 13
1.0
 23
0.0
 33
0.0
 40
0.0
 40
0.0
 40
0.0
 40
0.0
 40
1.0
 40
1.0
 40
1.0
 40
2.0
 40
2.0
 40
2.0
 40
3.0
 40
3.0
 40
3.0
 40
4.0
 40
4.0
 40
4.0
 40
5.0
 40
5.0
 40
5.0
 40
6.0
 40
6.0
 40
6.0
 40
7.0
 40
7.0
 40
7.0
 40
8.0
 40
8.0
 40
8.0
 40
9.0
 40
9.0
 40
9.0
 40
10.0
 40
10.0
 40
10.0
 40
11.0
 40
11.0
 40
11.0
 40
11.0
 10
879.6353343944592
 20
146.1655667539953
 30
0.0
 10
879.5697717771135
 20
130.4442278706669
 30
0.0
 10
878.4491965070232
 20
114.7252431263032
 30
0.0
 10
876.2501908819462
 20
99.15799589641232
 30
0.0
 10
874.0513242343352
 20
83.59147829816551
 30
0.0
 10
870.7740967204895
 20
68.17668933941475
 30
0.0
 10
866.4515154874531
 20
53.06170950137435
 30
0.0
 10
862.1288300213255
 20
37.94645170842525
 30
0.0
 10
856.7607213472522
 20
23.13100303619934
 30
0.0
 10
850.4352316869821
 20
8.738184812956636
 30
0.0
 10
843.9055841361195
 20
-6.119096074065764
 30
0.0
 10
836.3557377865549
 20
-20.52605525361409
 30
0.0
 10
827.8979516826162
 20
-34.37689613601354
 30
0.0
 10
823.6690412584652
 20
-41.30238606593274
 30
0.0
 10
819.2131111513479
 20
-48.088863793747
 30
0.0
 10
814.5468386566157
 20
-54.72743476216072
 30
0.0
 10
809.880705139352
 20
-61.36576252004054
 30
0.0
 10
806.0234407280216
 20
-65.08068383279685
 30
0.0
 10
799.1992469528337
 20
-72.94335902245112
 30
0.0
 10
788.8939742288072
 20
-84.81685131165116
 30
0.0
 10
779.3971108328271
 20
-93.7930703717281
 30
0.0
 10
767.9532202519937
 20
-104.5725094379992
 30
0.0
 10
762.4157327970331
 20
-109.788507148938
 30
0.0
 10
756.6942391833626
 20
-114.8107355394266
 30
0.0
 10
750.8043396310121
 20
-119.6257137960561
 30
0.0
 10
744.91454431179
 20
-124.4406225639694
 30
0.0
 10
738.856308309499
 20
-129.048281197998
 30
0.0
 10
732.6464131526063
 20
-133.4420882689465
 30
0.0
 10
726.2295110671881
 20
-137.98234283596
 30
0.0
 10
719.6506654950467
 20
-142.294292184303
 30
0.0
 10
712.9384710488238
 20
-146.3857190515425
 30
0.0
 10
705.793222833355
 20
-150.7411335997787
 30
0.0
 10
698.4968366287399
 20
-154.8467014233637
 30
0.0
 10
691.0858635073307
 20
-158.7328238411578
 30
0.0
  0
ENDBLK
  5
141
330
13E
100
AcDbEntity
  8
0
100
AcDbBlockEnd
  0
BLOCK
  5
145
330
143
100
AcDbEntity
  8
0
100
AcDbBlockBegin
  2
block 53
 70
     0
 10
0.0
 20
0.0
 30
0.0
  3
block 53
  1

  0
SPLINE
  5
147
330
143
100
AcDbEntity
  8
0
 62
   250
370
    25
100
AcDbSpline
210
0.0
220
0.0
230
1.0
 70
     8
 71
     3
 72
    41
 73
    37
 74
     0
 42
0.0000000001
 43
0.0000000001
 12
1.0
 22
0.0
 32
0.0
 13
1.0
 23
0.0
 33
0.0
 40
0.0
 40
0.0
 40
0.0
 40
0.0
 40
1.0
 40
1.0
 40
1.0
 40
2.0
 40
2.0
 40
2.0
 40
3.0
 40
3.0
 40
3.0
 40
4.0
 40
4.0
 40
4.0
 40
5.0
 40
5.0
 40
5.0
 40
6.0
 40
6.0
 40
6.0
 40
7.0
 40
7.0
 40
7.0
 40
8.0
 40
8.0
 40
8.0
 40
9.0
 40
9.0
 40
9.0
 40
10.0
 40
10.0
 40
10.0
 40
11.0
 40
11.0
 40
11.0
 40
12.0
 40
12.0
 40
12.0
 40
12.0
 10
-668.9734568835188
 20
151.1148321041897
 30
0.0
 10
-669.0075063615218
 20
135.419204051201
 30
0.0
 10
-667.9918938190378
 20
119.7189463935946
 30
0.0
 10
-665.8997271173051
 20
104.1629563377843
 30
0.0
 10
-663.7826139612768
 20
88.421222909678
 30
0.0
 10
-660.5630620938541
 20
72.82725726353067
 30
0.0
 10
-656.275329459229
 20
57.53358715920385
 30
0.0
 10
-652.0041351424766
 20
42.29891298568099
 30
0.0
 10
-646.6729944731198
 20
27.36220648156395
 30
0.0
 10
-640.3704360939504
 20
12.84934647921508
 30
0.0
 10
-633.9698986045936
 20
-1.889108681434783
 30
0.0
 10
-626.5675420857816
 20
-16.19044499311181
 30
0.0
 10
-618.2736798973848
 20
-29.95279197928287
 30
0.0
 10
-614.0695422057046
 20
-36.92886970382056
 30
0.0
 10
-609.6363001691371
 20
-43.76649113609639
 30
0.0
 10
-604.9890328422365
 20
-50.45558041040078
 30
0.0
 10
-600.3301261529676
 20
-57.16145121273721
 30
0.0
 10
-596.8672919283252
 20
-61.25684539043033
 30
0.0
 10
-591.3034576931318
 20
-67.23328333412074
 30
0.0
 10
-584.5406830800991
 20
-74.49757286782582
 30
0.0
 10
-579.9902034560004
 20
-79.70066934314906
 30
0.0
 10
-574.6877268880077
 20
-85.51058721976973
 30
0.0
 10
-569.5280844058298
 20
-91.16398173460169
 30
0.0
 10
-564.5530540690606
 20
-94.9569718359711
 30
0.0
 10
-559.0169563887093
 20
-100.2424235314297
 30
0.0
 10
-553.4913515066887
 20
-105.5179035942955
 30
0.0
 10
-547.7817057215952
 20
-110.6006219232688
 30
0.0
 10
-541.898894019785
 20
-115.4744571332531
 30
0.0
 10
-535.9461071662164
 20
-120.4062459431125
 30
0.0
 10
-529.8160198164722
 20
-125.1241137011396
 30
0.0
 10
-523.5295133340782
 20
-129.6228487526735
 30
0.0
 10
-517.1679242782342
 20
-134.1752638472543
 30
0.0
 10
-510.6461289539375
 20
-138.5032650919545
 30
0.0
 10
-503.9902551238856
 20
-142.6134191716422
 30
0.0
 10
-496.9333618293908
 20
-146.9712310810196
 30
0.0
 10
-489.7257127337948
 20
-151.0841647098625
 30
0.0
 10
-482.4057003607792
 20
-154.9832120312235
 30
0.0
  0
ENDBLK
  5
146
330
143
100
AcDbEntity
  8
0
100
AcDbBlockEnd
  0
BLOCK
  5
14A
330
148
100
AcDbEntity
  8
0
100
AcDbBlockBegin
  2
block 54
 70
     0
 10
0.0
 20
0.0
 30
0.0
  3
block 54
  1

  0
SPLINE
  5
14C
330
148
100
AcDbEntity
  8
0
 62
   250
370
    25
100
AcDbSpline
210
0.0
220
0.0
230
1.0
 70
     8
 71
     3
 72
    47
 73
    43
 74
     0
 42
0.0000000001
 43
0.0000000001
 12
1.0
 22
0.0
 32
0.0
 13
1.0
 23
0.0
 33
0.0
 40
0.0
 40
0.0
 40
0.0
 40
0.0
 40
1.0
 40
1.0
 40
1.0
 40
2.0
 40
2.0
 40
2.0
 40
3.0
 40
3.0
 40
3.0
 40
4.0
 40
4.0
 40
4.0
 40
5.0
 40
5.0
 40
5.0
 40
6.0
 40
6.0
 40
6.0
 40
7.0
 40
7.0
 40
7.0
 40
8.0
 40
8.0
 40
8.0
 40
9.0
 40
9.0
 40
9.0
 40
10.0
 40
10.0
 40
10.0
 40
11.0
 40
11.0
 40
11.0
 40
12.0
 40
12.0
 40
12.0
 40
13.0
 40
13.0
 40
13.0
 40
14.0
 40
14.0
 40
14.0
 40
14.0
 10
-482.4057003607792
 20
-154.9832120312235
 30
0.0
 10
-471.4945798776717
 20
-160.7885436517413
 30
0.0
 10
-460.3091526304143
 20
-166.0981426804784
 30
0.0
 10
-448.8473687014503
 20
-170.7271343542773
 30
0.0
 10
-437.3857584943171
 20
-175.3560565393497
 30
0.0
 10
-425.6478263498406
 20
-179.3044061138484
 30
0.0
 10
-413.7211628129699
 20
-182.5514745755643
 30
0.0
 10
-401.794012854989
 20
-185.798648213416
 30
0.0
 10
-389.6781662489898
 20
-188.3445068374077
 30
0.0
 10
-377.4788636775199
 20
-190.3443577604884
 30
0.0
 10
-370.769726735451
 20
-191.4442253888775
 30
0.0
 10
-364.0353653841651
 20
-192.3789530489083
 30
0.0
 10
-357.2849868804612
 20
-193.1847096248694
 30
0.0
 10
-349.3069162284071
 20
-194.1370179337713
 30
0.0
 10
-341.3064702050885
 20
-194.9091072197802
 30
0.0
 10
-333.2972338573408
 20
-195.5569506554036
 30
0.0
 10
-325.2879627652295
 20
-196.2047593466893
 30
0.0
 10
-317.2699013486952
 20
-196.7282874432262
 30
0.0
 10
-309.2469062322941
 20
-197.166135934911
 30
0.0
 10
-299.3721059333972
 20
-197.7050905296706
 30
0.0
 10
-289.4898703403169
 20
-198.1142401755957
 30
0.0
 10
-279.6057585515168
 20
-198.4514689853328
 30
0.0
 10
-267.8686950161701
 20
-198.8519325399378
 30
0.0
 10
-256.1289909090649
 20
-199.1509425478189
 30
0.0
 10
-244.3881054935386
 20
-199.4072517307527
 30
0.0
 10
-236.3551734886507
 20
-199.5826065424815
 30
0.0
 10
-228.3216855739187
 20
-199.7379833441711
 30
0.0
 10
-220.2881976591871
 20
-199.8880095135914
 30
0.0
 10
-209.7821964756298
 20
-200.0842456888762
 30
0.0
 10
-199.2761605477087
 20
-200.2713440961031
 30
0.0
 10
-188.7699161536061
 20
-200.4460387648964
 30
0.0
 10
-168.9938403494463
 20
-200.7748246938486
 30
0.0
 10
-149.2168959361449
 20
-201.0595200232445
 30
0.0
 10
-129.4394651017394
 20
-201.3008196403443
 30
0.0
 10
-107.1903201189167
 20
-201.5722426221775
 30
0.0
 10
-84.94061922625033
 20
-201.7887347624371
 30
0.0
 10
-62.69060563428567
 20
-201.9706215148491
 30
0.0
 10
-37.96752286366453
 20
-202.1727642322489
 30
0.0
 10
-13.24412739375795
 20
-202.3321713803124
 30
0.0
 10
11.47940705361614
 20
-202.4649643445482
 30
0.0
 10
42.38354715790211
 20
-202.6309381776339
 30
0.0
 10
73.28793047275919
 20
-202.7552882611092
 30
0.0
 10
104.1923485319673
 20
-202.8549003564594
 30
0.0
  0
ENDBLK
  5
14B
330
148
100
AcDbEntity
  8
0
100
AcDbBlockEnd
  0
BLOCK
  5
14F
330
14D
100
AcDbEntity
  8
0
100
AcDbBlockBegin
  2
block 55
 70
     0
 10
0.0
 20
0.0
 30
0.0
  3
block 55
  1

  0
SPLINE
  5
151
330
14D
100
AcDbEntity
  8
0
 62
   250
370
    25
100
AcDbSpline
210
0.0
220
0.0
230
1.0
 70
     8
 71
     3
 72
    47
 73
    43
 74
     0
 42
0.0000000001
 43
0.0000000001
 12
1.0
 22
0.0
 32
0.0
 13
1.0
 23
0.0
 33
0.0
 40
0.0
 40
0.0
 40
0.0
 40
0.0
 40
1.0
 40
1.0
 40
1.0
 40
2.0
 40
2.0
 40
2.0
 40
3.0
 40
3.0
 40
3.0
 40
4.0
 40
4.0
 40
4.0
 40
5.0
 40
5.0
 40
5.0
 40
6.0
 40
6.0
 40
6.0
 40
7.0
 40
7.0
 40
7.0
 40
8.0
 40
8.0
 40
8.0
 40
9.0
 40
9.0
 40
9.0
 40
10.0
 40
10.0
 40
10.0
 40
11.0
 40
11.0
 40
11.0
 40
12.0
 40
12.0
 40
12.0
 40
13.0
 40
13.0
 40
13.0
 40
14.0
 40
14.0
 40
14.0
 40
14.0
 10
691.0858635073307
 20
-158.7328238411578
 30
0.0
 10
680.1374623202471
 20
-164.4684582666105
 30
0.0
 10
668.9179508506164
 20
-169.7066576264244
 30
0.0
 10
657.4264257449449
 20
-174.2624776687312
 30
0.0
 10
645.935282827286
 20
-178.8181239892191
 30
0.0
 10
634.172126273585
 20
-182.6914248790428
 30
0.0
 10
622.2247898393707
 20
-185.8622304019334
 30
0.0
 10
610.2775923826106
 20
-189.0329664361078
 30
0.0
 10
598.1461803009469
 20
-191.5012756367091
 30
0.0
 10
585.9348214347131
 20
-193.4230907153085
 30
0.0
 10
579.2187703639466
 20
-194.4800490525052
 30
0.0
 10
572.4785024705477
 20
-195.3716936995646
 30
0.0
 10
565.7230860338733
 20
-196.1343672625543
 30
0.0
 10
557.7389003735179
 20
-197.0357750762566
 30
0.0
 10
549.7335206503333
 20
-197.7569986114421
 30
0.0
 10
541.7201149787498
 20
-198.3535246195016
 30
0.0
 10
533.7066050740767
 20
-198.9500506275751
 30
0.0
 10
525.6850692210061
 20
-199.4218791085355
 30
0.0
 10
517.6591903222754
 20
-199.8085144057604
 30
0.0
 10
507.7815062410563
 20
-200.2843384887186
 30
0.0
 10
497.8972207304247
 20
-200.6311219989177
 30
0.0
 10
488.011510700821
 20
-200.9052550412424
 30
0.0
 10
476.2722235260916
 20
-201.2308097442348
 30
0.0
 10
464.5308516894559
 20
-201.4539728026461
 30
0.0
 10
452.7886112436768
 20
-201.6351299233833
 30
0.0
 10
444.7544631860046
 20
-201.7590630744571
 30
0.0
 10
436.7198981959551
 20
-201.863330914765
 30
0.0
 10
428.6853679502561
 20
-201.9621091453493
 30
0.0
 10
418.1784981575691
 20
-202.0912886956012
 30
0.0
 10
407.6716631092594
 20
-202.2110872671844
 30
0.0
 10
397.164619594742
 20
-202.3185168447498
 30
0.0
 10
377.3869455497714
 20
-202.5207290508748
 30
0.0
 10
357.60864610623
 20
-202.6791981010697
 30
0.0
 10
337.8301729408576
 20
-202.7941324615259
 30
0.0
 10
315.5792212510439
 20
-202.9234162448561
 30
0.0
 10
293.3279916062933
 20
-202.9975954647939
 30
0.0
 10
271.0766924728168
 20
-203.037273529988
 30
0.0
 10
246.3528453261701
 20
-203.0813293852054
 30
0.0
 10
221.6288939464066
 20
-203.0827539041917
 30
0.0
 10
196.9049773110193
 20
-203.0575294949616
 30
0.0
 10
166.0006982292661
 20
-203.0260163556321
 30
0.0
 10
135.096488636253
 20
-202.9528099779145
 30
0.0
 10
104.1923485319673
 20
-202.8549003564594
 30
0.0
  0
ENDBLK
  5
150
330
14D
100
AcDbEntity
  8
0
100
AcDbBlockEnd
  0
BLOCK
  5
154
330
152
100
AcDbEntity
  8
0
100
AcDbBlockBegin
  2
block 56
 70
     0
 10
0.0
 20
0.0
 30
0.0
  3
block 56
  1

  0
SPLINE
  5
156
330
152
100
AcDbEntity
  8
0
 62
   250
370
    25
100
AcDbSpline
210
0.0
220
0.0
230
1.0
 70
     8
 71
     3
 72
    50
 73
    46
 74
     0
 42
0.0000000001
 43
0.0000000001
 12
1.0
 22
0.0
 32
0.0
 13
1.0
 23
0.0
 33
0.0
 40
0.0
 40
0.0
 40
0.0
 40
0.0
 40
1.0
 40
1.0
 40
1.0
 40
2.0
 40
2.0
 40
2.0
 40
3.0
 40
3.0
 40
3.0
 40
4.0
 40
4.0
 40
4.0
 40
5.0
 40
5.0
 40
5.0
 40
6.0
 40
6.0
 40
6.0
 40
7.0
 40
7.0
 40
7.0
 40
8.0
 40
8.0
 40
8.0
 40
9.0
 40
9.0
 40
9.0
 40
10.0
 40
10.0
 40
10.0
 40
11.0
 40
11.0
 40
11.0
 40
12.0
 40
12.0
 40
12.0
 40
13.0
 40
13.0
 40
13.0
 40
14.0
 40
14.0
 40
14.0
 40
15.0
 40
15.0
 40
15.0
 40
15.0
 10
106.4695984677075
 20
500.1351602371766
 30
0.0
 10
76.04086551401636
 20
500.2323749713329
 30
0.0
 10
45.61202832722128
 20
500.3047474842853
 30
0.0
 10
15.18315639604947
 20
500.3369207665563
 30
0.0
 10
-10.17456695139857
 20
500.3637086722137
 30
0.0
 10
-35.53232504319736
 20
500.3625968525263
 30
0.0
 10
-60.89001364626897
 20
500.3165953128488
 30
0.0
 10
-83.2043390584185
 20
500.2761528716224
 30
0.0
 10
-105.5186644705809
 20
500.2009660650811
 30
0.0
 10
-127.8326424390813
 20
500.0709526500828
 30
0.0
 10
-147.6112198375379
 20
499.9557403347109
 30
0.0
 10
-167.3895192810918
 20
499.7974450063352
 30
0.0
 10
-187.1673670478738
 20
499.5927312059055
 30
0.0
 10
-197.8171751594658
 20
499.4825220791278
 30
0.0
 10
-208.4668790379542
 20
499.3588321386122
 30
0.0
 10
-219.1164786833515
 20
499.2272899715432
 30
0.0
 10
-226.7229583483725
 20
499.1333412077291
 30
0.0
 10
-234.3293685246724
 20
499.0353620975404
 30
0.0
 10
-241.9355702347647
 20
498.9187600075527
 30
0.0
 10
-253.5988367381865
 20
498.7399655036448
 30
0.0
 10
-265.2615473317646
 20
498.5173583550775
 30
0.0
 10
-276.9217910753961
 20
498.1962509308555
 30
0.0
 10
-286.5538672382135
 20
497.9310124460433
 30
0.0
 10
-296.1842409271355
 20
497.5985436143608
 30
0.0
 10
-305.8093334725161
 20
497.1454076019403
 30
0.0
 10
-314.4216625133778
 20
496.7399408587276
 30
0.0
 10
-323.0297527416648
 20
496.2379195243132
 30
0.0
 10
-331.6273501716336
 20
495.5909794421694
 30
0.0
 10
-339.2126705181815
 20
495.020233753164
 30
0.0
 10
-346.7898259388904
 20
494.3367078543432
 30
0.0
 10
-354.3495744325784
 20
493.494122251121
 30
0.0
 10
-361.4063634939691
 20
492.7076140535179
 30
0.0
 10
-368.447969267727
 20
491.7825105826756
 30
0.0
 10
-375.4620575041654
 20
490.6755551037782
 30
0.0
 10
-387.7358519948654
 20
488.7385219931755
 30
0.0
 10
-399.9253566553223
 20
486.2447104284225
 30
0.0
 10
-411.9309941345563
 20
483.0449975935977
 30
0.0
 10
-417.8107830765894
 20
481.4779224848484
 30
0.0
 10
-423.6465161633984
 20
479.7415380839255
 30
0.0
 10
-429.4259286340431
 20
477.8352537366283
 30
0.0
 10
-435.206070736356
 20
475.9286914344148
 30
0.0
 10
-440.9299269668693
 20
473.8521596970741
 30
0.0
 10
-446.588533279308
 20
471.6120862321985
 30
0.0
 10
-458.1406873024526
 20
467.0389286365223
 30
0.0
 10
-469.4208971782965
 20
461.7840865933875
 30
0.0
 10
-480.4227699436107
 20
456.013464447166
 30
0.0
  0
ENDBLK
  5
155
330
152
100
AcDbEntity
  8
0
100
AcDbBlockEnd
  0
BLOCK
  5
159
330
157
100
AcDbEntity
  8
0
100
AcDbBlockBegin
  2
block 57
 70
     0
 10
0.0
 20
0.0
 30
0.0
  3
block 57
  1

  0
SPLINE
  5
15B
330
157
100
AcDbEntity
  8
0
 62
   250
370
    25
100
AcDbSpline
210
0.0
220
0.0
230
1.0
 70
     8
 71
     3
 72
    44
 73
    40
 74
     0
 42
0.0000000001
 43
0.0000000001
 12
1.0
 22
0.0
 32
0.0
 13
1.0
 23
0.0
 33
0.0
 40
0.0
 40
0.0
 40
0.0
 40
0.0
 40
1.0
 40
1.0
 40
1.0
 40
2.0
 40
2.0
 40
2.0
 40
3.0
 40
3.0
 40
3.0
 40
4.0
 40
4.0
 40
4.0
 40
5.0
 40
5.0
 40
5.0
 40
6.0
 40
6.0
 40
6.0
 40
7.0
 40
7.0
 40
7.0
 40
8.0
 40
8.0
 40
8.0
 40
9.0
 40
9.0
 40
9.0
 40
10.0
 40
10.0
 40
10.0
 40
11.0
 40
11.0
 40
11.0
 40
12.0
 40
12.0
 40
12.0
 40
13.0
 40
13.0
 40
13.0
 40
13.0
 10
-480.4227699436107
 20
456.013464447166
 30
0.0
 10
-487.4413402031497
 20
452.3344183484696
 30
0.0
 10
-494.3563027653423
 20
448.4572946231119
 30
0.0
 10
-501.1374647767077
 20
444.3572857942721
 30
0.0
 10
-507.91873102117
 20
440.257207476711
 30
0.0
 10
-514.5662314591763
 20
435.9343135443691
 30
0.0
 10
-521.0506765907572
 20
431.3795357179403
 30
0.0
 10
-527.5350174892536
 20
426.8248273802386
 30
0.0
 10
-533.8563725700659
 20
422.0382698928004
 30
0.0
 10
-539.9945553569472
 20
417.026360451934
 30
0.0
 10
-545.8257021875318
 20
412.2651316068107
 30
0.0
 10
-553.5367967020255
 20
407.2467451147492
 30
0.0
 10
-559.02296672941
 20
402.0922100542755
 30
0.0
 10
-570.2841366930527
 20
391.5117516958518
 30
0.0
 10
-578.7429308181033
 20
384.4207783356182
 30
0.0
 10
-588.475591918497
 20
372.4185110598355
 30
0.0
 10
-593.7163972380438
 20
365.955572690364
 30
0.0
 10
-598.7335183337055
 20
359.3124152980304
 30
0.0
 10
-603.5294220554163
 20
352.51315147234
 30
0.0
 10
-608.3251520552959
 20
345.7140961128306
 30
0.0
 10
-612.8997341699521
 20
338.7588995756127
 30
0.0
 10
-617.2357267280063
 20
331.6576724709788
 30
0.0
 10
-625.4948792954525
 20
318.1314130994381
 30
0.0
 10
-632.888549722932
 20
304.0753021568659
 30
0.0
 10
-639.3116015610086
 20
289.586901821059
 30
0.0
 10
-645.7347228878181
 20
275.0984667408888
 30
0.0
 10
-651.1872256252308
 20
260.1777422674857
 30
0.0
 10
-655.578565957229
 20
244.950155559636
 30
0.0
 10
-659.969871544857
 20
229.722603596143
 30
0.0
 10
-663.30001472707
 20
214.1881893982033
 30
0.0
 10
-665.5347028153323
 20
198.4982246767571
 30
0.0
 10
-666.6520816038136
 20
190.6531554551278
 30
0.0
 10
-667.4955705605349
 20
182.7692072887063
 30
0.0
 10
-668.0668374150205
 20
174.8655243227847
 30
0.0
 10
-668.3524360978905
 20
170.9138739338334
 30
0.0
 10
-668.569970569123
 20
166.9572898450023
 30
0.0
 10
-668.7218381899185
 20
162.9982389062386
 30
0.0
 10
-668.8736710663186
 20
159.0389100125521
 30
0.0
 10
-668.9598370923068
 20
155.0770795245621
 30
0.0
 10
-668.9734568835188
 20
151.1148321041897
 30
0.0
  0
ENDBLK
  5
15A
330
157
100
AcDbEntity
  8
0
100
AcDbBlockEnd
  0
BLOCK
  5
15E
330
15C
100
AcDbEntity
  8
0
100
AcDbBlockBegin
  2
block 58
 70
     0
 10
0.0
 20
0.0
 30
0.0
  3
block 58
  1

  0
SPLINE
  5
160
330
15C
100
AcDbEntity
  8
0
 62
   250
370
    25
100
AcDbSpline
210
0.0
220
0.0
230
1.0
 70
     8
 71
     3
 72
    47
 73
    43
 74
     0
 42
0.0000000001
 43
0.0000000001
 12
1.0
 22
0.0
 32
0.0
 13
1.0
 23
0.0
 33
0.0
 40
0.0
 40
0.0
 40
0.0
 40
0.0
 40
1.0
 40
1.0
 40
1.0
 40
2.0
 40
2.0
 40
2.0
 40
3.0
 40
3.0
 40
3.0
 40
4.0
 40
4.0
 40
4.0
 40
5.0
 40
5.0
 40
5.0
 40
6.0
 40
6.0
 40
6.0
 40
7.0
 40
7.0
 40
7.0
 40
8.0
 40
8.0
 40
8.0
 40
9.0
 40
9.0
 40
9.0
 40
10.0
 40
10.0
 40
10.0
 40
11.0
 40
11.0
 40
11.0
 40
12.0
 40
12.0
 40
12.0
 40
13.0
 40
13.0
 40
13.0
 40
14.0
 40
14.0
 40
14.0
 40
14.0
 10
693.0686549470574
 20
452.262810211556
 30
0.0
 10
682.1571522759242
 20
458.0683157005467
 30
0.0
 10
670.9714123293752
 20
463.3781233296067
 30
0.0
 10
659.5092809567622
 20
468.0072540978173
 30
0.0
 10
648.0475317721618
 20
472.636280632924
 30
0.0
 10
636.3094259058606
 20
476.5846650515202
 30
0.0
 10
624.3826233915285
 20
479.8317692006518
 30
0.0
 10
612.4559598546764
 20
483.0788386054066
 30
0.0
 10
600.340634414158
 20
485.6246277406769
 30
0.0
 10
588.1418182637979
 20
487.6244439194001
 30
0.0
 10
581.4326465773526
 20
488.72431154777
 30
0.0
 10
574.6982504817039
 20
489.6590392077944
 30
0.0
 10
567.9478372336366
 20
490.4648652725211
 30
0.0
 10
559.9695928597567
 20
491.4172778145013
 30
0.0
 10
551.9690078589713
 20
492.189645055426
 30
0.0
 10
543.9595630450353
 20
492.8373842579646
 30
0.0
 10
535.9500487423715
 20
493.4851234605104
 30
0.0
 10
527.9316746265456
 20
494.0082346246707
 30
0.0
 10
519.9084362995927
 20
494.4461526050885
 30
0.0
 10
510.0340181887081
 20
494.9851071998301
 30
0.0
 10
500.1521647836478
 20
495.395021221812
 30
0.0
 10
490.2684004384975
 20
495.7323542646343
 30
0.0
 10
478.5314411362598
 20
496.1329567967002
 30
0.0
 10
466.7917370291417
 20
496.431167684185
 30
0.0
 10
455.0509211023362
 20
496.6873378896452
 30
0.0
 10
447.0177111425338
 20
496.8626232126461
 30
0.0
 10
438.983980017249
 20
497.0182432248876
 30
0.0
 10
430.9502488919655
 20
497.1683736274118
 30
0.0
 10
420.4444214302394
 20
497.3647140357948
 30
0.0
 10
409.9385592241372
 20
497.5516387211778
 30
0.0
 10
399.4324190631249
 20
497.726229156887
 30
0.0
 10
379.6564474920623
 20
498.0548413640267
 30
0.0
 10
359.8795725674939
 20
498.3397451595977
 30
0.0
 10
340.1022459661734
 20
498.5810795210685
 30
0.0
 10
317.8525450735137
 20
498.8525719916224
 30
0.0
 10
295.602253526633
 20
499.0689946431675
 30
0.0
 10
273.3516840248313
 20
499.2508813955926
 30
0.0
 10
248.6286012542099
 20
499.4529546242449
 30
0.0
 10
223.9051710399397
 20
499.6124312610353
 30
0.0
 10
199.1816018482023
 20
499.7452242252721
 30
0.0
 10
168.2777396988379
 20
499.9112328027338
 30
0.0
 10
137.373703827643
 20
500.035548141827
 30
0.0
 10
106.4695984677075
 20
500.1351602371766
 30
0.0
  0
ENDBLK
  5
15F
330
15C
100
AcDbEntity
  8
0
100
AcDbBlockEnd
  0
BLOCK
  5
163
330
161
100
AcDbEntity
  8
0
100
AcDbBlockBegin
  2
block 59
 70
     0
 10
0.0
 20
0.0
 30
0.0
  3
block 59
  1

  0
SPLINE
  5
165
330
161
100
AcDbEntity
  8
0
 62
   250
370
    25
100
AcDbSpline
210
0.0
220
0.0
230
1.0
 70
     8
 71
     3
 72
    38
 73
    34
 74
     0
 42
0.0000000001
 43
0.0000000001
 12
1.0
 22
0.0
 32
0.0
 13
1.0
 23
0.0
 33
0.0
 40
0.0
 40
0.0
 40
0.0
 40
0.0
 40
1.0
 40
1.0
 40
1.0
 40
2.0
 40
2.0
 40
2.0
 40
3.0
 40
3.0
 40
3.0
 40
4.0
 40
4.0
 40
4.0
 40
5.0
 40
5.0
 40
5.0
 40
6.0
 40
6.0
 40
6.0
 40
7.0
 40
7.0
 40
7.0
 40
8.0
 40
8.0
 40
8.0
 40
9.0
 40
9.0
 40
9.0
 40
10.0
 40
10.0
 40
10.0
 40
11.0
 40
11.0
 40
11.0
 40
11.0
 10
879.6353343944592
 20
146.1655667539953
 30
0.0
 10
879.67039145906
 20
161.8870446147787
 30
0.0
 10
878.6505053596442
 20
177.6128307768704
 30
0.0
 10
876.5511813186562
 20
193.1938371686942
 30
0.0
 10
874.4519962551352
 20
208.7740791844735
 30
0.0
 10
871.2735469718867
 20
224.2095066856268
 30
0.0
 10
867.0477635406045
 20
239.3518307210076
 30
0.0
 10
862.8219453649575
 20
254.4943979669459
 30
0.0
 10
857.5487930413026
 20
269.3438617470848
 30
0.0
 10
851.3155844152953
 20
283.7767753314803
 30
0.0
 10
844.8811711697597
 20
298.6755413660089
 30
0.0
 10
837.4237100875748
 20
313.1304133892788
 30
0.0
 10
829.0547653257343
 20
327.0350388990881
 30
0.0
 10
824.87025820045
 20
333.987421142717
 30
0.0
 10
820.4578627830703
 20
340.8022504440728
 30
0.0
 10
815.8341521358553
 20
347.4704932681688
 30
0.0
 10
811.2106499548227
 20
354.1385276260762
 30
0.0
 10
806.3758325439691
 20
360.6599755067238
 30
0.0
 10
801.327406775165
 20
367.0126700050415
 30
0.0
 10
791.5458950971284
 20
379.3211046279779
 30
0.0
 10
781.9324297400136
 20
387.1285786355002
 30
0.0
 10
770.5577846792515
 20
397.9809463968678
 30
0.0
 10
765.0537907924512
 20
403.2322445147452
 30
0.0
 10
758.3944894443546
 20
407.9222596644302
 30
0.0
 10
752.5355471215162
 20
412.7747967015964
 30
0.0
 10
746.6766742874044
 20
417.6272295056727
 30
0.0
 10
740.6480752287159
 20
422.27352399034
 30
0.0
 10
734.466427240831
 20
426.7069397487257
 30
0.0
 10
728.0787451666537
 20
431.2881232927994
 30
0.0
 10
721.527625598026
 20
435.6420091989908
 30
0.0
 10
714.8417673807207
 20
439.7762759720289
 30
0.0
 10
707.7245231236758
 20
444.1772752375793
 30
0.0
 10
700.454577381068
 20
448.3294006143978
 30
0.0
 10
693.0686549470574
 20
452.262810211556
 30
0.0
  0
ENDBLK
  5
164
330
161
100
AcDbEntity
  8
0
100
AcDbBlockEnd
  0
BLOCK
  5
168
330
166
100
AcDbEntity
  8
0
100
AcDbBlockBegin
  2
block 60
 70
     0
 10
0.0
 20
0.0
 30
0.0
  3
block 60
  1

  0
SPLINE
  5
16A
330
166
100
AcDbEntity
  8
0
  6
AI-Linetype-5
 62
     6
370
    25
100
AcDbSpline
210
0.0
220
0.0
230
1.0
 70
     8
 71
     3
 72
    11
 73
     7
 74
     0
 42
0.0000000001
 43
0.0000000001
 12
1.0
 22
0.0
 32
0.0
 13
1.0
 23
0.0
 33
0.0
 40
0.0
 40
0.0
 40
0.0
 40
0.0
 40
1.0
 40
1.0
 40
1.0
 40
2.0
 40
2.0
 40
2.0
 40
2.0
 10
-234.4109038436751
 20
281.8101404203792
 30
0.0
 10
-237.494233117763
 20
294.6880787147849
 30
0.0
 10
-249.7162482397435
 20
303.2291205857074
 30
0.0
 10
-262.8692840923042
 20
301.6978100309049
 30
0.0
 10
-276.0222846668869
 20
300.1664641981432
 30
0.0
 10
-285.9552538594396
 20
289.0459329255966
 30
0.0
 10
-285.9976579713845
 20
275.804137717283
 30
0.0
  0
ENDBLK
  5
169
330
166
100
AcDbEntity
  8
0
100
AcDbBlockEnd
  0
BLOCK
  5
16E
330
16C
100
AcDbEntity
  8
0
100
AcDbBlockBegin
  2
block 61
 70
     0
 10
0.0
 20
0.0
 30
0.0
  3
block 61
  1

  0
SPLINE
  5
170
330
16C
100
AcDbEntity
  8
0
  6
AI-Linetype-6
 62
     6
370
    25
100
AcDbSpline
210
0.0
220
0.0
230
1.0
 70
     8
 71
     3
 72
    11
 73
     7
 74
     0
 42
0.0000000001
 43
0.0000000001
 12
1.0
 22
0.0
 32
0.0
 13
1.0
 23
0.0
 33
0.0
 40
0.0
 40
0.0
 40
0.0
 40
0.0
 40
1.0
 40
1.0
 40
1.0
 40
2.0
 40
2.0
 40
2.0
 40
2.0
 10
-285.4665835112282
 20
270.4760716357205
 30
0.0
 10
-282.7780146469424
 20
257.3411333783623
 30
0.0
 10
-270.5920888814596
 20
248.3669839514899
 30
0.0
 10
-257.2509862063266
 20
249.6967867796714
 30
0.0
 10
-243.9098835312059
 20
251.0266248858313
 30
0.0
 10
-233.7351897338216
 20
262.2298124264795
 30
0.0
 10
-233.6922211744769
 20
275.6369554489921
 30
0.0
  0
ENDBLK
  5
16F
330
16C
100
AcDbEntity
  8
0
100
AcDbBlockEnd
  0
BLOCK
  5
174
330
172
100
AcDbEntity
  8
0
100
AcDbBlockBegin
  2
block 62
 70
     0
 10
0.0
 20
0.0
 30
0.0
  3
block 62
  1

  0
SPLINE
  5
176
330
172
100
AcDbEntity
  8
0
  6
AI-Linetype-7
 62
     6
370
    25
100
AcDbSpline
210
0.0
220
0.0
230
1.0
 70
     8
 71
     3
 72
    11
 73
     7
 74
     0
 42
0.0000000001
 43
0.0000000001
 12
1.0
 22
0.0
 32
0.0
 13
1.0
 23
0.0
 33
0.0
 40
0.0
 40
0.0
 40
0.0
 40
0.0
 40
1.0
 40
1.0
 40
1.0
 40
2.0
 40
2.0
 40
2.0
 40
2.0
 10
443.9996771432678
 20
273.4711707234776
 30
0.0
 10
443.9567791398401
 20
260.0639924230128
 30
0.0
 10
454.0596117258874
 20
248.7960345416571
 30
0.0
 10
467.3919301881471
 20
247.380964876068
 30
0.0
 10
480.7242486504056
 20
245.9658599325268
 30
0.0
 10
492.9673599944703
 20
254.862045060411
 30
0.0
 10
495.7399609674302
 20
267.9794501699856
 30
0.0
  0
ENDBLK
  5
175
330
172
100
AcDbEntity
  8
0
100
AcDbBlockEnd
  0
BLOCK
  5
17A
330
178
100
AcDbEntity
  8
0
100
AcDbBlockBegin
  2
block 63
 70
     0
 10
0.0
 20
0.0
 30
0.0
  3
block 63
  1

  0
SPLINE
  5
17C
330
178
100
AcDbEntity
  8
0
  6
AI-Linetype-8
 62
     6
370
    25
100
AcDbSpline
210
0.0
220
0.0
230
1.0
 70
     8
 71
     3
 72
    11
 73
     7
 74
     0
 42
0.0000000001
 43
0.0000000001
 12
1.0
 22
0.0
 32
0.0
 13
1.0
 23
0.0
 33
0.0
 40
0.0
 40
0.0
 40
0.0
 40
0.0
 40
1.0
 40
1.0
 40
1.0
 40
2.0
 40
2.0
 40
2.0
 40
2.0
 10
505.462955722172
 20
265.8956514312781
 30
0.0
 10
501.6381189365995
 20
247.7998906907651
 30
0.0
 10
484.7485470407123
 20
235.5275339150847
 30
0.0
 10
466.3563102962689
 20
237.4796400166347
 30
0.0
 10
447.964144107754
 20
239.4317461181718
 30
0.0
 10
434.0270907978692
 20
254.9762045497848
 30
0.0
 10
434.08628722036
 20
273.4715940590435
 30
0.0
  0
ENDBLK
  5
17B
330
178
100
AcDbEntity
  8
0
100
AcDbBlockEnd
  0
BLOCK
  5
180
330
17E
100
AcDbEntity
  8
0
100
AcDbBlockBegin
  2
block 64
 70
     0
 10
0.0
 20
0.0
 30
0.0
  3
block 64
  1

  0
SPLINE
  5
182
330
17E
100
AcDbEntity
  8
0
  6
AI-Linetype-9
 62
     6
370
    25
100
AcDbSpline
210
0.0
220
0.0
230
1.0
 70
     8
 71
     3
 72
    11
 73
     7
 74
     0
 42
0.0000000001
 43
0.0000000001
 12
1.0
 22
0.0
 32
0.0
 13
1.0
 23
0.0
 33
0.0
 40
0.0
 40
0.0
 40
0.0
 40
0.0
 40
1.0
 40
1.0
 40
1.0
 40
2.0
 40
2.0
 40
2.0
 40
2.0
 10
496.3051492181406
 20
273.304023733178
 30
0.0
 10
496.3475180521199
 20
286.5458189414904
 30
0.0
 10
486.485916179395
 20
297.7296036023193
 30
0.0
 10
473.3429698243597
 20
299.3449815437546
 30
0.0
 10
460.1999881913711
 20
300.9603594852091
 30
0.0
 10
447.9235744499068
 20
292.497528859011
 30
0.0
 10
444.7579064093829
 20
279.6396284477868
 30
0.0
  0
ENDBLK
  5
181
330
17E
100
AcDbEntity
  8
0
100
AcDbBlockEnd
  0
BLOCK
  5
186
330
184
100
AcDbEntity
  8
0
100
AcDbBlockBegin
  2
block 65
 70
     0
 10
0.0
 20
0.0
 30
0.0
  3
block 65
  1

  0
SPLINE
  5
188
330
184
100
AcDbEntity
  8
0
  6
AI-Linetype-10
 62
     6
370
    25
100
AcDbSpline
210
0.0
220
0.0
230
1.0
 70
     8
 71
     3
 72
    11
 73
     7
 74
     0
 42
0.0000000001
 43
0.0000000001
 12
1.0
 22
0.0
 32
0.0
 13
1.0
 23
0.0
 33
0.0
 40
0.0
 40
0.0
 40
0.0
 40
0.0
 40
1.0
 40
1.0
 40
1.0
 40
2.0
 40
2.0
 40
2.0
 40
2.0
 10
435.1322435555041
 20
281.9810974307405
 30
0.0
 10
439.4993731935695
 20
299.7188573992559
 30
0.0
 10
456.4349122756885
 20
311.3933938081279
 30
0.0
 10
474.5658804236209
 20
309.1649906976945
 30
0.0
 10
492.6968132936011
 20
306.9365875872483
 30
0.0
 10
506.3010895752611
 20
291.5082642109662
 30
0.0
 10
506.2426339900074
 20
273.2409820126734
 30
0.0
  0
ENDBLK
  5
187
330
184
100
AcDbEntity
  8
0
100
AcDbBlockEnd
  0
BLOCK
  5
18C
330
18A
100
AcDbEntity
  8
0
100
AcDbBlockBegin
  2
block 66
 70
     0
 10
0.0
 20
0.0
 30
0.0
  3
block 66
  1

  0
SPLINE
  5
18E
330
18A
100
AcDbEntity
  8
0
  6
AI-Linetype-11
 62
     6
370
    25
100
AcDbSpline
210
0.0
220
0.0
230
1.0
 70
     8
 71
     3
 72
    11
 73
     7
 74
     0
 42
0.0000000001
 43
0.0000000001
 12
1.0
 22
0.0
 32
0.0
 13
1.0
 23
0.0
 33
0.0
 40
0.0
 40
0.0
 40
0.0
 40
0.0
 40
1.0
 40
1.0
 40
1.0
 40
2.0
 40
2.0
 40
2.0
 40
2.0
 10
-295.1784304295504
 20
268.4543973904618
 30
0.0
 10
-291.4694817535545
 20
250.3345065230191
 30
0.0
 10
-274.6587913837114
 20
237.9544814032227
 30
0.0
 10
-256.2544895757987
 20
239.789006052951
 30
0.0
 10
-237.850187767886
 20
241.6234954247144
 30
0.0
 10
-223.813968103066
 20
257.0785242192424
 30
0.0
 10
-223.75473640261
 20
275.5739490064659
 30
0.0
  0
ENDBLK
  5
18D
330
18A
100
AcDbEntity
  8
0
100
AcDbBlockEnd
  0
BLOCK
  5
192
330
190
100
AcDbEntity
  8
0
100
AcDbBlockBegin
  2
block 67
 70
     0
 10
0.0
 20
0.0
 30
0.0
  3
block 67
  1

  0
SPLINE
  5
194
330
190
100
AcDbEntity
  8
0
  6
AI-Linetype-12
 62
     6
370
    25
100
AcDbSpline
210
0.0
220
0.0
230
1.0
 70
     8
 71
     3
 72
    11
 73
     7
 74
     0
 42
0.0000000001
 43
0.0000000001
 12
1.0
 22
0.0
 32
0.0
 13
1.0
 23
0.0
 33
0.0
 40
0.0
 40
0.0
 40
0.0
 40
0.0
 40
1.0
 40
1.0
 40
1.0
 40
2.0
 40
2.0
 40
2.0
 40
2.0
 10
-224.7461882843756
 20
284.089943523415
 30
0.0
 10
-228.9996876025278
 20
301.8552908592658
 30
0.0
 10
-245.8601904566101
 20
313.6378483919034
 30
0.0
 10
-264.0050228441374
 20
311.5253686689923
 30
0.0
 10
-282.1498552316775
 20
309.4128536681298
 30
0.0
 10
-295.8525570310605
 20
294.0718432511225
 30
0.0
 10
-295.9110831722443
 20
275.804561052836
 30
0.0
  0
ENDBLK
  5
193
330
190
100
AcDbEntity
  8
0
100
AcDbBlockEnd
  0
BLOCK
  5
198
330
196
100
AcDbEntity
  8
0
100
AcDbBlockBegin
  2
block 68
 70
     0
 10
0.0
 20
0.0
 30
0.0
  3
block 68
  1

  0
SPLINE
  5
19A
330
196
100
AcDbEntity
  8
0
  6
AI-Linetype-13
 62
     6
370
    25
100
AcDbSpline
210
0.0
220
0.0
230
1.0
 70
     8
 71
     3
 72
    11
 73
     7
 74
     0
 42
0.0000000001
 43
0.0000000001
 12
1.0
 22
0.0
 32
0.0
 13
1.0
 23
0.0
 33
0.0
 40
0.0
 40
0.0
 40
0.0
 40
0.0
 40
1.0
 40
1.0
 40
1.0
 40
2.0
 40
2.0
 40
2.0
 40
2.0
 10
434.2789754561409
 20
15.40792382787638
 30
0.0
 10
438.5325100522458
 20
-2.357423059194553
 30
0.0
 10
455.3930129063412
 20
-14.13998029416461
 30
0.0
 10
473.5378452938621
 20
-12.02746534666642
 30
0.0
 10
491.6826776813952
 20
-9.91498567713121
 30
0.0
 10
505.3853794807792
 20
5.426024352330973
 30
0.0
 10
505.443905621962
 20
23.69334136711533
 30
0.0
  0
ENDBLK
  5
199
330
196
100
AcDbEntity
  8
0
100
AcDbBlockEnd
  0
BLOCK
  5
19E
330
19C
100
AcDbEntity
  8
0
100
AcDbBlockBegin
  2
block 69
 70
     0
 10
0.0
 20
0.0
 30
0.0
  3
block 69
  1

  0
SPLINE
  5
1A0
330
19C
100
AcDbEntity
  8
0
  6
AI-Linetype-14
 62
     6
370
    25
100
AcDbSpline
210
0.0
220
0.0
230
1.0
 70
     8
 71
     3
 72
    11
 73
     7
 74
     0
 42
0.0000000001
 43
0.0000000001
 12
1.0
 22
0.0
 32
0.0
 13
1.0
 23
0.0
 33
0.0
 40
0.0
 40
0.0
 40
0.0
 40
0.0
 40
1.0
 40
1.0
 40
1.0
 40
2.0
 40
2.0
 40
2.0
 40
2.0
 10
504.7112528792815
 20
31.04346956583615
 30
0.0
 10
501.0023042032722
 20
49.16335997553963
 30
0.0
 10
484.1916138334295
 20
61.54338478258916
 30
0.0
 10
465.7873120255167
 20
59.7088601792108
 30
0.0
 10
447.3829749396397
 20
57.87437085378514
 30
0.0
 10
433.3467905527837
 20
42.41934244968103
 30
0.0
 10
433.2875235743631
 20
23.92391812969456
 30
0.0
  0
ENDBLK
  5
19F
330
19C
100
AcDbEntity
  8
0
100
AcDbBlockEnd
  0
BLOCK
  5
1A4
330
1A2
100
AcDbEntity
  8
0
100
AcDbBlockBegin
  2
block 70
 70
     0
 10
0.0
 20
0.0
 30
0.0
  3
block 70
  1

  0
SPLINE
  5
1A6
330
1A2
100
AcDbEntity
  8
0
  6
AI-Linetype-15
 62
     6
370
    25
100
AcDbSpline
210
0.0
220
0.0
230
1.0
 70
     8
 71
     3
 72
    11
 73
     7
 74
     0
 42
0.0000000001
 43
0.0000000001
 12
1.0
 22
0.0
 32
0.0
 13
1.0
 23
0.0
 33
0.0
 40
0.0
 40
0.0
 40
0.0
 40
0.0
 40
1.0
 40
1.0
 40
1.0
 40
2.0
 40
2.0
 40
2.0
 40
2.0
 10
-234.4909495425089
 20
26.08931474290264
 30
0.0
 10
-234.4480515390812
 20
39.49645742671822
 30
0.0
 10
-244.5508841251284
 20
50.76441502342137
 30
0.0
 10
-257.8832025873876
 20
52.17951993122701
 30
0.0
 10
-271.2155210496467
 20
53.59462483901853
 30
0.0
 10
-283.4586323937114
 20
44.69843993587713
 30
0.0
 10
-286.2312333666717
 20
31.58099987971303
 30
0.0
  0
ENDBLK
  5
1A5
330
1A2
100
AcDbEntity
  8
0
100
AcDbBlockEnd
  0
BLOCK
  5
1AA
330
1A8
100
AcDbEntity
  8
0
100
AcDbBlockBegin
  2
block 71
 70
     0
 10
0.0
 20
0.0
 30
0.0
  3
block 71
  1

  0
SPLINE
  5
1AC
330
1A8
100
AcDbEntity
  8
0
  6
AI-Linetype-16
 62
     6
370
    25
100
AcDbSpline
210
0.0
220
0.0
230
1.0
 70
     8
 71
     3
 72
    11
 73
     7
 74
     0
 42
0.0000000001
 43
0.0000000001
 12
1.0
 22
0.0
 32
0.0
 13
1.0
 23
0.0
 33
0.0
 40
0.0
 40
0.0
 40
0.0
 40
0.0
 40
1.0
 40
1.0
 40
1.0
 40
2.0
 40
2.0
 40
2.0
 40
2.0
 10
-295.9301332724415
 20
33.60221546038731
 30
0.0
 10
-292.1052964868684
 20
51.6979757437642
 30
0.0
 10
-275.2157245909946
 20
63.97033220940511
 30
0.0
 10
-256.8234878465502
 20
62.01822615718383
 30
0.0
 10
-238.4313216580232
 20
60.0661553829191
 30
0.0
 10
-224.4943036261155
 20
44.52166206603089
 30
0.0
 10
-224.5534647706417
 20
26.02627302400869
 30
0.0
  0
ENDBLK
  5
1AB
330
1A8
100
AcDbEntity
  8
0
100
AcDbBlockEnd
  0
BLOCK
  5
1B0
330
1AE
100
AcDbEntity
  8
0
100
AcDbBlockBegin
  2
block 72
 70
     0
 10
0.0
 20
0.0
 30
0.0
  3
block 72
  1

  0
SPLINE
  5
1B2
330
1AE
100
AcDbEntity
  8
0
  6
AI-Linetype-17
 62
     6
370
    25
100
AcDbSpline
210
0.0
220
0.0
230
1.0
 70
     8
 71
     3
 72
    11
 73
     7
 74
     0
 42
0.0000000001
 43
0.0000000001
 12
1.0
 22
0.0
 32
0.0
 13
1.0
 23
0.0
 33
0.0
 40
0.0
 40
0.0
 40
0.0
 40
0.0
 40
1.0
 40
1.0
 40
1.0
 40
2.0
 40
2.0
 40
2.0
 40
2.0
 10
-225.5994211057855
 20
17.5167698672821
 30
0.0
 10
-229.9665507438514
 20
-0.2209896531386265
 30
0.0
 10
-246.9020898259702
 20
-11.89552576709088
 30
0.0
 10
-265.0330579739028
 20
-9.66712271295311
 30
0.0
 10
-283.1639908438706
 20
-7.438719658790958
 30
0.0
 10
-296.7682671255431
 20
7.989638605698906
 30
0.0
 10
-296.7098115402763
 20
26.25688506454705
 30
0.0
  0
ENDBLK
  5
1B1
330
1AE
100
AcDbEntity
  8
0
100
AcDbBlockEnd
  0
BLOCK
  5
1B6
330
1B4
100
AcDbEntity
  8
0
100
AcDbBlockBegin
  2
block 73
 70
     0
 10
0.0
 20
0.0
 30
0.0
  3
block 73
  1

  0
SPLINE
  5
1B8
330
1B4
100
AcDbEntity
  8
0
  6
AI-Linetype-18
 62
     6
370
    25
100
AcDbSpline
210
0.0
220
0.0
230
1.0
 70
     8
 71
     3
 72
    11
 73
     7
 74
     0
 42
0.0000000001
 43
0.0000000001
 12
1.0
 22
0.0
 32
0.0
 13
1.0
 23
0.0
 33
0.0
 40
0.0
 40
0.0
 40
0.0
 40
0.0
 40
1.0
 40
1.0
 40
1.0
 40
2.0
 40
2.0
 40
2.0
 40
2.0
 10
-286.7964216173813
 20
26.25646172899397
 30
0.0
 10
-286.8387904513481
 20
13.01466685519929
 30
0.0
 10
-276.9771885786367
 20
1.830882476900118
 30
0.0
 10
-263.8342422236002
 20
0.2155045762641155
 30
0.0
 10
-250.6912605906118
 20
-1.399908602336141
 30
0.0
 10
-238.4148468491414
 20
7.062957088017244
 30
0.0
 10
-235.2491435306585
 20
19.92085717443841
 30
0.0
  0
ENDBLK
  5
1B7
330
1B4
100
AcDbEntity
  8
0
100
AcDbBlockEnd
  0
BLOCK
  5
1BC
330
1BA
100
AcDbEntity
  8
0
100
AcDbBlockBegin
  2
block 74
 70
     0
 10
0.0
 20
0.0
 30
0.0
  3
block 74
  1

  0
SPLINE
  5
1BE
330
1BA
100
AcDbEntity
  8
0
  6
AI-Linetype-19
 62
     6
370
    25
100
AcDbSpline
210
0.0
220
0.0
230
1.0
 70
     8
 71
     3
 72
    11
 73
     7
 74
     0
 42
0.0000000001
 43
0.0000000001
 12
1.0
 22
0.0
 32
0.0
 13
1.0
 23
0.0
 33
0.0
 40
0.0
 40
0.0
 40
0.0
 40
0.0
 40
1.0
 40
1.0
 40
1.0
 40
2.0
 40
2.0
 40
2.0
 40
2.0
 10
443.9196314444343
 20
17.75034525666635
 30
0.0
 10
447.0029607185226
 20
4.872407287583398
 30
0.0
 10
459.2249758405024
 20
-3.668634367578065
 30
0.0
 10
472.3780116930635
 20
-2.13732385145199
 30
0.0
 10
485.5310122676461
 20
-0.6060133353374652
 30
0.0
 10
495.4639814601988
 20
10.51455293424393
 30
0.0
 10
495.5063855721436
 20
23.75634780805015
 30
0.0
  0
ENDBLK
  5
1BD
330
1BA
100
AcDbEntity
  8
0
100
AcDbBlockEnd
  0
BLOCK
  5
1C2
330
1C0
100
AcDbEntity
  8
0
100
AcDbBlockBegin
  2
block 75
 70
     0
 10
0.0
 20
0.0
 30
0.0
  3
block 75
  1

  0
SPLINE
  5
1C4
330
1C0
100
AcDbEntity
  8
0
  6
AI-Linetype-20
 62
     6
370
    25
100
AcDbSpline
210
0.0
220
0.0
230
1.0
 70
     8
 71
     3
 72
    11
 73
     7
 74
     0
 42
0.0000000001
 43
0.0000000001
 12
1.0
 22
0.0
 32
0.0
 13
1.0
 23
0.0
 33
0.0
 40
0.0
 40
0.0
 40
0.0
 40
0.0
 40
1.0
 40
1.0
 40
1.0
 40
2.0
 40
2.0
 40
2.0
 40
2.0
 10
494.9753111119878
 20
29.08441375500338
 30
0.0
 10
492.2867422477013
 20
42.21931640258504
 30
0.0
 10
480.1008164822189
 20
51.19350088072223
 30
0.0
 10
466.7597138070857
 20
49.86366280815596
 30
0.0
 10
453.4186111319655
 20
48.53386001356679
 30
0.0
 10
443.2439173345811
 20
37.33067275592261
 30
0.0
 10
443.2009487752364
 20
23.92349479414149
 30
0.0
  0
ENDBLK
  5
1C3
330
1C0
100
AcDbEntity
  8
0
100
AcDbBlockEnd
  0
BLOCK
  5
1C8
330
1C6
100
AcDbEntity
  8
0
100
AcDbBlockBegin
  2
block 76
 70
     0
 10
0.0
 20
0.0
 30
0.0
  3
block 76
  1

  0
POLYLINE
  5
1CA
330
1C6
100
AcDbEntity
  8
0
 62
     4
370
    25
100
AcDb2dPolyline
 66
     1
 10
0.0
 20
0.0
 30
0.0
  0
VERTEX
  5
1CB
330
1CA
100
AcDbEntity
  8
0
 62
     4
370
    25
100
AcDbVertex
100
AcDb2dVertex
 10
32.78678284084122
 20
150.369019803244
 30
0.0
  0
VERTEX
  5
1CC
330
1CA
100
AcDbEntity
  8
0
 62
     4
370
    25
100
AcDbVertex
100
AcDb2dVertex
 10
44.03686326456272
 20
150.369019803244
 30
0.0
  0
SEQEND
  5
1CD
330
1CA
100
AcDbEntity
  8
0
 62
     4
370
    25
  0
ENDBLK
  5
1C9
330
1C6
100
AcDbEntity
  8
0
100
AcDbBlockEnd
  0
BLOCK
  5
1D0
330
1CE
100
AcDbEntity
  8
0
100
AcDbBlockBegin
  2
block 77
 70
     0
 10
0.0
 20
0.0
 30
0.0
  3
block 77
  1

  0
POLYLINE
  5
1D2
330
1CE
100
AcDbEntity
  8
0
  6
AI-Linetype-21
 62
     4
370
    25
100
AcDb2dPolyline
 66
     1
 10
0.0
 20
0.0
 30
0.0
  0
VERTEX
  5
1D3
330
1D2
100
AcDbEntity
  8
0
  6
AI-Linetype-21
 62
     4
370
    25
100
AcDbVertex
100
AcDb2dVertex
 10
48.06215589322219
 20
150.369019803244
 30
0.0
  0
VERTEX
  5
1D4
330
1D2
100
AcDbEntity
  8
0
  6
AI-Linetype-21
 62
     4
370
    25
100
AcDbVertex
100
AcDb2dVertex
 10
54.1000948362114
 20
150.369019803244
 30
0.0
  0
SEQEND
  5
1D6
330
1D2
100
AcDbEntity
  8
0
  6
AI-Linetype-21
 62
     4
370
    25
  0
ENDBLK
  5
1D1
330
1CE
100
AcDbEntity
  8
0
100
AcDbBlockEnd
  0
BLOCK
  5
1D9
330
1D7
100
AcDbEntity
  8
0
100
AcDbBlockBegin
  2
block 78
 70
     0
 10
0.0
 20
0.0
 30
0.0
  3
block 78
  1

  0
POLYLINE
  5
1DB
330
1D7
100
AcDbEntity
  8
0
  6
AI-Linetype-22
 62
     4
370
    25
100
AcDb2dPolyline
 66
     1
 10
0.0
 20
0.0
 30
0.0
  0
VERTEX
  5
1DC
330
1DB
100
AcDbEntity
  8
0
  6
AI-Linetype-22
 62
     4
370
    25
100
AcDbVertex
100
AcDb2dVertex
 10
56.11274115054114
 20
150.369019803244
 30
0.0
  0
VERTEX
  5
1DD
330
1DB
100
AcDbEntity
  8
0
  6
AI-Linetype-22
 62
     4
370
    25
100
AcDbVertex
100
AcDb2dVertex
 10
162.7835179573014
 20
150.369019803244
 30
0.0
  0
SEQEND
  5
1DF
330
1DB
100
AcDbEntity
  8
0
  6
AI-Linetype-22
 62
     4
370
    25
  0
ENDBLK
  5
1DA
330
1D7
100
AcDbEntity
  8
0
100
AcDbBlockEnd
  0
BLOCK
  5
1E2
330
1E0
100
AcDbEntity
  8
0
100
AcDbBlockBegin
  2
block 79
 70
     0
 10
0.0
 20
0.0
 30
0.0
  3
block 79
  1

  0
POLYLINE
  5
1E4
330
1E0
100
AcDbEntity
  8
0
 62
     4
370
    25
100
AcDb2dPolyline
 66
     1
 10
0.0
 20
0.0
 30
0.0
  0
VERTEX
  5
1E5
330
1E4
100
AcDbEntity
  8
0
 62
     4
370
    25
100
AcDbVertex
100
AcDb2dVertex
 10
164.7961642716311
 20
150.369019803244
 30
0.0
  0
VERTEX
  5
1E6
330
1E4
100
AcDbEntity
  8
0
 62
     4
370
    25
100
AcDbVertex
100
AcDb2dVertex
 10
176.0462527697952
 20
150.369019803244
 30
0.0
  0
SEQEND
  5
1E7
330
1E4
100
AcDbEntity
  8
0
 62
     4
370
    25
  0
ENDBLK
  5
1E3
330
1E0
100
AcDbEntity
  8
0
100
AcDbBlockEnd
  0
BLOCK
  5
1EA
330
1E8
100
AcDbEntity
  8
0
100
AcDbBlockBegin
  2
block 80
 70
     0
 10
0.0
 20
0.0
 30
0.0
  3
block 80
  1

  0
POLYLINE
  5
1EC
330
1E8
100
AcDbEntity
  8
0
 62
     4
370
    25
100
AcDb2dPolyline
 66
     1
 10
0.0
 20
0.0
 30
0.0
  0
VERTEX
  5
1ED
330
1EC
100
AcDbEntity
  8
0
 62
     4
370
    25
100
AcDbVertex
100
AcDb2dVertex
 10
103.7931587292922
 20
217.8480350943305
 30
0.0
  0
VERTEX
  5
1EE
330
1EC
100
AcDbEntity
  8
0
 62
     4
370
    25
100
AcDbVertex
100
AcDb2dVertex
 10
103.7931587292922
 20
206.5979519791282
 30
0.0
  0
SEQEND
  5
1EF
330
1EC
100
AcDbEntity
  8
0
 62
     4
370
    25
  0
ENDBLK
  5
1EB
330
1E8
100
AcDbEntity
  8
0
100
AcDbBlockEnd
  0
BLOCK
  5
1F2
330
1F0
100
AcDbEntity
  8
0
100
AcDbBlockBegin
  2
block 81
 70
     0
 10
0.0
 20
0.0
 30
0.0
  3
block 81
  1

  0
POLYLINE
  5
1F4
330
1F0
100
AcDbEntity
  8
0
  6
AI-Linetype-23
 62
     4
370
    25
100
AcDb2dPolyline
 66
     1
 10
0.0
 20
0.0
 30
0.0
  0
VERTEX
  5
1F5
330
1F4
100
AcDbEntity
  8
0
  6
AI-Linetype-23
 62
     4
370
    25
100
AcDbVertex
100
AcDb2dVertex
 10
103.7931587292922
 20
202.5248694165343
 30
0.0
  0
VERTEX
  5
1F6
330
1F4
100
AcDbEntity
  8
0
  6
AI-Linetype-23
 62
     4
370
    25
100
AcDbVertex
100
AcDb2dVertex
 10
103.7931587292922
 20
196.4152509556051
 30
0.0
  0
SEQEND
  5
1F8
330
1F4
100
AcDbEntity
  8
0
  6
AI-Linetype-23
 62
     4
370
    25
  0
ENDBLK
  5
1F3
330
1F0
100
AcDbEntity
  8
0
100
AcDbBlockEnd
  0
BLOCK
  5
1FB
330
1F9
100
AcDbEntity
  8
0
100
AcDbBlockBegin
  2
block 82
 70
     0
 10
0.0
 20
0.0
 30
0.0
  3
block 82
  1

  0
POLYLINE
  5
1FD
330
1F9
100
AcDbEntity
  8
0
  6
AI-Linetype-24
 62
     4
370
    25
100
AcDb2dPolyline
 66
     1
 10
0.0
 20
0.0
 30
0.0
  0
VERTEX
  5
1FE
330
1FD
100
AcDbEntity
  8
0
  6
AI-Linetype-24
 62
     4
370
    25
100
AcDbVertex
100
AcDb2dVertex
 10
103.7931587292922
 20
194.3787042913464
 30
0.0
  0
VERTEX
  5
1FF
330
1FD
100
AcDbEntity
  8
0
  6
AI-Linetype-24
 62
     4
370
    25
100
AcDbVertex
100
AcDb2dVertex
 10
103.7931587292922
 20
86.4414942353229
 30
0.0
  0
SEQEND
  5
201
330
1FD
100
AcDbEntity
  8
0
  6
AI-Linetype-24
 62
     4
370
    25
  0
ENDBLK
  5
1FC
330
1F9
100
AcDbEntity
  8
0
100
AcDbBlockEnd
  0
BLOCK
  5
204
330
202
100
AcDbEntity
  8
0
100
AcDbBlockBegin
  2
block 83
 70
     0
 10
0.0
 20
0.0
 30
0.0
  3
block 83
  1

  0
POLYLINE
  5
206
330
202
100
AcDbEntity
  8
0
 62
     4
370
    25
100
AcDb2dPolyline
 66
     1
 10
0.0
 20
0.0
 30
0.0
  0
VERTEX
  5
207
330
206
100
AcDbEntity
  8
0
 62
     4
370
    25
100
AcDbVertex
100
AcDb2dVertex
 10
103.7931587292922
 20
84.40494757106424
 30
0.0
  0
VERTEX
  5
208
330
206
100
AcDbEntity
  8
0
 62
     4
370
    25
100
AcDbVertex
100
AcDb2dVertex
 10
103.7931587292922
 20
73.1548590729002
 30
0.0
  0
SEQEND
  5
209
330
206
100
AcDbEntity
  8
0
 62
     4
370
    25
  0
ENDBLK
  5
205
330
202
100
AcDbEntity
  8
0
100
AcDbBlockEnd
  0
ENDSEC
  0
SECTION
  2
ENTITIES
  0
INSERT
  5
41
330
1F
100
AcDbEntity
  8
0
100
AcDbBlockReference
  2
block 2
 10
0.0
 20
0.0
 30
0.0
  0
INSERT
  5
46
330
1F
100
AcDbEntity
  8
0
100
AcDbBlockReference
  2
block 3
 10
0.0
 20
0.0
 30
0.0
  0
INSERT
  5
4B
330
1F
100
AcDbEntity
  8
0
100
AcDbBlockReference
  2
block 4
 10
0.0
 20
0.0
 30
0.0
  0
INSERT
  5
50
330
1F
100
AcDbEntity
  8
0
100
AcDbBlockReference
  2
block 5
 10
0.0
 20
0.0
 30
0.0
  0
INSERT
  5
55
330
1F
100
AcDbEntity
  8
0
100
AcDbBlockReference
  2
block 6
 10
0.0
 20
0.0
 30
0.0
  0
INSERT
  5
5A
330
1F
100
AcDbEntity
  8
0
100
AcDbBlockReference
  2
block 7
 10
0.0
 20
0.0
 30
0.0
  0
INSERT
  5
5F
330
1F
100
AcDbEntity
  8
0
100
AcDbBlockReference
  2
block 8
 10
0.0
 20
0.0
 30
0.0
  0
INSERT
  5
64
330
1F
100
AcDbEntity
  8
0
100
AcDbBlockReference
  2
block 9
 10
0.0
 20
0.0
 30
0.0
  0
INSERT
  5
69
330
1F
100
AcDbEntity
  8
0
100
AcDbBlockReference
  2
block 10
 10
0.0
 20
0.0
 30
0.0
  0
INSERT
  5
6E
330
1F
100
AcDbEntity
  8
0
100
AcDbBlockReference
  2
block 11
 10
0.0
 20
0.0
 30
0.0
  0
INSERT
  5
73
330
1F
100
AcDbEntity
  8
0
100
AcDbBlockReference
  2
block 12
 10
0.0
 20
0.0
 30
0.0
  0
INSERT
  5
78
330
1F
100
AcDbEntity
  8
0
100
AcDbBlockReference
  2
block 13
 10
0.0
 20
0.0
 30
0.0
  0
INSERT
  5
7D
330
1F
100
AcDbEntity
  8
0
100
AcDbBlockReference
  2
block 14
 10
0.0
 20
0.0
 30
0.0
  0
INSERT
  5
82
330
1F
100
AcDbEntity
  8
0
100
AcDbBlockReference
  2
block 15
 10
0.0
 20
0.0
 30
0.0
  0
INSERT
  5
87
330
1F
100
AcDbEntity
  8
0
100
AcDbBlockReference
  2
block 16
 10
0.0
 20
0.0
 30
0.0
  0
INSERT
  5
8C
330
1F
100
AcDbEntity
  8
0
100
AcDbBlockReference
  2
block 17
 10
0.0
 20
0.0
 30
0.0
  0
INSERT
  5
91
330
1F
100
AcDbEntity
  8
0
100
AcDbBlockReference
  2
block 18
 10
0.0
 20
0.0
 30
0.0
  0
INSERT
  5
96
330
1F
100
AcDbEntity
  8
0
100
AcDbBlockReference
  2
block 19
 10
0.0
 20
0.0
 30
0.0
  0
INSERT
  5
9B
330
1F
100
AcDbEntity
  8
0
100
AcDbBlockReference
  2
block 20
 10
0.0
 20
0.0
 30
0.0
  0
INSERT
  5
A0
330
1F
100
AcDbEntity
  8
0
100
AcDbBlockReference
  2
block 21
 10
0.0
 20
0.0
 30
0.0
  0
INSERT
  5
A5
330
1F
100
AcDbEntity
  8
0
100
AcDbBlockReference
  2
block 22
 10
0.0
 20
0.0
 30
0.0
  0
INSERT
  5
AA
330
1F
100
AcDbEntity
  8
0
100
AcDbBlockReference
  2
block 23
 10
0.0
 20
0.0
 30
0.0
  0
INSERT
  5
AF
330
1F
100
AcDbEntity
  8
0
100
AcDbBlockReference
  2
block 24
 10
0.0
 20
0.0
 30
0.0
  0
INSERT
  5
B4
330
1F
100
AcDbEntity
  8
0
100
AcDbBlockReference
  2
block 25
 10
0.0
 20
0.0
 30
0.0
  0
INSERT
  5
B9
330
1F
100
AcDbEntity
  8
0
100
AcDbBlockReference
  2
block 26
 10
0.0
 20
0.0
 30
0.0
  0
INSERT
  5
BE
330
1F
100
AcDbEntity
  8
0
100
AcDbBlockReference
  2
block 27
 10
0.0
 20
0.0
 30
0.0
  0
INSERT
  5
C3
330
1F
100
AcDbEntity
  8
0
100
AcDbBlockReference
  2
block 28
 10
0.0
 20
0.0
 30
0.0
  0
INSERT
  5
C8
330
1F
100
AcDbEntity
  8
0
100
AcDbBlockReference
  2
block 29
 10
0.0
 20
0.0
 30
0.0
  0
INSERT
  5
CD
330
1F
100
AcDbEntity
  8
0
100
AcDbBlockReference
  2
block 30
 10
0.0
 20
0.0
 30
0.0
  0
INSERT
  5
D2
330
1F
100
AcDbEntity
  8
0
100
AcDbBlockReference
  2
block 31
 10
0.0
 20
0.0
 30
0.0
  0
INSERT
  5
D7
330
1F
100
AcDbEntity
  8
0
100
AcDbBlockReference
  2
block 32
 10
0.0
 20
0.0
 30
0.0
  0
INSERT
  5
DC
330
1F
100
AcDbEntity
  8
0
100
AcDbBlockReference
  2
block 33
 10
0.0
 20
0.0
 30
0.0
  0
INSERT
  5
E1
330
1F
100
AcDbEntity
  8
0
100
AcDbBlockReference
  2
block 34
 10
0.0
 20
0.0
 30
0.0
  0
INSERT
  5
E6
330
1F
100
AcDbEntity
  8
0
100
AcDbBlockReference
  2
block 35
 10
0.0
 20
0.0
 30
0.0
  0
INSERT
  5
EB
330
1F
100
AcDbEntity
  8
0
100
AcDbBlockReference
  2
block 36
 10
0.0
 20
0.0
 30
0.0
  0
INSERT
  5
F0
330
1F
100
AcDbEntity
  8
0
100
AcDbBlockReference
  2
block 37
 10
0.0
 20
0.0
 30
0.0
  0
INSERT
  5
F5
330
1F
100
AcDbEntity
  8
0
100
AcDbBlockReference
  2
block 38
 10
0.0
 20
0.0
 30
0.0
  0
INSERT
  5
FB
330
1F
100
AcDbEntity
  8
0
100
AcDbBlockReference
  2
block 39
 10
0.0
 20
0.0
 30
0.0
  0
INSERT
  5
101
330
1F
100
AcDbEntity
  8
0
100
AcDbBlockReference
  2
block 40
 10
0.0
 20
0.0
 30
0.0
  0
INSERT
  5
107
330
1F
100
AcDbEntity
  8
0
100
AcDbBlockReference
  2
block 41
 10
0.0
 20
0.0
 30
0.0
  0
INSERT
  5
10D
330
1F
100
AcDbEntity
  8
0
100
AcDbBlockReference
  2
block 42
 10
0.0
 20
0.0
 30
0.0
  0
INSERT
  5
112
330
1F
100
AcDbEntity
  8
0
100
AcDbBlockReference
  2
block 43
 10
0.0
 20
0.0
 30
0.0
  0
INSERT
  5
117
330
1F
100
AcDbEntity
  8
0
100
AcDbBlockReference
  2
block 44
 10
0.0
 20
0.0
 30
0.0
  0
INSERT
  5
11C
330
1F
100
AcDbEntity
  8
0
100
AcDbBlockReference
  2
block 45
 10
0.0
 20
0.0
 30
0.0
  0
INSERT
  5
121
330
1F
100
AcDbEntity
  8
0
100
AcDbBlockReference
  2
block 46
 10
0.0
 20
0.0
 30
0.0
  0
INSERT
  5
126
330
1F
100
AcDbEntity
  8
0
100
AcDbBlockReference
  2
block 47
 10
0.0
 20
0.0
 30
0.0
  0
INSERT
  5
12B
330
1F
100
AcDbEntity
  8
0
100
AcDbBlockReference
  2
block 48
 10
0.0
 20
0.0
 30
0.0
  0
INSERT
  5
130
330
1F
100
AcDbEntity
  8
0
100
AcDbBlockReference
  2
block 49
 10
0.0
 20
0.0
 30
0.0
  0
INSERT
  5
135
330
1F
100
AcDbEntity
  8
0
100
AcDbBlockReference
  2
block 50
 10
0.0
 20
0.0
 30
0.0
  0
INSERT
  5
13A
330
1F
100
AcDbEntity
  8
0
100
AcDbBlockReference
  2
block 51
 10
0.0
 20
0.0
 30
0.0
  0
INSERT
  5
13F
330
1F
100
AcDbEntity
  8
0
100
AcDbBlockReference
  2
block 52
 10
0.0
 20
0.0
 30
0.0
  0
INSERT
  5
144
330
1F
100
AcDbEntity
  8
0
100
AcDbBlockReference
  2
block 53
 10
0.0
 20
0.0
 30
0.0
  0
INSERT
  5
149
330
1F
100
AcDbEntity
  8
0
100
AcDbBlockReference
  2
block 54
 10
0.0
 20
0.0
 30
0.0
  0
INSERT
  5
14E
330
1F
100
AcDbEntity
  8
0
100
AcDbBlockReference
  2
block 55
 10
0.0
 20
0.0
 30
0.0
  0
INSERT
  5
153
330
1F
100
AcDbEntity
  8
0
100
AcDbBlockReference
  2
block 56
 10
0.0
 20
0.0
 30
0.0
  0
INSERT
  5
158
330
1F
100
AcDbEntity
  8
0
100
AcDbBlockReference
  2
block 57
 10
0.0
 20
0.0
 30
0.0
  0
INSERT
  5
15D
330
1F
100
AcDbEntity
  8
0
100
AcDbBlockReference
  2
block 58
 10
0.0
 20
0.0
 30
0.0
  0
INSERT
  5
162
330
1F
100
AcDbEntity
  8
0
100
AcDbBlockReference
  2
block 59
 10
0.0
 20
0.0
 30
0.0
  0
INSERT
  5
167
330
1F
100
AcDbEntity
  8
0
100
AcDbBlockReference
  2
block 60
 10
0.0
 20
0.0
 30
0.0
  0
INSERT
  5
16D
330
1F
100
AcDbEntity
  8
0
100
AcDbBlockReference
  2
block 61
 10
0.0
 20
0.0
 30
0.0
  0
INSERT
  5
173
330
1F
100
AcDbEntity
  8
0
100
AcDbBlockReference
  2
block 62
 10
0.0
 20
0.0
 30
0.0
  0
INSERT
  5
179
330
1F
100
AcDbEntity
  8
0
100
AcDbBlockReference
  2
block 63
 10
0.0
 20
0.0
 30
0.0
  0
INSERT
  5
17F
330
1F
100
AcDbEntity
  8
0
100
AcDbBlockReference
  2
block 64
 10
0.0
 20
0.0
 30
0.0
  0
INSERT
  5
185
330
1F
100
AcDbEntity
  8
0
100
AcDbBlockReference
  2
block 65
 10
0.0
 20
0.0
 30
0.0
  0
INSERT
  5
18B
330
1F
100
AcDbEntity
  8
0
100
AcDbBlockReference
  2
block 66
 10
0.0
 20
0.0
 30
0.0
  0
INSERT
  5
191
330
1F
100
AcDbEntity
  8
0
100
AcDbBlockReference
  2
block 67
 10
0.0
 20
0.0
 30
0.0
  0
INSERT
  5
197
330
1F
100
AcDbEntity
  8
0
100
AcDbBlockReference
  2
block 68
 10
0.0
 20
0.0
 30
0.0
  0
INSERT
  5
19D
330
1F
100
AcDbEntity
  8
0
100
AcDbBlockReference
  2
block 69
 10
0.0
 20
0.0
 30
0.0
  0
INSERT
  5
1A3
330
1F
100
AcDbEntity
  8
0
100
AcDbBlockReference
  2
block 70
 10
0.0
 20
0.0
 30
0.0
  0
INSERT
  5
1A9
330
1F
100
AcDbEntity
  8
0
100
AcDbBlockReference
  2
block 71
 10
0.0
 20
0.0
 30
0.0
  0
INSERT
  5
1AF
330
1F
100
AcDbEntity
  8
0
100
AcDbBlockReference
  2
block 72
 10
0.0
 20
0.0
 30
0.0
  0
INSERT
  5
1B5
330
1F
100
AcDbEntity
  8
0
100
AcDbBlockReference
  2
block 73
 10
0.0
 20
0.0
 30
0.0
  0
INSERT
  5
1BB
330
1F
100
AcDbEntity
  8
0
100
AcDbBlockReference
  2
block 74
 10
0.0
 20
0.0
 30
0.0
  0
INSERT
  5
1C1
330
1F
100
AcDbEntity
  8
0
100
AcDbBlockReference
  2
block 75
 10
0.0
 20
0.0
 30
0.0
  0
INSERT
  5
1C7
330
1F
100
AcDbEntity
  8
0
100
AcDbBlockReference
  2
block 76
 10
0.0
 20
0.0
 30
0.0
  0
INSERT
  5
1CF
330
1F
100
AcDbEntity
  8
0
100
AcDbBlockReference
  2
block 77
 10
0.0
 20
0.0
 30
0.0
  0
INSERT
  5
1D8
330
1F
100
AcDbEntity
  8
0
100
AcDbBlockReference
  2
block 78
 10
0.0
 20
0.0
 30
0.0
  0
INSERT
  5
1E1
330
1F
100
AcDbEntity
  8
0
100
AcDbBlockReference
  2
block 79
 10
0.0
 20
0.0
 30
0.0
  0
INSERT
  5
1E9
330
1F
100
AcDbEntity
  8
0
100
AcDbBlockReference
  2
block 80
 10
0.0
 20
0.0
 30
0.0
  0
INSERT
  5
1F1
330
1F
100
AcDbEntity
  8
0
100
AcDbBlockReference
  2
block 81
 10
0.0
 20
0.0
 30
0.0
  0
INSERT
  5
1FA
330
1F
100
AcDbEntity
  8
0
100
AcDbBlockReference
  2
block 82
 10
0.0
 20
0.0
 30
0.0
  0
INSERT
  5
203
330
1F
100
AcDbEntity
  8
0
100
AcDbBlockReference
  2
block 83
 10
0.0
 20
0.0
 30
0.0
  0
ENDSEC
  0
SECTION
  2
OBJECTS
  0
DICTIONARY
  5
C
330
0
100
AcDbDictionary
281
     1
  3
ACAD_GROUP
350
D
  3
ACAD_LAYOUT
350
1A
  3
ACAD_MATERIAL
350
3B
  3
ACAD_MLEADERSTYLE
350
22B
  3
ACAD_MLINESTYLE
350
17
  3
ACAD_PLOTSETTINGS
350
19
  3
ACAD_PLOTSTYLENAME
350
E
  3
ACAD_TABLESTYLE
350
22A
  3
ACAD_VISUALSTYLE
350
2A
  0
SUN
  5
3F
330
29
100
AcDbSun
 90
        1
290
     0
 63
     7
421
 16777215
 40
1.0
291
     1
 91
  2455826
 92
 54000000
292
     0
 70
     2
 71
   256
280
     1
  0
DICTIONARY
  5
D
102
{ACAD_REACTORS
330
C
102
}
330
C
100
AcDbDictionary
281
     1
  0
DICTIONARY
  5
1A
102
{ACAD_REACTORS
330
C
102
}
330
C
100
AcDbDictionary
281
     1
  3
Layout1
350
1E
  3
Layout2
350
26
  3
Model
350
22
  0
DICTIONARY
  5
3B
102
{ACAD_REACTORS
330
C
102
}
330
C
100
AcDbDictionary
281
     1
  3
ByBlock
350
3D
  3
ByLayer
350
3C
  3
Global
350
3E
  0
DICTIONARY
  5
22B
102
{ACAD_REACTORS
330
C
102
}
330
C
100
AcDbDictionary
281
     1
  0
DICTIONARY
  5
17
102
{ACAD_REACTORS
330
C
102
}
330
C
100
AcDbDictionary
281
     1
  3
Standard
350
18
  0
DICTIONARY
  5
19
102
{ACAD_REACTORS
330
C
102
}
330
C
100
AcDbDictionary
281
     1
  0
ACDBDICTIONARYWDFLT
  5
E
102
{ACAD_REACTORS
330
C
102
}
330
C
100
AcDbDictionary
281
     1
  3
Normal
350
F
100
AcDbDictionaryWithDefault
340
F
  0
DICTIONARY
  5
22A
102
{ACAD_REACTORS
330
C
102
}
330
C
100
AcDbDictionary
281
     1
  0
DICTIONARY
  5
2A
102
{ACAD_REACTORS
330
C
102
}
330
C
100
AcDbDictionary
281
     1
  3
2dWireframe
350
2F
  3
3D Hidden
350
31
  3
3dWireframe
350
30
  3
Basic
350
32
  3
Brighten
350
36
  3
ColorChange
350
3A
  3
Conceptual
350
34
  3
Dim
350
35
  3
Facepattern
350
39
  3
Flat
350
2B
  3
FlatWithEdges
350
2C
  3
Gouraud
350
2D
  3
GouraudWithEdges
350
2E
  3
Linepattern
350
38
  3
Realistic
350
33
  3
Thicken
350
37
  0
LAYOUT
  5
1E
102
{ACAD_REACTORS
330
1A
102
}
330
1A
100
AcDbPlotSettings
  1

  2
none_device
  4

  6

 40
0.0
 41
0.0
 42
0.0
 43
0.0
 44
0.0
 45
0.0
 46
0.0
 47
0.0
 48
0.0
 49
0.0
140
0.0
141
0.0
142
1.0
143
1.0
 70
   688
 72
     0
 73
     0
 74
     5
  7

 75
    16
 76
     0
 77
     2
 78
   300
147
1.0
148
0.0
149
0.0
100
AcDbLayout
  1
Layout1
 70
     1
 71
     1
 10
0.0
 20
0.0
 11
12.0
 21
9.0
 12
0.0
 22
0.0
 32
0.0
 14
1.000000000000000E+20
 24
1.000000000000000E+20
 34
1.000000000000000E+20
 15
-1.000000000000000E+20
 25
-1.000000000000000E+20
 35
-1.000000000000000E+20
146
0.0
 13
0.0
 23
0.0
 33
0.0
 16
1.0
 26
0.0
 36
0.0
 17
0.0
 27
1.0
 37
0.0
 76
     0
330
1B
  0
LAYOUT
  5
26
102
{ACAD_REACTORS
330
1A
102
}
330
1A
100
AcDbPlotSettings
  1

  2
none_device
  4

  6

 40
0.0
 41
0.0
 42
0.0
 43
0.0
 44
0.0
 45
0.0
 46
0.0
 47
0.0
 48
0.0
 49
0.0
140
0.0
141
0.0
142
1.0
143
1.0
 70
   688
 72
     0
 73
     0
 74
     5
  7

 75
    16
 76
     0
 77
     2
 78
   300
147
1.0
148
0.0
149
0.0
100
AcDbLayout
  1
Layout2
 70
     1
 71
     2
 10
0.0
 20
0.0
 11
0.0
 21
0.0
 12
0.0
 22
0.0
 32
0.0
 14
0.0
 24
0.0
 34
0.0
 15
0.0
 25
0.0
 35
0.0
146
0.0
 13
0.0
 23
0.0
 33
0.0
 16
1.0
 26
0.0
 36
0.0
 17
0.0
 27
1.0
 37
0.0
 76
     0
330
23
  0
LAYOUT
  5
22
102
{ACAD_REACTORS
330
1A
102
}
330
1A
100
AcDbPlotSettings
  1

  2
none_device
  4

  6

 40
0.0
 41
0.0
 42
0.0
 43
0.0
 44
0.0
 45
0.0
 46
0.0
 47
0.0
 48
0.0
 49
0.0
140
0.0
141
0.0
142
1.0
143
1.0
 70
  1712
 72
     0
 73
     0
 74
     0
  7

 75
     0
 76
     0
 77
     2
 78
   300
147
1.0
148
0.0
149
0.0
100
AcDbLayout
  1
Model
 70
     1
 71
     0
 10
0.0
 20
0.0
 11
12.0
 21
9.0
 12
0.0
 22
0.0
 32
0.0
 14
1.000000000000000E+20
 24
1.000000000000000E+20
 34
1.000000000000000E+20
 15
-1.000000000000000E+20
 25
-1.000000000000000E+20
 35
-1.000000000000000E+20
146
0.0
 13
0.0
 23
0.0
 33
0.0
 16
1.0
 26
0.0
 36
0.0
 17
0.0
 27
1.0
 37
0.0
 76
     0
330
1F
331
29
  0
MATERIAL
  5
3D
102
{ACAD_REACTORS
330
3B
102
}
330
3B
100
AcDbMaterial
  1
ByBlock
 72
     1
 94
      127
  0
MATERIAL
  5
3C
102
{ACAD_REACTORS
330
3B
102
}
330
3B
100
AcDbMaterial
  1
ByLayer
 72
     1
 94
      127
  0
MATERIAL
  5
3E
102
{ACAD_REACTORS
330
3B
102
}
330
3B
100
AcDbMaterial
  1
Global
 72
     1
 94
      127
  0
MLINESTYLE
  5
18
102
{ACAD_REACTORS
330
17
102
}
330
17
100
AcDbMlineStyle
  2
Standard
 70
     0
  3

 62
   256
 51
90.0
 52
90.0
 71
     2
 49
0.5
 62
   256
  6
BYLAYER
 49
-0.5
 62
   256
  6
BYLAYER
  0
ACDBPLACEHOLDER
  5
F
102
{ACAD_REACTORS
330
E
102
}
330
E
  0
VISUALSTYLE
  5
2F
102
{ACAD_REACTORS
330
2A
102
}
102
{ACAD_XDICTIONARY
360
212
102
}
330
2A
100
AcDbVisualStyle
  2
2dWireframe
 70
     4
 71
     0
 72
     2
 73
     0
 90
        0
 40
-0.6
 41
-30.0
 62
     5
 63
     7
421
 16777215
 74
     1
 91
        4
 64
     7
 65
   257
 75
     1
175
     1
 42
1.0
 92
        0
 66
   257
 43
1.0
 76
     1
 77
     6
 78
     2
 67
     7
 79
     5
170
     0
171
     0
290
     0
174
     0
 93
        1
 44
0.0
173
     0
291
     0
 45
0.0
  0
VISUALSTYLE
  5
31
102
{ACAD_REACTORS
330
2A
102
}
102
{ACAD_XDICTIONARY
360
216
102
}
330
2A
100
AcDbVisualStyle
  2
3D Hidden
 70
     6
 71
     1
 72
     2
 73
     2
 90
        0
 40
-0.6
 41
-30.0
 62
     5
 63
     7
421
 16777215
 74
     2
 91
        2
 64
     7
 65
   257
 75
     2
175
     1
 42
40.0
 92
        0
 66
   257
 43
1.0
 76
     1
 77
     6
 78
     2
 67
     7
 79
     3
170
     0
171
     0
290
     0
174
     0
 93
        1
 44
0.0
173
     0
291
     0
 45
0.0
  0
VISUALSTYLE
  5
30
102
{ACAD_REACTORS
330
2A
102
}
102
{ACAD_XDICTIONARY
360
214
102
}
330
2A
100
AcDbVisualStyle
  2
3dWireframe
 70
     5
 71
     0
 72
     2
 73
     0
 90
        0
 40
-0.6
 41
-30.0
 62
     5
 63
     7
421
 16777215
 74
     1
 91
        4
 64
     7
 65
   257
 75
     1
175
     1
 42
1.0
 92
        0
 66
   257
 43
1.0
 76
     1
 77
     6
 78
     2
 67
     7
 79
     5
170
     0
171
     0
290
     0
174
     0
 93
        1
 44
0.0
173
     0
291
     0
 45
0.0
  0
VISUALSTYLE
  5
32
102
{ACAD_REACTORS
330
2A
102
}
102
{ACAD_XDICTIONARY
360
218
102
}
330
2A
100
AcDbVisualStyle
  2
Basic
 70
     7
 71
     1
 72
     0
 73
     1
 90
        0
 40
-0.6
 41
-30.0
 62
     5
 63
     7
421
 16777215
 74
     0
 91
        4
 64
     7
 65
   257
 75
     1
175
     1
 42
1.0
 92
        8
 66
     7
 43
1.0
 76
     1
 77
     6
 78
     2
 67
     7
 79
     5
170
     0
171
     0
290
     0
174
     0
 93
        1
 44
0.0
173
     0
291
     1
 45
0.0
  0
VISUALSTYLE
  5
36
102
{ACAD_REACTORS
330
2A
102
}
102
{ACAD_XDICTIONARY
360
220
102
}
330
2A
100
AcDbVisualStyle
  2
Brighten
 70
    12
 71
     2
 72
     2
 73
     0
 90
        0
 40
-0.6
 41
-30.0
 62
     5
 63
     7
421
 16777215
 74
     1
 91
        4
 64
     7
 65
   257
 75
     1
175
     1
 42
1.0
 92
        8
 66
     7
 43
1.0
 76
     1
 77
     6
 78
     2
 67
     7
 79
     5
170
     0
171
     0
290
     0
174
     0
 93
        1
 44
50.0
173
     0
291
     1
 45
0.0
  0
VISUALSTYLE
  5
3A
102
{ACAD_REACTORS
330
2A
102
}
102
{ACAD_XDICTIONARY
360
228
102
}
330
2A
100
AcDbVisualStyle
  2
ColorChange
 70
    16
 71
     2
 72
     2
 73
     3
 90
        0
 40
-0.6
 41
-30.0
 62
     5
 63
     8
421
  8421504
 74
     1
 91
        4
 64
     7
 65
   257
 75
     1
175
     1
 42
1.0
 92
        8
 66
     8
424
  8421504
 43
1.0
 76
     1
 77
     6
 78
     2
 67
     7
 79
     5
170
     0
171
     0
290
     0
174
     0
 93
        1
 44
0.0
173
     0
291
     1
 45
0.0
  0
VISUALSTYLE
  5
34
102
{ACAD_REACTORS
330
2A
102
}
102
{ACAD_XDICTIONARY
360
21C
102
}
330
2A
100
AcDbVisualStyle
  2
Conceptual
 70
     9
 71
     3
 72
     2
 73
     0
 90
        0
 40
-0.6
 41
-30.0
 62
     5
 63
     7
421
 16777215
 74
     2
 91
        2
 64
     7
 65
   257
 75
     1
175
     1
 42
40.0
 92
        8
 66
     7
 43
1.0
 76
     1
 77
     6
 78
     2
 67
     7
 79
     3
170
     0
171
     0
290
     0
174
     0
 93
        1
 44
0.0
173
     0
291
     0
 45
0.0
  0
VISUALSTYLE
  5
35
102
{ACAD_REACTORS
330
2A
102
}
102
{ACAD_XDICTIONARY
360
21E
102
}
330
2A
100
AcDbVisualStyle
  2
Dim
 70
    11
 71
     2
 72
     2
 73
     0
 90
        0
 40
-0.6
 41
-30.0
 62
     5
 63
     7
421
 16777215
 74
     1
 91
        4
 64
     7
 65
   257
 75
     1
175
     1
 42
1.0
 92
        8
 66
     7
 43
1.0
 76
     1
 77
     6
 78
     2
 67
     7
 79
     5
170
     0
171
     0
290
     0
174
     0
 93
        1
 44
-50.0
173
     0
291
     1
 45
0.0
  0
VISUALSTYLE
  5
39
102
{ACAD_REACTORS
330
2A
102
}
102
{ACAD_XDICTIONARY
360
226
102
}
330
2A
100
AcDbVisualStyle
  2
Facepattern
 70
    15
 71
     2
 72
     2
 73
     0
 90
        0
 40
-0.6
 41
-30.0
 62
     5
 63
     7
421
 16777215
 74
     1
 91
        4
 64
     7
 65
   257
 75
     1
175
     1
 42
1.0
 92
        8
 66
     7
 43
1.0
 76
     1
 77
     6
 78
     2
 67
     7
 79
     5
170
     0
171
     0
290
     0
174
     0
 93
        1
 44
0.0
173
     0
291
     1
 45
0.0
  0
VISUALSTYLE
  5
2B
102
{ACAD_REACTORS
330
2A
102
}
102
{ACAD_XDICTIONARY
360
20A
102
}
330
2A
100
AcDbVisualStyle
  2
Flat
 70
     0
 71
     2
 72
     1
 73
     1
 90
        2
 40
-0.6
 41
30.0
 62
     5
 63
     7
421
 16777215
 74
     0
 91
        4
 64
     7
 65
   257
 75
     1
175
     1
 42
1.0
 92
        8
 66
     7
 43
1.0
 76
     1
 77
     6
 78
     2
 67
     7
 79
     5
170
     0
171
     0
290
     0
174
     0
 93
       13
 44
0.0
173
     0
291
     1
 45
0.0
  0
VISUALSTYLE
  5
2C
102
{ACAD_REACTORS
330
2A
102
}
102
{ACAD_XDICTIONARY
360
20C
102
}
330
2A
100
AcDbVisualStyle
  2
FlatWithEdges
 70
     1
 71
     2
 72
     1
 73
     1
 90
        2
 40
-0.6
 41
30.0
 62
     5
 63
     7
421
 16777215
 74
     1
 91
        4
 64
     7
 65
   257
 75
     1
175
     1
 42
1.0
 92
        0
 66
   257
 43
1.0
 76
     1
 77
     6
 78
     2
 67
     7
 79
     5
170
     0
171
     0
290
     0
174
     0
 93
       13
 44
0.0
173
     0
291
     1
 45
0.0
  0
VISUALSTYLE
  5
2D
102
{ACAD_REACTORS
330
2A
102
}
102
{ACAD_XDICTIONARY
360
20E
102
}
330
2A
100
AcDbVisualStyle
  2
Gouraud
 70
     2
 71
     2
 72
     2
 73
     1
 90
        2
 40
-0.6
 41
30.0
 62
     5
 63
     7
421
 16777215
 74
     0
 91
        4
 64
     7
 65
   257
 75
     1
175
     1
 42
1.0
 92
        0
 66
     7
 43
1.0
 76
     1
 77
     6
 78
     2
 67
     7
 79
     5
170
     0
171
     0
290
     0
174
     0
 93
       13
 44
0.0
173
     0
291
     1
 45
0.0
  0
VISUALSTYLE
  5
2E
102
{ACAD_REACTORS
330
2A
102
}
102
{ACAD_XDICTIONARY
360
210
102
}
330
2A
100
AcDbVisualStyle
  2
GouraudWithEdges
 70
     3
 71
     2
 72
     2
 73
     1
 90
        2
 40
-0.6
 41
30.0
 62
     5
 63
     7
421
 16777215
 74
     1
 91
        4
 64
     7
 65
   257
 75
     1
175
     1
 42
1.0
 92
        0
 66
   257
 43
1.0
 76
     1
 77
     6
 78
     2
 67
     7
 79
     5
170
     0
171
     0
290
     0
174
     0
 93
       13
 44
0.0
173
     0
291
     1
 45
0.0
  0
VISUALSTYLE
  5
38
102
{ACAD_REACTORS
330
2A
102
}
102
{ACAD_XDICTIONARY
360
224
102
}
330
2A
100
AcDbVisualStyle
  2
Linepattern
 70
    14
 71
     2
 72
     2
 73
     0
 90
        0
 40
-0.6
 41
-30.0
 62
     5
 63
     7
421
 16777215
 74
     1
 91
        4
 64
     7
 65
   257
 75
     7
175
     7
 42
1.0
 92
        8
 66
     7
 43
1.0
 76
     1
 77
     6
 78
     2
 67
     7
 79
     5
170
     0
171
     0
290
     0
174
     0
 93
        1
 44
0.0
173
     0
291
     1
 45
0.0
  0
VISUALSTYLE
  5
33
102
{ACAD_REACTORS
330
2A
102
}
102
{ACAD_XDICTIONARY
360
21A
102
}
330
2A
100
AcDbVisualStyle
  2
Realistic
 70
     8
 71
     2
 72
     2
 73
     0
 90
        0
 40
-0.6
 41
-30.0
 62
     5
 63
     7
421
 16777215
 74
     1
 91
        0
 64
     7
 65
   257
 75
     1
175
     1
 42
1.0
 92
        8
 66
     8
424
  7895160
 43
1.0
 76
     1
 77
     6
 78
     2
 67
     7
 79
     5
170
     0
171
     0
290
     0
174
     0
 93
       13
 44
0.0
173
     0
291
     0
 45
0.0
  0
VISUALSTYLE
  5
37
102
{ACAD_REACTORS
330
2A
102
}
102
{ACAD_XDICTIONARY
360
222
102
}
330
2A
100
AcDbVisualStyle
  2
Thicken
 70
    13
 71
     2
 72
     2
 73
     0
 90
        0
 40
-0.6
 41
-30.0
 62
     5
 63
     7
421
 16777215
 74
     1
 91
        4
 64
     7
 65
   257
 75
     1
175
     1
 42
1.0
 92
       12
 66
     7
 43
1.0
 76
     1
 77
     6
 78
     2
 67
     7
 79
     5
170
     0
171
     0
290
     0
174
     0
 93
        1
 44
0.0
173
     0
291
     1
 45
0.0
  0
DICTIONARY
  5
212
330
2F
100
AcDbDictionary
280
     1
281
     1
  3
ACAD_XREC_ROUNDTRIP
360
213
  0
DICTIONARY
  5
216
330
31
100
AcDbDictionary
280
     1
281
     1
  3
ACAD_XREC_ROUNDTRIP
360
217
  0
DICTIONARY
  5
214
330
30
100
AcDbDictionary
280
     1
281
     1
  3
ACAD_XREC_ROUNDTRIP
360
215
  0
DICTIONARY
  5
218
330
32
100
AcDbDictionary
280
     1
281
     1
  3
ACAD_XREC_ROUNDTRIP
360
219
  0
DICTIONARY
  5
220
330
36
100
AcDbDictionary
280
     1
281
     1
  3
ACAD_XREC_ROUNDTRIP
360
221
  0
DICTIONARY
  5
228
330
3A
100
AcDbDictionary
280
     1
281
     1
  3
ACAD_XREC_ROUNDTRIP
360
229
  0
DICTIONARY
  5
21C
330
34
100
AcDbDictionary
280
     1
281
     1
  3
ACAD_XREC_ROUNDTRIP
360
21D
  0
DICTIONARY
  5
21E
330
35
100
AcDbDictionary
280
     1
281
     1
  3
ACAD_XREC_ROUNDTRIP
360
21F
  0
DICTIONARY
  5
226
330
39
100
AcDbDictionary
280
     1
281
     1
  3
ACAD_XREC_ROUNDTRIP
360
227
  0
DICTIONARY
  5
20A
330
2B
100
AcDbDictionary
280
     1
281
     1
  3
ACAD_XREC_ROUNDTRIP
360
20B
  0
DICTIONARY
  5
20C
330
2C
100
AcDbDictionary
280
     1
281
     1
  3
ACAD_XREC_ROUNDTRIP
360
20D
  0
DICTIONARY
  5
20E
330
2D
100
AcDbDictionary
280
     1
281
     1
  3
ACAD_XREC_ROUNDTRIP
360
20F
  0
DICTIONARY
  5
210
330
2E
100
AcDbDictionary
280
     1
281
     1
  3
ACAD_XREC_ROUNDTRIP
360
211
  0
DICTIONARY
  5
224
330
38
100
AcDbDictionary
280
     1
281
     1
  3
ACAD_XREC_ROUNDTRIP
360
225
  0
DICTIONARY
  5
21A
330
33
100
AcDbDictionary
280
     1
281
     1
  3
ACAD_XREC_ROUNDTRIP
360
21B
  0
DICTIONARY
  5
222
330
37
100
AcDbDictionary
280
     1
281
     1
  3
ACAD_XREC_ROUNDTRIP
360
223
  0
XRECORD
  5
213
102
{ACAD_REACTORS
330
212
102
}
330
212
100
AcDbXrecord
280
     1
102
RTVSPropertyOp0
 70
     1
102
RTVSPropertyOp1
 70
     1
102
RTVSPropertyOp2
 70
     1
102
RTVSPropertyOp3
 70
     1
102
RTVSPropertyOp4
 70
     1
102
RTVSPropertyOp5
 70
     1
102
RTVSPropertyOp6
 70
     1
102
RTVSPropertyOp7
 70
     1
102
RTVSPropertyOp8
 70
     1
102
RTVSPropertyOp9
 70
     1
102
RTVSPropertyOp10
 70
     1
102
RTVSPropertyOp11
 70
     1
102
RTVSPropertyOp12
 70
     1
102
RTVSPropertyOp13
 70
     1
102
RTVSPropertyOp14
 70
     1
102
RTVSPropertyOp15
 70
     1
102
RTVSPropertyOp16
 70
     1
102
RTVSPropertyOp17
 70
     1
102
RTVSPropertyOp18
 70
     1
102
RTVSPropertyOp19
 70
     1
102
RTVSPropertyOp20
 70
     1
102
RTVSPropertyOp21
 70
     1
102
RTVSPropertyOp22
 70
     1
102
RTVSPropertyOp23
 70
     1
102
RTVSPropertyOp24
 70
     1
102
RTVSPropertyOp25
 70
     1
102
RTVSPropertyOp26
 70
     1
102
RTVSPropertyOp27
 70
     1
102
RTVSPropertyOp28
 70
     1
102
RTVSPropertyOp29
 70
     1
102
RTVSPropertyOp30
 70
     1
102
RTVSPropertyOp31
 70
     1
102
RTVSPropertyOp32
 70
     1
  0
XRECORD
  5
217
102
{ACAD_REACTORS
330
216
102
}
330
216
100
AcDbXrecord
280
     1
102
RTVSPropertyOp0
 70
     1
102
RTVSPropertyOp1
 70
     1
102
RTVSPropertyOp2
 70
     1
102
RTVSPropertyOp3
 70
     1
102
RTVSPropertyOp4
 70
     1
102
RTVSPropertyOp5
 70
     1
102
RTVSPropertyOp6
 70
     1
102
RTVSPropertyOp7
 70
     1
102
RTVSPropertyOp8
 70
     1
102
RTVSPropertyOp9
 70
     1
102
RTVSPropertyOp10
 70
     1
102
RTVSPropertyOp11
 70
     1
102
RTVSPropertyOp12
 70
     1
102
RTVSPropertyOp13
 70
     1
102
RTVSPropertyOp14
 70
     1
102
RTVSPropertyOp15
 70
     1
102
RTVSPropertyOp16
 70
     1
102
RTVSPropertyOp17
 70
     1
102
RTVSPropertyOp18
 70
     1
102
RTVSPropertyOp19
 70
     1
102
RTVSPropertyOp20
 70
     1
102
RTVSPropertyOp21
 70
     1
102
RTVSPropertyOp22
 70
     1
102
RTVSPropertyOp23
 70
     1
102
RTVSPropertyOp24
 70
     1
102
RTVSPropertyOp25
 70
     1
102
RTVSPropertyOp26
 70
     1
102
RTVSPropertyOp27
 70
     1
102
RTVSPropertyOp28
 70
     1
102
RTVSPropertyOp29
 70
     1
102
RTVSPropertyOp30
 70
     1
102
RTVSPropertyOp31
 70
     1
102
RTVSPropertyOp32
 70
     1
  0
XRECORD
  5
215
102
{ACAD_REACTORS
330
214
102
}
330
214
100
AcDbXrecord
280
     1
102
RTVSPropertyOp0
 70
     1
102
RTVSPropertyOp1
 70
     1
102
RTVSPropertyOp2
 70
     1
102
RTVSPropertyOp3
 70
     1
102
RTVSPropertyOp4
 70
     1
102
RTVSPropertyOp5
 70
     1
102
RTVSPropertyOp6
 70
     1
102
RTVSPropertyOp7
 70
     1
102
RTVSPropertyOp8
 70
     1
102
RTVSPropertyOp9
 70
     1
102
RTVSPropertyOp10
 70
     1
102
RTVSPropertyOp11
 70
     1
102
RTVSPropertyOp12
 70
     1
102
RTVSPropertyOp13
 70
     1
102
RTVSPropertyOp14
 70
     1
102
RTVSPropertyOp15
 70
     1
102
RTVSPropertyOp16
 70
     1
102
RTVSPropertyOp17
 70
     1
102
RTVSPropertyOp18
 70
     1
102
RTVSPropertyOp19
 70
     1
102
RTVSPropertyOp20
 70
     1
102
RTVSPropertyOp21
 70
     1
102
RTVSPropertyOp22
 70
     1
102
RTVSPropertyOp23
 70
     1
102
RTVSPropertyOp24
 70
     1
102
RTVSPropertyOp25
 70
     1
102
RTVSPropertyOp26
 70
     1
102
RTVSPropertyOp27
 70
     1
102
RTVSPropertyOp28
 70
     1
102
RTVSPropertyOp29
 70
     1
102
RTVSPropertyOp30
 70
     1
102
RTVSPropertyOp31
 70
     1
102
RTVSPropertyOp32
 70
     1
  0
XRECORD
  5
219
102
{ACAD_REACTORS
330
218
102
}
330
218
100
AcDbXrecord
280
     1
102
RTVSPropertyOp0
 70
     1
102
RTVSPropertyOp1
 70
     1
102
RTVSPropertyOp2
 70
     1
102
RTVSPropertyOp3
 70
     1
102
RTVSPropertyOp4
 70
     1
102
RTVSPropertyOp5
 70
     1
102
RTVSPropertyOp6
 70
     1
102
RTVSPropertyOp7
 70
     1
102
RTVSPropertyOp8
 70
     1
102
RTVSPropertyOp9
 70
     1
102
RTVSPropertyOp10
 70
     1
102
RTVSPropertyOp11
 70
     1
102
RTVSPropertyOp12
 70
     1
102
RTVSPropertyOp13
 70
     1
102
RTVSPropertyOp14
 70
     1
102
RTVSPropertyOp15
 70
     1
102
RTVSPropertyOp16
 70
     1
102
RTVSPropertyOp17
 70
     1
102
RTVSPropertyOp18
 70
     1
102
RTVSPropertyOp19
 70
     1
102
RTVSPropertyOp20
 70
     1
102
RTVSPropertyOp21
 70
     1
102
RTVSPropertyOp22
 70
     1
102
RTVSPropertyOp23
 70
     1
102
RTVSPropertyOp24
 70
     1
102
RTVSPropertyOp25
 70
     1
102
RTVSPropertyOp26
 70
     1
102
RTVSPropertyOp27
 70
     1
102
RTVSPropertyOp28
 70
     1
102
RTVSPropertyOp29
 70
     1
102
RTVSPropertyOp30
 70
     1
102
RTVSPropertyOp31
 70
     1
102
RTVSPropertyOp32
 70
     1
  0
XRECORD
  5
221
102
{ACAD_REACTORS
330
220
102
}
330
220
100
AcDbXrecord
280
     1
102
RTVSPropertyOp0
 70
     1
102
RTVSPropertyOp1
 70
     1
102
RTVSPropertyOp2
 70
     1
102
RTVSPropertyOp3
 70
     1
102
RTVSPropertyOp4
 70
     1
102
RTVSPropertyOp5
 70
     1
102
RTVSPropertyOp6
 70
     1
102
RTVSPropertyOp7
 70
     1
102
RTVSPropertyOp8
 70
     1
102
RTVSPropertyOp9
 70
     1
102
RTVSPropertyOp10
 70
     1
102
RTVSPropertyOp11
 70
     1
102
RTVSPropertyOp12
 70
     1
102
RTVSPropertyOp13
 70
     1
102
RTVSPropertyOp14
 70
     1
102
RTVSPropertyOp15
 70
     1
102
RTVSPropertyOp16
 70
     1
102
RTVSPropertyOp17
 70
     1
102
RTVSPropertyOp18
 70
     1
102
RTVSPropertyOp19
 70
     1
102
RTVSPropertyOp20
 70
     1
102
RTVSPropertyOp21
 70
     1
102
RTVSPropertyOp22
 70
     1
102
RTVSPropertyOp23
 70
     1
102
RTVSPropertyOp24
 70
     1
102
RTVSPropertyOp25
 70
     1
102
RTVSPropertyOp26
 70
     1
102
RTVSPropertyOp27
 70
     1
102
RTVSPropertyOp28
 70
     1
102
RTVSPropertyOp29
 70
     1
102
RTVSPropertyOp30
 70
     1
102
RTVSPropertyOp31
 70
     1
102
RTVSPropertyOp32
 70
     1
  0
XRECORD
  5
229
102
{ACAD_REACTORS
330
228
102
}
330
228
100
AcDbXrecord
280
     1
102
RTVSPropertyOp0
 70
     1
102
RTVSPropertyOp1
 70
     1
102
RTVSPropertyOp2
 70
     1
102
RTVSPropertyOp3
 70
     1
102
RTVSPropertyOp4
 70
     1
102
RTVSPropertyOp5
 70
     1
102
RTVSPropertyOp6
 70
     1
102
RTVSPropertyOp7
 70
     1
102
RTVSPropertyOp8
 70
     1
102
RTVSPropertyOp9
 70
     1
102
RTVSPropertyOp10
 70
     1
102
RTVSPropertyOp11
 70
     1
102
RTVSPropertyOp12
 70
     1
102
RTVSPropertyOp13
 70
     1
102
RTVSPropertyOp14
 70
     1
102
RTVSPropertyOp15
 70
     1
102
RTVSPropertyOp16
 70
     1
102
RTVSPropertyOp17
 70
     1
102
RTVSPropertyOp18
 70
     1
102
RTVSPropertyOp19
 70
     1
102
RTVSPropertyOp20
 70
     1
102
RTVSPropertyOp21
 70
     1
102
RTVSPropertyOp22
 70
     1
102
RTVSPropertyOp23
 70
     1
102
RTVSPropertyOp24
 70
     1
102
RTVSPropertyOp25
 70
     1
102
RTVSPropertyOp26
 70
     1
102
RTVSPropertyOp27
 70
     1
102
RTVSPropertyOp28
 70
     1
102
RTVSPropertyOp29
 70
     1
102
RTVSPropertyOp30
 70
     1
102
RTVSPropertyOp31
 70
     1
102
RTVSPropertyOp32
 70
     1
  0
XRECORD
  5
21D
102
{ACAD_REACTORS
330
21C
102
}
330
21C
100
AcDbXrecord
280
     1
102
RTVSPropertyOp0
 70
     1
102
RTVSPropertyOp1
 70
     1
102
RTVSPropertyOp2
 70
     1
102
RTVSPropertyOp3
 70
     1
102
RTVSPropertyOp4
 70
     1
102
RTVSPropertyOp5
 70
     1
102
RTVSPropertyOp6
 70
     1
102
RTVSPropertyOp7
 70
     1
102
RTVSPropertyOp8
 70
     1
102
RTVSPropertyOp9
 70
     1
102
RTVSPropertyOp10
 70
     1
102
RTVSPropertyOp11
 70
     1
102
RTVSPropertyOp12
 70
     1
102
RTVSPropertyOp13
 70
     1
102
RTVSPropertyOp14
 70
     1
102
RTVSPropertyOp15
 70
     1
102
RTVSPropertyOp16
 70
     1
102
RTVSPropertyOp17
 70
     1
102
RTVSPropertyOp18
 70
     1
102
RTVSPropertyOp19
 70
     1
102
RTVSPropertyOp20
 70
     1
102
RTVSPropertyOp21
 70
     1
102
RTVSPropertyOp22
 70
     1
102
RTVSPropertyOp23
 70
     1
102
RTVSPropertyOp24
 70
     1
102
RTVSPropertyOp25
 70
     1
102
RTVSPropertyOp26
 70
     1
102
RTVSPropertyOp27
 70
     1
102
RTVSPropertyOp28
 70
     1
102
RTVSPropertyOp29
 70
     1
102
RTVSPropertyOp30
 70
     1
102
RTVSPropertyOp31
 70
     1
102
RTVSPropertyOp32
 70
     1
  0
XRECORD
  5
21F
102
{ACAD_REACTORS
330
21E
102
}
330
21E
100
AcDbXrecord
280
     1
102
RTVSPropertyOp0
 70
     1
102
RTVSPropertyOp1
 70
     1
102
RTVSPropertyOp2
 70
     1
102
RTVSPropertyOp3
 70
     1
102
RTVSPropertyOp4
 70
     1
102
RTVSPropertyOp5
 70
     1
102
RTVSPropertyOp6
 70
     1
102
RTVSPropertyOp7
 70
     1
102
RTVSPropertyOp8
 70
     1
102
RTVSPropertyOp9
 70
     1
102
RTVSPropertyOp10
 70
     1
102
RTVSPropertyOp11
 70
     1
102
RTVSPropertyOp12
 70
     1
102
RTVSPropertyOp13
 70
     1
102
RTVSPropertyOp14
 70
     1
102
RTVSPropertyOp15
 70
     1
102
RTVSPropertyOp16
 70
     1
102
RTVSPropertyOp17
 70
     1
102
RTVSPropertyOp18
 70
     1
102
RTVSPropertyOp19
 70
     1
102
RTVSPropertyOp20
 70
     1
102
RTVSPropertyOp21
 70
     1
102
RTVSPropertyOp22
 70
     1
102
RTVSPropertyOp23
 70
     1
102
RTVSPropertyOp24
 70
     1
102
RTVSPropertyOp25
 70
     1
102
RTVSPropertyOp26
 70
     1
102
RTVSPropertyOp27
 70
     1
102
RTVSPropertyOp28
 70
     1
102
RTVSPropertyOp29
 70
     1
102
RTVSPropertyOp30
 70
     1
102
RTVSPropertyOp31
 70
     1
102
RTVSPropertyOp32
 70
     1
  0
XRECORD
  5
227
102
{ACAD_REACTORS
330
226
102
}
330
226
100
AcDbXrecord
280
     1
102
RTVSPropertyOp0
 70
     1
102
RTVSPropertyOp1
 70
     1
102
RTVSPropertyOp2
 70
     1
102
RTVSPropertyOp3
 70
     1
102
RTVSPropertyOp4
 70
     1
102
RTVSPropertyOp5
 70
     1
102
RTVSPropertyOp6
 70
     1
102
RTVSPropertyOp7
 70
     1
102
RTVSPropertyOp8
 70
     1
102
RTVSPropertyOp9
 70
     1
102
RTVSPropertyOp10
 70
     1
102
RTVSPropertyOp11
 70
     1
102
RTVSPropertyOp12
 70
     1
102
RTVSPropertyOp13
 70
     1
102
RTVSPropertyOp14
 70
     1
102
RTVSPropertyOp15
 70
     1
102
RTVSPropertyOp16
 70
     1
102
RTVSPropertyOp17
 70
     1
102
RTVSPropertyOp18
 70
     1
102
RTVSPropertyOp19
 70
     1
102
RTVSPropertyOp20
 70
     1
102
RTVSPropertyOp21
 70
     1
102
RTVSPropertyOp22
 70
     1
102
RTVSPropertyOp23
 70
     1
102
RTVSPropertyOp24
 70
     1
102
RTVSPropertyOp25
 70
     1
102
RTVSPropertyOp26
 70
     1
102
RTVSPropertyOp27
 70
     1
102
RTVSPropertyOp28
 70
     1
102
RTVSPropertyOp29
 70
     1
102
RTVSPropertyOp30
 70
     1
102
RTVSPropertyOp31
 70
     1
102
RTVSPropertyOp32
 70
     1
  0
XRECORD
  5
20B
102
{ACAD_REACTORS
330
20A
102
}
330
20A
100
AcDbXrecord
280
     1
102
RTVSPropertyOp0
 70
     1
102
RTVSPropertyOp1
 70
     1
102
RTVSPropertyOp2
 70
     1
102
RTVSPropertyOp3
 70
     1
102
RTVSPropertyOp4
 70
     1
102
RTVSPropertyOp5
 70
     1
102
RTVSPropertyOp6
 70
     1
102
RTVSPropertyOp7
 70
     1
102
RTVSPropertyOp8
 70
     1
102
RTVSPropertyOp9
 70
     1
102
RTVSPropertyOp10
 70
     1
102
RTVSPropertyOp11
 70
     1
102
RTVSPropertyOp12
 70
     1
102
RTVSPropertyOp13
 70
     1
102
RTVSPropertyOp14
 70
     1
102
RTVSPropertyOp15
 70
     1
102
RTVSPropertyOp16
 70
     1
102
RTVSPropertyOp17
 70
     1
102
RTVSPropertyOp18
 70
     1
102
RTVSPropertyOp19
 70
     1
102
RTVSPropertyOp20
 70
     1
102
RTVSPropertyOp21
 70
     1
102
RTVSPropertyOp22
 70
     1
102
RTVSPropertyOp23
 70
     1
102
RTVSPropertyOp24
 70
     1
102
RTVSPropertyOp25
 70
     1
102
RTVSPropertyOp26
 70
     1
102
RTVSPropertyOp27
 70
     1
102
RTVSPropertyOp28
 70
     1
102
RTVSPropertyOp29
 70
     1
102
RTVSPropertyOp30
 70
     1
102
RTVSPropertyOp31
 70
     1
102
RTVSPropertyOp32
 70
     1
  0
XRECORD
  5
20D
102
{ACAD_REACTORS
330
20C
102
}
330
20C
100
AcDbXrecord
280
     1
102
RTVSPropertyOp0
 70
     1
102
RTVSPropertyOp1
 70
     1
102
RTVSPropertyOp2
 70
     1
102
RTVSPropertyOp3
 70
     1
102
RTVSPropertyOp4
 70
     1
102
RTVSPropertyOp5
 70
     1
102
RTVSPropertyOp6
 70
     1
102
RTVSPropertyOp7
 70
     1
102
RTVSPropertyOp8
 70
     1
102
RTVSPropertyOp9
 70
     1
102
RTVSPropertyOp10
 70
     1
102
RTVSPropertyOp11
 70
     1
102
RTVSPropertyOp12
 70
     1
102
RTVSPropertyOp13
 70
     1
102
RTVSPropertyOp14
 70
     1
102
RTVSPropertyOp15
 70
     1
102
RTVSPropertyOp16
 70
     1
102
RTVSPropertyOp17
 70
     1
102
RTVSPropertyOp18
 70
     1
102
RTVSPropertyOp19
 70
     1
102
RTVSPropertyOp20
 70
     1
102
RTVSPropertyOp21
 70
     1
102
RTVSPropertyOp22
 70
     1
102
RTVSPropertyOp23
 70
     1
102
RTVSPropertyOp24
 70
     1
102
RTVSPropertyOp25
 70
     1
102
RTVSPropertyOp26
 70
     1
102
RTVSPropertyOp27
 70
     1
102
RTVSPropertyOp28
 70
     1
102
RTVSPropertyOp29
 70
     1
102
RTVSPropertyOp30
 70
     1
102
RTVSPropertyOp31
 70
     1
102
RTVSPropertyOp32
 70
     1
  0
XRECORD
  5
20F
102
{ACAD_REACTORS
330
20E
102
}
330
20E
100
AcDbXrecord
280
     1
102
RTVSPropertyOp0
 70
     1
102
RTVSPropertyOp1
 70
     1
102
RTVSPropertyOp2
 70
     1
102
RTVSPropertyOp3
 70
     1
102
RTVSPropertyOp4
 70
     1
102
RTVSPropertyOp5
 70
     1
102
RTVSPropertyOp6
 70
     1
102
RTVSPropertyOp7
 70
     1
102
RTVSPropertyOp8
 70
     1
102
RTVSPropertyOp9
 70
     1
102
RTVSPropertyOp10
 70
     1
102
RTVSPropertyOp11
 70
     1
102
RTVSPropertyOp12
 70
     1
102
RTVSPropertyOp13
 70
     1
102
RTVSPropertyOp14
 70
     1
102
RTVSPropertyOp15
 70
     1
102
RTVSPropertyOp16
 70
     1
102
RTVSPropertyOp17
 70
     1
102
RTVSPropertyOp18
 70
     1
102
RTVSPropertyOp19
 70
     1
102
RTVSPropertyOp20
 70
     1
102
RTVSPropertyOp21
 70
     1
102
RTVSPropertyOp22
 70
     1
102
RTVSPropertyOp23
 70
     1
102
RTVSPropertyOp24
 70
     1
102
RTVSPropertyOp25
 70
     1
102
RTVSPropertyOp26
 70
     1
102
RTVSPropertyOp27
 70
     1
102
RTVSPropertyOp28
 70
     1
102
RTVSPropertyOp29
 70
     1
102
RTVSPropertyOp30
 70
     1
102
RTVSPropertyOp31
 70
     1
102
RTVSPropertyOp32
 70
     1
  0
XRECORD
  5
211
102
{ACAD_REACTORS
330
210
102
}
330
210
100
AcDbXrecord
280
     1
102
RTVSPropertyOp0
 70
     1
102
RTVSPropertyOp1
 70
     1
102
RTVSPropertyOp2
 70
     1
102
RTVSPropertyOp3
 70
     1
102
RTVSPropertyOp4
 70
     1
102
RTVSPropertyOp5
 70
     1
102
RTVSPropertyOp6
 70
     1
102
RTVSPropertyOp7
 70
     1
102
RTVSPropertyOp8
 70
     1
102
RTVSPropertyOp9
 70
     1
102
RTVSPropertyOp10
 70
     1
102
RTVSPropertyOp11
 70
     1
102
RTVSPropertyOp12
 70
     1
102
RTVSPropertyOp13
 70
     1
102
RTVSPropertyOp14
 70
     1
102
RTVSPropertyOp15
 70
     1
102
RTVSPropertyOp16
 70
     1
102
RTVSPropertyOp17
 70
     1
102
RTVSPropertyOp18
 70
     1
102
RTVSPropertyOp19
 70
     1
102
RTVSPropertyOp20
 70
     1
102
RTVSPropertyOp21
 70
     1
102
RTVSPropertyOp22
 70
     1
102
RTVSPropertyOp23
 70
     1
102
RTVSPropertyOp24
 70
     1
102
RTVSPropertyOp25
 70
     1
102
RTVSPropertyOp26
 70
     1
102
RTVSPropertyOp27
 70
     1
102
RTVSPropertyOp28
 70
     1
102
RTVSPropertyOp29
 70
     1
102
RTVSPropertyOp30
 70
     1
102
RTVSPropertyOp31
 70
     1
102
RTVSPropertyOp32
 70
     1
  0
XRECORD
  5
225
102
{ACAD_REACTORS
330
224
102
}
330
224
100
AcDbXrecord
280
     1
102
RTVSPropertyOp0
 70
     1
102
RTVSPropertyOp1
 70
     1
102
RTVSPropertyOp2
 70
     1
102
RTVSPropertyOp3
 70
     1
102
RTVSPropertyOp4
 70
     1
102
RTVSPropertyOp5
 70
     1
102
RTVSPropertyOp6
 70
     1
102
RTVSPropertyOp7
 70
     1
102
RTVSPropertyOp8
 70
     1
102
RTVSPropertyOp9
 70
     1
102
RTVSPropertyOp10
 70
     1
102
RTVSPropertyOp11
 70
     1
102
RTVSPropertyOp12
 70
     1
102
RTVSPropertyOp13
 70
     1
102
RTVSPropertyOp14
 70
     1
102
RTVSPropertyOp15
 70
     1
102
RTVSPropertyOp16
 70
     1
102
RTVSPropertyOp17
 70
     1
102
RTVSPropertyOp18
 70
     1
102
RTVSPropertyOp19
 70
     1
102
RTVSPropertyOp20
 70
     1
102
RTVSPropertyOp21
 70
     1
102
RTVSPropertyOp22
 70
     1
102
RTVSPropertyOp23
 70
     1
102
RTVSPropertyOp24
 70
     1
102
RTVSPropertyOp25
 70
     1
102
RTVSPropertyOp26
 70
     1
102
RTVSPropertyOp27
 70
     1
102
RTVSPropertyOp28
 70
     1
102
RTVSPropertyOp29
 70
     1
102
RTVSPropertyOp30
 70
     1
102
RTVSPropertyOp31
 70
     1
102
RTVSPropertyOp32
 70
     1
  0
XRECORD
  5
21B
102
{ACAD_REACTORS
330
21A
102
}
330
21A
100
AcDbXrecord
280
     1
102
RTVSPropertyOp0
 70
     1
102
RTVSPropertyOp1
 70
     1
102
RTVSPropertyOp2
 70
     1
102
RTVSPropertyOp3
 70
     1
102
RTVSPropertyOp4
 70
     1
102
RTVSPropertyOp5
 70
     1
102
RTVSPropertyOp6
 70
     1
102
RTVSPropertyOp7
 70
     1
102
RTVSPropertyOp8
 70
     1
102
RTVSPropertyOp9
 70
     1
102
RTVSPropertyOp10
 70
     1
102
RTVSPropertyOp11
 70
     1
102
RTVSPropertyOp12
 70
     1
102
RTVSPropertyOp13
 70
     1
102
RTVSPropertyOp14
 70
     1
102
RTVSPropertyOp15
 70
     1
102
RTVSPropertyOp16
 70
     1
102
RTVSPropertyOp17
 70
     1
102
RTVSPropertyOp18
 70
     1
102
RTVSPropertyOp19
 70
     1
102
RTVSPropertyOp20
 70
     1
102
RTVSPropertyOp21
 70
     1
102
RTVSPropertyOp22
 70
     1
102
RTVSPropertyOp23
 70
     1
102
RTVSPropertyOp24
 70
     1
102
RTVSPropertyOp25
 70
     1
102
RTVSPropertyOp26
 70
     1
102
RTVSPropertyOp27
 70
     1
102
RTVSPropertyOp28
 70
     1
102
RTVSPropertyOp29
 70
     1
102
RTVSPropertyOp30
 70
     1
102
RTVSPropertyOp31
 70
     1
102
RTVSPropertyOp32
 70
     1
  0
XRECORD
  5
223
102
{ACAD_REACTORS
330
222
102
}
330
222
100
AcDbXrecord
280
     1
102
RTVSPropertyOp0
 70
     1
102
RTVSPropertyOp1
 70
     1
102
RTVSPropertyOp2
 70
     1
102
RTVSPropertyOp3
 70
     1
102
RTVSPropertyOp4
 70
     1
102
RTVSPropertyOp5
 70
     1
102
RTVSPropertyOp6
 70
     1
102
RTVSPropertyOp7
 70
     1
102
RTVSPropertyOp8
 70
     1
102
RTVSPropertyOp9
 70
     1
102
RTVSPropertyOp10
 70
     1
102
RTVSPropertyOp11
 70
     1
102
RTVSPropertyOp12
 70
     1
102
RTVSPropertyOp13
 70
     1
102
RTVSPropertyOp14
 70
     1
102
RTVSPropertyOp15
 70
     1
102
RTVSPropertyOp16
 70
     1
102
RTVSPropertyOp17
 70
     1
102
RTVSPropertyOp18
 70
     1
102
RTVSPropertyOp19
 70
     1
102
RTVSPropertyOp20
 70
     1
102
RTVSPropertyOp21
 70
     1
102
RTVSPropertyOp22
 70
     1
102
RTVSPropertyOp23
 70
     1
102
RTVSPropertyOp24
 70
     1
102
RTVSPropertyOp25
 70
     1
102
RTVSPropertyOp26
 70
     1
102
RTVSPropertyOp27
 70
     1
102
RTVSPropertyOp28
 70
     1
102
RTVSPropertyOp29
 70
     1
102
RTVSPropertyOp30
 70
     1
102
RTVSPropertyOp31
 70
     1
102
RTVSPropertyOp32
 70
     1
  0
ENDSEC
  0
EOF
