  0
SECTION
  2
HEADER
  9
$ACADVER
  1
AC1024
  9
$ACADMAINTVER
 70
     6
  9
$DWGCODEPAGE
  3
UNDEFINED
  9
$INSBASE
 10
0.0
 20
0.0
 30
0.0
  9
$EXTMIN
 10
1.000000000000000E+20
 20
1.000000000000000E+20
 30
1.000000000000000E+20
  9
$EXTMAX
 10
-1.000000000000000E+20
 20
-1.000000000000000E+20
 30
-1.000000000000000E+20
  9
$LIMMIN
 10
0.0
 20
0.0
  9
$LIMMAX
 10
12.0
 20
9.0
  9
$ORTHOMODE
 70
     0
  9
$REGENMODE
 70
     1
  9
$FILLMODE
 70
     1
  9
$QTEXTMODE
 70
     0
  9
$MIRRTEXT
 70
     1
  9
$LTSCALE
 40
1.0
  9
$ATTMODE
 70
     1
  9
$TEXTSIZE
 40
0.2
  9
$TRACEWID
 40
0.05
  9
$TEXTSTYLE
  7
Standard
  9
$CLAYER
  8
0
  9
$CELTYPE
  6
ByLayer
  9
$CECOLOR
 62
   256
  9
$CELTSCALE
 40
1.0
  9
$DISPSILH
 70
     0
  9
$DIMSCALE
 40
1.0
  9
$DIMASZ
 40
0.18
  9
$DIMEXO
 40
0.0625
  9
$DIMDLI
 40
0.38
  9
$DIMRND
 40
0.0
  9
$DIMDLE
 40
0.0
  9
$DIMEXE
 40
0.18
  9
$DIMTP
 40
0.0
  9
$DIMTM
 40
0.0
  9
$DIMTXT
 40
0.18
  9
$DIMCEN
 40
0.09
  9
$DIMTSZ
 40
0.0
  9
$DIMTOL
 70
     0
  9
$DIMLIM
 70
     0
  9
$DIMTIH
 70
     1
  9
$DIMTOH
 70
     1
  9
$DIMSE1
 70
     0
  9
$DIMSE2
 70
     0
  9
$DIMTAD
 70
     0
  9
$DIMZIN
 70
     0
  9
$DIMBLK
  1

  9
$DIMASO
 70
     1
  9
$DIMSHO
 70
     1
  9
$DIMPOST
  1

  9
$DIMAPOST
  1

  9
$DIMALT
 70
     0
  9
$DIMALTD
 70
     2
  9
$DIMALTF
 40
25.4
  9
$DIMLFAC
 40
1.0
  9
$DIMTOFL
 70
     0
  9
$DIMTVP
 40
0.0
  9
$DIMTIX
 70
     0
  9
$DIMSOXD
 70
     0
  9
$DIMSAH
 70
     0
  9
$DIMBLK1
  1

  9
$DIMBLK2
  1

  9
$DIMSTYLE
  2
Standard
  9
$DIMCLRD
 70
     0
  9
$DIMCLRE
 70
     0
  9
$DIMCLRT
 70
     0
  9
$DIMTFAC
 40
1.0
  9
$DIMGAP
 40
0.09
  9
$DIMJUST
 70
     0
  9
$DIMSD1
 70
     0
  9
$DIMSD2
 70
     0
  9
$DIMTOLJ
 70
     1
  9
$DIMTZIN
 70
     0
  9
$DIMALTZ
 70
     0
  9
$DIMALTTZ
 70
     0
  9
$DIMUPT
 70
     0
  9
$DIMDEC
 70
     4
  9
$DIMTDEC
 70
     4
  9
$DIMALTU
 70
     2
  9
$DIMALTTD
 70
     2
  9
$DIMTXSTY
  7
Standard
  9
$DIMAUNIT
 70
     0
  9
$DIMADEC
 70
     0
  9
$DIMALTRND
 40
0.0
  9
$DIMAZIN
 70
     0
  9
$DIMDSEP
 70
    46
  9
$DIMATFIT
 70
     3
  9
$DIMFRAC
 70
     0
  9
$DIMLDRBLK
  1

  9
$DIMLUNIT
 70
     2
  9
$DIMLWD
 70
    -2
  9
$DIMLWE
 70
    -2
  9
$DIMTMOVE
 70
     0
  9
$DIMFXL
 40
1.0
  9
$DIMFXLON
 70
     0
  9
$DIMJOGANG
 40
0.7853981633974483
  9
$DIMTFILL
 70
     0
  9
$DIMTFILLCLR
 70
     0
  9
$DIMARCSYM
 70
     0
  9
$DIMLTYPE
  6

  9
$DIMLTEX1
  6

  9
$DIMLTEX2
  6

  9
$DIMTXTDIRECTION
 70
     0
  9
$LUNITS
 70
     2
  9
$LUPREC
 70
     4
  9
$SKETCHINC
 40
0.1
  9
$FILLETRAD
 40
0.5
  9
$AUNITS
 70
     0
  9
$AUPREC
 70
     0
  9
$MENU
  1
.
  9
$ELEVATION
 40
0.0
  9
$PELEVATION
 40
0.0
  9
$THICKNESS
 40
0.0
  9
$LIMCHECK
 70
     0
  9
$CHAMFERA
 40
0.5
  9
$CHAMFERB
 40
0.5
  9
$CHAMFERC
 40
1.0
  9
$CHAMFERD
 40
0.0
  9
$SKPOLY
 70
     0
  9
$TDCREATE
 40
2458516.436238414
  9
$TDUCREATE
 40
2458516.394571759
  9
$TDUPDATE
 40
2458516.436238414
  9
$TDUUPDATE
 40
2458516.394571759
  9
$TDINDWG
 40
0.0000000116
  9
$TDUSRTIMER
 40
0.0000000116
  9
$USRTIMER
 70
     1
  9
$ANGBASE
 50
0.0
  9
$ANGDIR
 70
     0
  9
$PDMODE
 70
     0
  9
$PDSIZE
 40
0.0
  9
$PLINEWID
 40
0.0
  9
$SPLFRAME
 70
     0
  9
$SPLINETYPE
 70
     6
  9
$SPLINESEGS
 70
     8
  9
$HANDSEED
  5
D7
  9
$SURFTAB1
 70
     6
  9
$SURFTAB2
 70
     6
  9
$SURFTYPE
 70
     6
  9
$SURFU
 70
     6
  9
$SURFV
 70
     6
  9
$UCSBASE
  2

  9
$UCSNAME
  2

  9
$UCSORG
 10
0.0
 20
0.0
 30
0.0
  9
$UCSXDIR
 10
1.0
 20
0.0
 30
0.0
  9
$UCSYDIR
 10
0.0
 20
1.0
 30
0.0
  9
$UCSORTHOREF
  2

  9
$UCSORTHOVIEW
 70
     0
  9
$UCSORGTOP
 10
0.0
 20
0.0
 30
0.0
  9
$UCSORGBOTTOM
 10
0.0
 20
0.0
 30
0.0
  9
$UCSORGLEFT
 10
0.0
 20
0.0
 30
0.0
  9
$UCSORGRIGHT
 10
0.0
 20
0.0
 30
0.0
  9
$UCSORGFRONT
 10
0.0
 20
0.0
 30
0.0
  9
$UCSORGBACK
 10
0.0
 20
0.0
 30
0.0
  9
$PUCSBASE
  2

  9
$PUCSNAME
  2

  9
$PUCSORG
 10
0.0
 20
0.0
 30
0.0
  9
$PUCSXDIR
 10
1.0
 20
0.0
 30
0.0
  9
$PUCSYDIR
 10
0.0
 20
1.0
 30
0.0
  9
$PUCSORTHOREF
  2

  9
$PUCSORTHOVIEW
 70
     0
  9
$PUCSORGTOP
 10
0.0
 20
0.0
 30
0.0
  9
$PUCSORGBOTTOM
 10
0.0
 20
0.0
 30
0.0
  9
$PUCSORGLEFT
 10
0.0
 20
0.0
 30
0.0
  9
$PUCSORGRIGHT
 10
0.0
 20
0.0
 30
0.0
  9
$PUCSORGFRONT
 10
0.0
 20
0.0
 30
0.0
  9
$PUCSORGBACK
 10
0.0
 20
0.0
 30
0.0
  9
$USERI1
 70
     0
  9
$USERI2
 70
     0
  9
$USERI3
 70
     0
  9
$USERI4
 70
     0
  9
$USERI5
 70
     0
  9
$USERR1
 40
0.0
  9
$USERR2
 40
0.0
  9
$USERR3
 40
0.0
  9
$USERR4
 40
0.0
  9
$USERR5
 40
0.0
  9
$WORLDVIEW
 70
     1
  9
$SHADEDGE
 70
     3
  9
$SHADEDIF
 70
    70
  9
$TILEMODE
 70
     1
  9
$MAXACTVP
 70
    64
  9
$PINSBASE
 10
0.0
 20
0.0
 30
0.0
  9
$PLIMCHECK
 70
     0
  9
$PEXTMIN
 10
1.000000000000000E+20
 20
1.000000000000000E+20
 30
1.000000000000000E+20
  9
$PEXTMAX
 10
-1.000000000000000E+20
 20
-1.000000000000000E+20
 30
-1.000000000000000E+20
  9
$PLIMMIN
 10
0.0
 20
0.0
  9
$PLIMMAX
 10
12.0
 20
9.0
  9
$UNITMODE
 70
     0
  9
$VISRETAIN
 70
     1
  9
$PLINEGEN
 70
     0
  9
$PSLTSCALE
 70
     1
  9
$TREEDEPTH
 70
  3020
  9
$CMLSTYLE
  2
Standard
  9
$CMLJUST
 70
     0
  9
$CMLSCALE
 40
1.0
  9
$PROXYGRAPHICS
 70
     1
  9
$MEASUREMENT
 70
     0
  9
$CELWEIGHT
370
    -1
  9
$ENDCAPS
280
     0
  9
$JOINSTYLE
280
     0
  9
$LWDISPLAY
290
     1
  9
$INSUNITS
 70
     1
  9
$HYPERLINKBASE
  1

  9
$STYLESHEET
  1

  9
$XEDIT
290
     1
  9
$CEPSNTYPE
380
     0
  9
$PSTYLEMODE
290
     1
  9
$FINGERPRINTGUID
  2
{572B5D54-9192-2210-3074-8F3DFAD70E59}
  9
$VERSIONGUID
  2
{FAEB1C32-E019-11D5-929B-00C0DF256EC4}
  9
$EXTNAMES
290
     1
  9
$PSVPSCALE
 40
0.0
  9
$OLESTARTUP
290
     0
  9
$SORTENTS
280
   127
  9
$INDEXCTL
280
     0
  9
$HIDETEXT
280
     1
  9
$XCLIPFRAME
280
     2
  9
$HALOGAP
280
     0
  9
$OBSCOLOR
 70
   257
  9
$OBSLTYPE
280
     0
  9
$INTERSECTIONDISPLAY
280
     0
  9
$INTERSECTIONCOLOR
 70
   257
  9
$DIMASSOC
280
     2
  9
$PROJECTNAME
  1

  9
$CAMERADISPLAY
290
     0
  9
$LENSLENGTH
 40
50.0
  9
$CAMERAHEIGHT
 40
0.0
  9
$STEPSPERSEC
 40
2.0
  9
$STEPSIZE
 40
6.0
  9
$3DDWFPREC
 40
2.0
  9
$PSOLWIDTH
 40
0.25
  9
$PSOLHEIGHT
 40
4.0
  9
$LOFTANG1
 40
1.570796326794897
  9
$LOFTANG2
 40
1.570796326794897
  9
$LOFTMAG1
 40
0.0
  9
$LOFTMAG2
 40
0.0
  9
$LOFTPARAM
 70
     7
  9
$LOFTNORMALS
280
     1
  9
$LATITUDE
 40
37.795
  9
$LONGITUDE
 40
-122.394
  9
$NORTHDIRECTION
 40
0.0
  9
$TIMEZONE
 70
 -8000
  9
$LIGHTGLYPHDISPLAY
280
     1
  9
$TILEMODELIGHTSYNCH
280
     1
  9
$CMATERIAL
347
3C
  9
$SOLIDHIST
280
     1
  9
$SHOWHIST
280
     1
  9
$DWFFRAME
280
     2
  9
$DGNFRAME
280
     2
  9
$REALWORLDSCALE
290
     1
  9
$INTERFERECOLOR
 62
   256
  9
$CSHADOW
280
     0
  9
$SHADOWPLANELOCATION
 40
0.0
  0
ENDSEC
  0
SECTION
  2
CLASSES
  0
CLASS
  1
ACDBDICTIONARYWDFLT
  2
AcDbDictionaryWithDefault
  3
ObjectDBX Classes
 90
        0
 91
        4
280
     0
281
     0
  0
CLASS
  1
VISUALSTYLE
  2
AcDbVisualStyle
  3
ObjectDBX Classes
 90
     4095
 91
        4
280
     0
281
     0
  0
CLASS
  1
MATERIAL
  2
AcDbMaterial
  3
ObjectDBX Classes
 90
     1153
 91
        4
280
     0
281
     0
  0
CLASS
  1
SUN
  2
AcDbSun
  3
SCENEOE
 90
     1024
 91
        4
280
     0
281
     0
  0
ENDSEC
  0
SECTION
  2
TABLES
  0
TABLE
  2
VPORT
  5
8
330
0
100
AcDbSymbolTable
 70
     1
  0
VPORT
  5
29
330
8
100
AcDbSymbolTableRecord
100
AcDbViewportTableRecord
  2
*Active
 70
     0
 10
0.0
 20
0.0
 11
1.0
 21
1.0
 12
0.0
 22
0.0
 13
0.0
 23
0.0
 14
0.5
 24
0.5
 15
0.5
 25
0.5
 16
0.0
 26
0.0
 36
1.0
 17
105.0007777515277
 27
148.5000416295417
 37
0.0
 40
297.0000832590835
 41
0.7070757462376325
 42
50.0
 43
0.0
 44
0.0
 50
0.0
 51
0.0
 71
     0
 72
   100
 73
     1
 74
     3
 75
     0
 76
     0
 77
     0
 78
     0
281
     0
 65
     1
110
0.0
120
0.0
130
0.0
111
1.0
121
0.0
131
0.0
112
0.0
122
1.0
132
0.0
 79
     0
146
0.0
 60
     3
 61
     5
292
     1
282
     1
141
0.0
142
0.0
 63
   250
361
3F
  0
ENDTAB
  0
TABLE
  2
LTYPE
  5
5
330
0
100
AcDbSymbolTable
 70
     3
  0
LTYPE
  5
14
330
5
100
AcDbSymbolTableRecord
100
AcDbLinetypeTableRecord
  2
ByBlock
 70
     0
  3

 72
    65
 73
     0
 40
0.0
  0
LTYPE
  5
15
330
5
100
AcDbSymbolTableRecord
100
AcDbLinetypeTableRecord
  2
ByLayer
 70
     0
  3

 72
    65
 73
     0
 40
0.0
  0
LTYPE
  5
16
330
5
100
AcDbSymbolTableRecord
100
AcDbLinetypeTableRecord
  2
Continuous
 70
     0
  3
Solid line
 72
    65
 73
     0
 40
0.0
  0
LTYPE
  5
BB
330
5
100
AcDbSymbolTableRecord
100
AcDbLinetypeTableRecord
  2
AI-Linetype-1
 70
     0
  3
Adobe Illustrator Linetype No. 1
 72
    65
 73
     2
 40
7.270862246391072
 49
3.635375106750391
 74
     0
 49
-3.635487139640682
 74
     0
  0
LTYPE
  5
D2
330
5
100
AcDbSymbolTableRecord
100
AcDbLinetypeTableRecord
  2
AI-Linetype-2
 70
     0
  3
Adobe Illustrator Linetype No. 2
 72
    65
 73
     4
 40
33.75016590970075
 49
22.50016623040469
 74
     0
 49
-3.749999893098687
 74
     0
 49
3.749999893098687
 74
     0
 49
-3.749999893098687
 74
     0
  0
ENDTAB
  0
TABLE
  2
LAYER
  5
2
330
0
100
AcDbSymbolTable
 70
     1
  0
LAYER
  5
10
330
2
100
AcDbSymbolTableRecord
100
AcDbLayerTableRecord
  2
0
 70
     0
 62
     7
  6
Continuous
370
    -3
390
F
347
3E
  0
ENDTAB
  0
TABLE
  2
STYLE
  5
3
330
0
100
AcDbSymbolTable
 70
     1
  0
STYLE
  5
11
330
3
100
AcDbSymbolTableRecord
100
AcDbTextStyleTableRecord
  2
Standard
 70
     0
 40
0.0
 41
1.0
 50
0.0
 71
     0
 42
0.2
  3
txt
  4

  0
ENDTAB
  0
TABLE
  2
VIEW
  5
6
330
0
100
AcDbSymbolTable
 70
     0
  0
ENDTAB
  0
TABLE
  2
UCS
  5
7
330
0
100
AcDbSymbolTable
 70
     0
  0
ENDTAB
  0
TABLE
  2
APPID
  5
9
330
0
100
AcDbSymbolTable
 70
     1
  0
APPID
  5
12
330
9
100
AcDbSymbolTableRecord
100
AcDbRegAppTableRecord
  2
ACAD
 70
     0
  0
ENDTAB
  0
TABLE
  2
DIMSTYLE
  5
A
330
0
100
AcDbSymbolTable
 70
     1
100
AcDbDimStyleTable
  0
DIMSTYLE
105
27
330
A
100
AcDbSymbolTableRecord
100
AcDbDimStyleTableRecord
  2
Standard
 70
     0
178
     0
340
11
  0
ENDTAB
  0
TABLE
  2
BLOCK_RECORD
  5
1
330
0
100
AcDbSymbolTable
 70
    28
  0
BLOCK_RECORD
  5
1F
330
1
100
AcDbSymbolTableRecord
100
AcDbBlockTableRecord
  2
*Model_Space
340
22
 70
     0
280
     1
281
     0
  0
BLOCK_RECORD
  5
1B
330
1
100
AcDbSymbolTableRecord
100
AcDbBlockTableRecord
  2
*Paper_Space
340
1E
 70
     0
280
     1
281
     0
  0
BLOCK_RECORD
  5
23
330
1
100
AcDbSymbolTableRecord
100
AcDbBlockTableRecord
  2
*Paper_Space0
340
26
 70
     0
280
     1
281
     0
  0
BLOCK_RECORD
  5
40
330
1
100
AcDbSymbolTableRecord
100
AcDbBlockTableRecord
  2
block 2
340
0
102
{BLKREFS
331
41
102
}
 70
     0
280
     1
281
     0
  0
BLOCK_RECORD
  5
45
330
1
100
AcDbSymbolTableRecord
100
AcDbBlockTableRecord
  2
block 3
340
0
102
{BLKREFS
331
46
102
}
 70
     0
280
     1
281
     0
  0
BLOCK_RECORD
  5
4A
330
1
100
AcDbSymbolTableRecord
100
AcDbBlockTableRecord
  2
block 4
340
0
102
{BLKREFS
331
4B
102
}
 70
     0
280
     1
281
     0
  0
BLOCK_RECORD
  5
4F
330
1
100
AcDbSymbolTableRecord
100
AcDbBlockTableRecord
  2
block 5
340
0
102
{BLKREFS
331
50
102
}
 70
     0
280
     1
281
     0
  0
BLOCK_RECORD
  5
56
330
1
100
AcDbSymbolTableRecord
100
AcDbBlockTableRecord
  2
block 6
340
0
102
{BLKREFS
331
57
102
}
 70
     0
280
     1
281
     0
  0
BLOCK_RECORD
  5
5B
330
1
100
AcDbSymbolTableRecord
100
AcDbBlockTableRecord
  2
block 7
340
0
102
{BLKREFS
331
5C
102
}
 70
     0
280
     1
281
     0
  0
BLOCK_RECORD
  5
60
330
1
100
AcDbSymbolTableRecord
100
AcDbBlockTableRecord
  2
block 8
340
0
102
{BLKREFS
331
61
102
}
 70
     0
280
     1
281
     0
  0
BLOCK_RECORD
  5
65
330
1
100
AcDbSymbolTableRecord
100
AcDbBlockTableRecord
  2
block 9
340
0
102
{BLKREFS
331
66
102
}
 70
     0
280
     1
281
     0
  0
BLOCK_RECORD
  5
6A
330
1
100
AcDbSymbolTableRecord
100
AcDbBlockTableRecord
  2
block 10
340
0
102
{BLKREFS
331
6B
102
}
 70
     0
280
     1
281
     0
  0
BLOCK_RECORD
  5
6F
330
1
100
AcDbSymbolTableRecord
100
AcDbBlockTableRecord
  2
block 11
340
0
102
{BLKREFS
331
70
102
}
 70
     0
280
     1
281
     0
  0
BLOCK_RECORD
  5
74
330
1
100
AcDbSymbolTableRecord
100
AcDbBlockTableRecord
  2
block 12
340
0
102
{BLKREFS
331
75
102
}
 70
     0
280
     1
281
     0
  0
BLOCK_RECORD
  5
79
330
1
100
AcDbSymbolTableRecord
100
AcDbBlockTableRecord
  2
block 13
340
0
102
{BLKREFS
331
7A
102
}
 70
     0
280
     1
281
     0
  0
BLOCK_RECORD
  5
7E
330
1
100
AcDbSymbolTableRecord
100
AcDbBlockTableRecord
  2
block 14
340
0
102
{BLKREFS
331
7F
102
}
 70
     0
280
     1
281
     0
  0
BLOCK_RECORD
  5
83
330
1
100
AcDbSymbolTableRecord
100
AcDbBlockTableRecord
  2
block 15
340
0
102
{BLKREFS
331
84
102
}
 70
     0
280
     1
281
     0
  0
BLOCK_RECORD
  5
88
330
1
100
AcDbSymbolTableRecord
100
AcDbBlockTableRecord
  2
block 16
340
0
102
{BLKREFS
331
89
102
}
 70
     0
280
     1
281
     0
  0
BLOCK_RECORD
  5
8D
330
1
100
AcDbSymbolTableRecord
100
AcDbBlockTableRecord
  2
block 17
340
0
102
{BLKREFS
331
8E
102
}
 70
     0
280
     1
281
     0
  0
BLOCK_RECORD
  5
92
330
1
100
AcDbSymbolTableRecord
100
AcDbBlockTableRecord
  2
block 18
340
0
102
{BLKREFS
331
93
102
}
 70
     0
280
     1
281
     0
  0
BLOCK_RECORD
  5
97
330
1
100
AcDbSymbolTableRecord
100
AcDbBlockTableRecord
  2
block 19
340
0
102
{BLKREFS
331
98
102
}
 70
     0
280
     1
281
     0
  0
BLOCK_RECORD
  5
9C
330
1
100
AcDbSymbolTableRecord
100
AcDbBlockTableRecord
  2
block 20
340
0
102
{BLKREFS
331
9D
102
}
 70
     0
280
     1
281
     0
  0
BLOCK_RECORD
  5
A1
330
1
100
AcDbSymbolTableRecord
100
AcDbBlockTableRecord
  2
block 21
340
0
102
{BLKREFS
331
A2
102
}
 70
     0
280
     1
281
     0
  0
BLOCK_RECORD
  5
A9
330
1
100
AcDbSymbolTableRecord
100
AcDbBlockTableRecord
  2
block 22
340
0
102
{BLKREFS
331
AA
102
}
 70
     0
280
     1
281
     0
  0
BLOCK_RECORD
  5
B1
330
1
100
AcDbSymbolTableRecord
100
AcDbBlockTableRecord
  2
block 23
340
0
102
{BLKREFS
331
B2
102
}
 70
     0
280
     1
281
     0
  0
BLOCK_RECORD
  5
B6
330
1
100
AcDbSymbolTableRecord
100
AcDbBlockTableRecord
  2
block 24
340
0
102
{BLKREFS
331
B7
102
}
 70
     0
280
     1
281
     0
  0
BLOCK_RECORD
  5
BC
330
1
100
AcDbSymbolTableRecord
100
AcDbBlockTableRecord
  2
block 25
340
0
102
{BLKREFS
331
BD
102
}
 70
     0
280
     1
281
     0
  0
BLOCK_RECORD
  5
C1
330
1
100
AcDbSymbolTableRecord
100
AcDbBlockTableRecord
  2
block 26
340
0
102
{BLKREFS
331
C2
102
}
 70
     0
280
     1
281
     0
  0
BLOCK_RECORD
  5
C6
330
1
100
AcDbSymbolTableRecord
100
AcDbBlockTableRecord
  2
block 27
340
0
102
{BLKREFS
331
C7
102
}
 70
     0
280
     1
281
     0
  0
BLOCK_RECORD
  5
CB
330
1
100
AcDbSymbolTableRecord
100
AcDbBlockTableRecord
  2
block 28
340
0
102
{BLKREFS
331
CC
102
}
 70
     0
280
     1
281
     0
  0
ENDTAB
  0
ENDSEC
  0
SECTION
  2
BLOCKS
  0
BLOCK
  5
20
330
1F
100
AcDbEntity
  8
0
100
AcDbBlockBegin
  2
*Model_Space
 70
     0
 10
0.0
 20
0.0
 30
0.0
  3
*Model_Space
  1

  0
ENDBLK
  5
21
330
1F
100
AcDbEntity
  8
0
100
AcDbBlockEnd
  0
BLOCK
  5
1C
330
1B
100
AcDbEntity
 67
     1
  8
0
100
AcDbBlockBegin
  2
*Paper_Space
 70
     0
 10
0.0
 20
0.0
 30
0.0
  3
*Paper_Space
  1

  0
ENDBLK
  5
1D
330
1B
100
AcDbEntity
 67
     1
  8
0
100
AcDbBlockEnd
  0
BLOCK
  5
24
330
23
100
AcDbEntity
  8
0
100
AcDbBlockBegin
  2
*Paper_Space0
 70
     0
 10
0.0
 20
0.0
 30
0.0
  3
*Paper_Space0
  1

  0
ENDBLK
  5
25
330
23
100
AcDbEntity
  8
0
100
AcDbBlockEnd
  0
BLOCK
  5
42
330
40
100
AcDbEntity
  8
0
100
AcDbBlockBegin
  2
block 2
 70
     0
 10
0.0
 20
0.0
 30
0.0
  3
block 2
  1

  0
SPLINE
  5
44
330
40
100
AcDbEntity
  8
0
 62
   179
420
  1842203
370
    25
100
AcDbSpline
210
0.0
220
0.0
230
1.0
 70
     8
 71
     3
 72
    11
 73
     7
 74
     0
 42
0.0000000001
 43
0.0000000001
 12
1.0
 22
0.0
 32
0.0
 13
1.0
 23
0.0
 33
0.0
 40
0.0
 40
0.0
 40
0.0
 40
0.0
 40
1.0
 40
1.0
 40
1.0
 40
2.0
 40
2.0
 40
2.0
 40
2.0
 10
130.2998639377129
 20
184.0046393548747
 30
0.0
 10
130.2998647087111
 20
183.9985271097664
 30
0.0
 10
130.2661419960715
 20
183.9924606376378
 30
0.0
 10
130.1975312360211
 20
183.9864615863252
 30
0.0
 10
130.1910989772658
 20
183.9858991752643
 30
0.0
 10
130.1843614909743
 20
183.9853374545534
 30
0.0
 10
130.177320457092
 20
183.984776529437
 30
0.0
  0
ENDBLK
  5
43
330
40
100
AcDbEntity
  8
0
100
AcDbBlockEnd
  0
BLOCK
  5
47
330
45
100
AcDbEntity
  8
0
100
AcDbBlockBegin
  2
block 3
 70
     0
 10
0.0
 20
0.0
 30
0.0
  3
block 3
  1

  0
SPLINE
  5
49
330
45
100
AcDbEntity
  8
0
 62
   179
420
  1842203
370
    25
100
AcDbSpline
210
0.0
220
0.0
230
1.0
 70
     8
 71
     3
 72
     8
 73
     4
 74
     0
 42
0.0000000001
 43
0.0000000001
 12
1.0
 22
0.0
 32
0.0
 13
1.0
 23
0.0
 33
0.0
 40
0.0
 40
0.0
 40
0.0
 40
0.0
 40
1.0
 40
1.0
 40
1.0
 40
1.0
 10
130.177320457092
 20
183.984776529437
 30
0.0
 10
130.154459220869
 20
183.9829776478022
 30
0.0
 10
130.1315849290114
 20
183.9813638153572
 30
0.0
 10
130.1086975815199
 20
183.9799350321035
 30
0.0
  0
ENDBLK
  5
48
330
45
100
AcDbEntity
  8
0
100
AcDbBlockEnd
  0
BLOCK
  5
4C
330
4A
100
AcDbEntity
  8
0
100
AcDbBlockBegin
  2
block 4
 70
     0
 10
0.0
 20
0.0
 30
0.0
  3
block 4
  1

  0
SPLINE
  5
4E
330
4A
100
AcDbEntity
  8
0
 62
   179
420
  1842203
370
    25
100
AcDbSpline
210
0.0
220
0.0
230
1.0
 70
     8
 71
     3
 72
    44
 73
    40
 74
     0
 42
0.0000000001
 43
0.0000000001
 12
1.0
 22
0.0
 32
0.0
 13
1.0
 23
0.0
 33
0.0
 40
0.0
 40
0.0
 40
0.0
 40
0.0
 40
1.0
 40
1.0
 40
1.0
 40
2.0
 40
2.0
 40
2.0
 40
3.0
 40
3.0
 40
3.0
 40
4.0
 40
4.0
 40
4.0
 40
5.0
 40
5.0
 40
5.0
 40
6.0
 40
6.0
 40
6.0
 40
7.0
 40
7.0
 40
7.0
 40
8.0
 40
8.0
 40
8.0
 40
9.0
 40
9.0
 40
9.0
 40
10.0
 40
10.0
 40
10.0
 40
11.0
 40
11.0
 40
11.0
 40
12.0
 40
12.0
 40
12.0
 40
13.0
 40
13.0
 40
13.0
 40
13.0
 10
130.0688238669821
 20
183.9775378851608
 30
0.0
 10
130.0158087442091
 20
183.9745146432177
 30
0.0
 10
129.9627673404478
 20
183.9719802336185
 30
0.0
 10
129.9097157739923
 20
183.9696891254878
 30
0.0
 10
129.8433910532467
 20
183.9668247971154
 30
0.0
 10
129.7770504483765
 20
183.9643407449597
 30
0.0
 10
129.7107035876158
 20
183.9620491516131
 30
0.0
 10
129.5385284342504
 20
183.9561022924632
 30
0.0
 10
129.3663111510906
 20
183.9514515317646
 30
0.0
 10
129.1940829706234
 20
183.9472969017922
 30
0.0
 10
128.9552579002749
 20
183.9415357668091
 30
0.0
 10
128.7164118757504
 20
183.9367286299623
 30
0.0
 10
128.4775572397179
 20
183.9323992961235
 30
0.0
 10
128.1798066636777
 20
183.9270024503027
 30
0.0
 10
127.8820427057587
 20
183.9223480878856
 30
0.0
 10
127.5842732903139
 20
183.9181020140365
 30
0.0
 10
127.2528183172417
 20
183.9133755974866
 30
0.0
 10
126.9213565820207
 20
183.9091550709686
 30
0.0
 10
126.5898909412012
 20
183.9052622470676
 30
0.0
 10
126.1693762295131
 20
183.9003236063189
 30
0.0
 10
125.7488552318459
 20
183.8959123960994
 30
0.0
 10
125.3283311801487
 20
183.8918337012284
 30
0.0
 10
124.3232906243914
 20
183.8820857361719
 30
0.0
 10
123.3182326241221
 20
183.8742370869513
 30
0.0
 10
122.3131679960899
 20
183.867413412951
 30
0.0
 10
121.1937310615025
 20
183.8598132323334
 30
0.0
 10
120.074285904901
 20
183.8534845759791
 30
0.0
 10
118.9548362717191
 20
183.8480849888533
 30
0.0
 10
117.6631707759375
 20
183.8418547305412
 30
0.0
 10
116.3714993202772
 20
183.8368613850065
 30
0.0
 10
115.0798250971178
 20
183.832836518664
 30
0.0
 10
112.328368954291
 20
183.8242629611644
 30
0.0
 10
109.5769002538599
 20
183.8200839039585
 30
0.0
 10
106.8254306637016
 20
183.8190895894815
 30
0.0
 10
104.0213937308413
 20
183.8180762784395
 30
0.0
 10
101.2173558739313
 20
183.8203705627992
 30
0.0
 10
98.41332606364736
 20
183.8267439556486
 30
0.0
 10
95.8956819960641
 20
183.8324664107526
 30
0.0
 10
85.24283994547078
 20
183.8926801879032
 30
0.0
 10
82.7252295242601
 20
183.9069038630049
 30
0.0
  0
ENDBLK
  5
4D
330
4A
100
AcDbEntity
  8
0
100
AcDbBlockEnd
  0
BLOCK
  5
51
330
4F
100
AcDbEntity
  8
0
100
AcDbBlockBegin
  2
block 5
 70
     0
 10
0.0
 20
0.0
 30
0.0
  3
block 5
  1

  0
POLYLINE
  5
53
330
4F
100
AcDbEntity
  8
0
 62
   179
420
  1842203
370
    25
100
AcDb2dPolyline
 66
     1
 10
0.0
 20
0.0
 30
0.0
  0
VERTEX
  5
54
330
53
100
AcDbEntity
  8
0
 62
   179
420
  1842203
370
    25
100
AcDbVertex
100
AcDb2dVertex
 10
130.7674724407727
 20
184.5035584911464
 30
0.0
  0
VERTEX
  5
D4
330
53
100
AcDbEntity
  8
0
100
AcDbVertex
100
AcDb2dVertex
 10
130.7674724407727
 20
184.5035584911464
 30
0.0
  0
SEQEND
  5
55
330
53
100
AcDbEntity
  8
0
 62
   179
420
  1842203
370
    25
  0
ENDBLK
  5
52
330
4F
100
AcDbEntity
  8
0
100
AcDbBlockEnd
  0
BLOCK
  5
58
330
56
100
AcDbEntity
  8
0
100
AcDbBlockBegin
  2
block 6
 70
     0
 10
0.0
 20
0.0
 30
0.0
  3
block 6
  1

  0
SPLINE
  5
5A
330
56
100
AcDbEntity
  8
0
 62
   179
420
  1842203
370
    25
100
AcDbSpline
210
0.0
220
0.0
230
1.0
 70
     8
 71
     3
 72
    23
 73
    19
 74
     0
 42
0.0000000001
 43
0.0000000001
 12
1.0
 22
0.0
 32
0.0
 13
1.0
 23
0.0
 33
0.0
 40
0.0
 40
0.0
 40
0.0
 40
0.0
 40
1.0
 40
1.0
 40
1.0
 40
2.0
 40
2.0
 40
2.0
 40
3.0
 40
3.0
 40
3.0
 40
4.0
 40
4.0
 40
4.0
 40
5.0
 40
5.0
 40
5.0
 40
6.0
 40
6.0
 40
6.0
 40
6.0
 10
80.76762795704967
 20
184.5028558494365
 30
0.0
 10
81.13342551837573
 20
184.4994462878463
 30
0.0
 10
124.4308609888331
 20
184.6511026476889
 30
0.0
 10
124.7966534855495
 20
184.6471965841244
 30
0.0
 10
125.151284366946
 20
184.6434097082931
 30
0.0
 10
125.5059126173501
 20
184.6393650574241
 30
0.0
 10
125.8605368440895
 20
184.6349946852948
 30
0.0
 10
126.4743908276186
 20
184.6274295779529
 30
0.0
 10
127.0882327548195
 20
184.6188884938866
 30
0.0
 10
127.7020483495423
 20
184.6086526970009
 30
0.0
 10
128.1792293109909
 20
184.600695376527
 30
0.0
 10
128.6563943583386
 20
184.5917138519904
 30
0.0
 10
129.1335074930914
 20
184.5804024859299
 30
0.0
 10
129.3179207242187
 20
184.576030429469
 30
0.0
 10
129.5023261997688
 20
184.5713103020477
 30
0.0
 10
129.686711712348
 20
184.5658942136979
 30
0.0
 10
129.8422671410828
 20
184.5613249721476
 30
0.0
 10
129.9978083615248
 20
184.556260392635
 30
0.0
 10
130.1533160145592
 20
184.5502735633521
 30
0.0
  0
ENDBLK
  5
59
330
56
100
AcDbEntity
  8
0
100
AcDbBlockEnd
  0
BLOCK
  5
5D
330
5B
100
AcDbEntity
  8
0
100
AcDbBlockBegin
  2
block 7
 70
     0
 10
0.0
 20
0.0
 30
0.0
  3
block 7
  1

  0
SPLINE
  5
5F
330
5B
100
AcDbEntity
  8
0
 62
   179
420
  1842203
370
    25
100
AcDbSpline
210
0.0
220
0.0
230
1.0
 70
     8
 71
     3
 72
    11
 73
     7
 74
     0
 42
0.0000000001
 43
0.0000000001
 12
1.0
 22
0.0
 32
0.0
 13
1.0
 23
0.0
 33
0.0
 40
0.0
 40
0.0
 40
0.0
 40
0.0
 40
1.0
 40
1.0
 40
1.0
 40
2.0
 40
2.0
 40
2.0
 40
2.0
 10
130.7674724607128
 20
184.5035724734849
 30
0.0
 10
130.7674718369544
 20
184.5111817811958
 30
0.0
 10
130.7160281251789
 20
184.5188998197287
 30
0.0
 10
130.6134579997014
 20
184.5266940905821
 30
0.0
 10
130.5108878758879
 20
184.5344883613091
 30
0.0
 10
130.3571918598101
 20
184.5423588260338
 30
0.0
 10
130.1533160145592
 20
184.5502735633521
 30
0.0
  0
ENDBLK
  5
5E
330
5B
100
AcDbEntity
  8
0
100
AcDbBlockEnd
  0
BLOCK
  5
62
330
60
100
AcDbEntity
  8
0
100
AcDbBlockBegin
  2
block 8
 70
     0
 10
0.0
 20
0.0
 30
0.0
  3
block 8
  1

  0
SPLINE
  5
64
330
60
100
AcDbEntity
  8
0
 62
   179
420
  1842203
370
    25
100
AcDbSpline
210
0.0
220
0.0
230
1.0
 70
     8
 71
     3
 72
    11
 73
     7
 74
     0
 42
0.0000000001
 43
0.0000000001
 12
1.0
 22
0.0
 32
0.0
 13
1.0
 23
0.0
 33
0.0
 40
0.0
 40
0.0
 40
0.0
 40
0.0
 40
1.0
 40
1.0
 40
1.0
 40
2.0
 40
2.0
 40
2.0
 40
2.0
 10
130.7674687026999
 20
191.5362104666506
 30
0.0
 10
130.7674687026999
 20
191.6732440867141
 30
0.0
 10
122.4341353693663
 20
191.7417608967458
 30
0.0
 10
105.7674687026997
 20
191.7417608967458
 30
0.0
 10
89.10080203603307
 20
191.7417608967458
 30
0.0
 10
80.76746870270009
 20
191.6732440867141
 30
0.0
 10
80.76746870270009
 20
191.5362104666506
 30
0.0
  0
ENDBLK
  5
63
330
60
100
AcDbEntity
  8
0
100
AcDbBlockEnd
  0
BLOCK
  5
67
330
65
100
AcDbEntity
  8
0
100
AcDbBlockBegin
  2
block 9
 70
     0
 10
0.0
 20
0.0
 30
0.0
  3
block 9
  1

  0
SPLINE
  5
69
330
65
100
AcDbEntity
  8
0
 62
   179
420
  1842203
370
    25
100
AcDbSpline
210
0.0
220
0.0
230
1.0
 70
    24
 71
     3
 72
     8
 73
     4
 74
     0
 42
0.0000000001
 43
0.0000000001
 12
1.0
 22
0.0
 32
0.0
 13
1.0
 23
0.0
 33
0.0
 40
0.0
 40
0.0
 40
0.0
 40
0.0
 40
1.0
 40
1.0
 40
1.0
 40
1.0
 10
80.76746870270009
 20
191.5362104666506
 30
0.0
 10
80.7674711126971
 20
189.1921931703532
 30
0.0
 10
80.76747352269409
 20
186.8481758740559
 30
0.0
 10
80.7674759326914
 20
184.5041585777588
 30
0.0
  0
ENDBLK
  5
68
330
65
100
AcDbEntity
  8
0
100
AcDbBlockEnd
  0
BLOCK
  5
6C
330
6A
100
AcDbEntity
  8
0
100
AcDbBlockBegin
  2
block 10
 70
     0
 10
0.0
 20
0.0
 30
0.0
  3
block 10
  1

  0
SPLINE
  5
6E
330
6A
100
AcDbEntity
  8
0
 62
   179
420
  1842203
370
    25
100
AcDbSpline
210
0.0
220
0.0
230
1.0
 70
    24
 71
     3
 72
     8
 73
     4
 74
     0
 42
0.0000000001
 43
0.0000000001
 12
1.0
 22
0.0
 32
0.0
 13
1.0
 23
0.0
 33
0.0
 40
0.0
 40
0.0
 40
0.0
 40
0.0
 40
1.0
 40
1.0
 40
1.0
 40
1.0
 10
130.7674724607128
 20
184.5035724734849
 30
0.0
 10
130.7674712080419
 20
186.8477851378741
 30
0.0
 10
130.7674699553709
 20
189.191997802262
 30
0.0
 10
130.7674687026999
 20
191.5362104666506
 30
0.0
  0
ENDBLK
  5
6D
330
6A
100
AcDbEntity
  8
0
100
AcDbBlockEnd
  0
BLOCK
  5
71
330
6F
100
AcDbEntity
  8
0
100
AcDbBlockBegin
  2
block 11
 70
     0
 10
0.0
 20
0.0
 30
0.0
  3
block 11
  1

  0
SPLINE
  5
73
330
6F
100
AcDbEntity
  8
0
 62
   179
420
  1842203
370
    25
100
AcDbSpline
210
0.0
220
0.0
230
1.0
 70
     8
 71
     3
 72
    92
 73
    88
 74
     0
 42
0.0000000001
 43
0.0000000001
 12
1.0
 22
0.0
 32
0.0
 13
1.0
 23
0.0
 33
0.0
 40
0.0
 40
0.0
 40
0.0
 40
0.0
 40
1.0
 40
1.0
 40
1.0
 40
2.0
 40
2.0
 40
2.0
 40
3.0
 40
3.0
 40
3.0
 40
4.0
 40
4.0
 40
4.0
 40
5.0
 40
5.0
 40
5.0
 40
6.0
 40
6.0
 40
6.0
 40
7.0
 40
7.0
 40
7.0
 40
8.0
 40
8.0
 40
8.0
 40
9.0
 40
9.0
 40
9.0
 40
10.0
 40
10.0
 40
10.0
 40
11.0
 40
11.0
 40
11.0
 40
12.0
 40
12.0
 40
12.0
 40
13.0
 40
13.0
 40
13.0
 40
14.0
 40
14.0
 40
14.0
 40
15.0
 40
15.0
 40
15.0
 40
16.0
 40
16.0
 40
16.0
 40
17.0
 40
17.0
 40
17.0
 40
18.0
 40
18.0
 40
18.0
 40
19.0
 40
19.0
 40
19.0
 40
20.0
 40
20.0
 40
20.0
 40
21.0
 40
21.0
 40
21.0
 40
22.0
 40
22.0
 40
22.0
 40
23.0
 40
23.0
 40
23.0
 40
24.0
 40
24.0
 40
24.0
 40
25.0
 40
25.0
 40
25.0
 40
26.0
 40
26.0
 40
26.0
 40
27.0
 40
27.0
 40
27.0
 40
28.0
 40
28.0
 40
28.0
 40
29.0
 40
29.0
 40
29.0
 40
29.0
 10
81.23507351094402
 20
184.0046397147196
 30
0.0
 10
81.73181140054503
 20
183.9723891611406
 30
0.0
 10
82.22881754841693
 20
183.943794427057
 30
0.0
 10
82.7252295242601
 20
183.9069038630049
 30
0.0
 10
83.02220837662594
 20
183.884834054241
 30
0.0
 10
83.31897457244749
 20
183.85979513477
 30
0.0
 10
83.61522370372737
 20
183.8291579800409
 30
0.0
 10
84.10460182589821
 20
183.7785480316333
 30
0.0
 10
84.59256897187782
 20
183.7126615054851
 30
0.0
 10
85.07551559401105
 20
183.6188455281394
 30
0.0
 10
85.55352899913139
 20
183.5259878649311
 30
0.0
 10
86.02662392413161
 20
183.4057684254094
 30
0.0
 10
86.48683846031334
 20
183.2466174983733
 30
0.0
 10
86.70204693875523
 20
183.172194319275
 30
0.0
 10
86.91443880495059
 20
183.0892578176356
 30
0.0
 10
87.12273120371786
 20
182.9973035986569
 30
0.0
 10
87.24302579334174
 20
182.9441975078833
 30
0.0
 10
87.36195305471439
 20
182.8880836655199
 30
0.0
 10
87.47942932772948
 20
182.8289911648737
 30
0.0
 10
87.56776870119283
 20
182.7845550047076
 30
0.0
 10
87.65528758664965
 20
182.738434507526
 30
0.0
 10
87.74186828148672
 20
182.6906463311853
 30
0.0
 10
87.85747235444046
 20
182.6268387140902
 30
0.0
 10
87.97140381533671
 20
182.5600579482396
 30
0.0
 10
88.08353107540047
 20
182.4903414113219
 30
0.0
 10
88.2517670581538
 20
182.3857385690165
 30
0.0
 10
88.41594141202972
 20
182.2745266994197
 30
0.0
 10
88.57510741234614
 20
182.156582100155
 30
0.0
 10
88.89911991774143
 20
181.9164835550523
 30
0.0
 10
89.20237765344964
 20
181.6484843731521
 30
0.0
 10
89.48166274538309
 20
181.3575572199095
 30
0.0
 10
89.62466506232315
 20
181.2085938195132
 30
0.0
 10
89.76138236059396
 20
181.0536192870402
 30
0.0
 10
89.89180909551219
 20
180.8935400652441
 30
0.0
 10
90.03562878362455
 20
180.7170230055598
 30
0.0
 10
90.17179967744708
 20
180.5342990743503
 30
0.0
 10
90.30132089303979
 20
180.3470235208461
 30
0.0
 10
90.4374932887968
 20
180.1501309834293
 30
0.0
 10
90.56631552166033
 20
179.9482073506503
 30
0.0
 10
90.6887254503788
 20
179.7424825709016
 30
0.0
 10
90.81628884767558
 20
179.5280967601444
 30
0.0
 10
90.93688865842934
 20
179.3095830079662
 30
0.0
 10
91.05121162368467
 20
179.087856091172
 30
0.0
 10
91.18637079453873
 20
178.825717804582
 30
0.0
 10
91.31275661417023
 20
178.5590883732404
 30
0.0
 10
91.43245657751433
 20
178.2895366560155
 30
0.0
 10
91.49158654559548
 20
178.1563821922181
 30
0.0
 10
91.54908502414489
 20
178.0225146292111
 30
0.0
 10
91.60513950520244
 20
177.8880382531704
 30
0.0
 10
91.66719855408272
 20
177.7391567393898
 30
0.0
 10
91.72748767334467
 20
177.5895289942422
 30
0.0
 10
91.78593899438947
 20
177.4391917979825
 30
0.0
 10
91.8378907211325
 20
177.3055716025814
 30
0.0
 10
91.88839064003429
 20
177.1713909611661
 30
0.0
 10
91.9374641462708
 20
177.0366892810181
 30
0.0
 10
91.99169493880959
 20
176.8878313853627
 30
0.0
 10
92.04418375236462
 20
176.7383371811955
 30
0.0
 10
92.09531241480457
 20
176.5883837611869
 30
0.0
 10
92.15780780271132
 20
176.4050932797972
 30
0.0
 10
92.21827104776033
 20
176.2211167039148
 30
0.0
 10
92.2774677056661
 20
176.0367340290044
 30
0.0
 10
92.33606107889317
 20
175.8542304338741
 30
0.0
 10
92.39341354950082
 20
175.6713289748083
 30
0.0
 10
92.44913997729637
 20
175.487930637742
 30
0.0
 10
92.49974987666604
 20
175.3213710402468
 30
0.0
 10
92.54901861627644
 20
175.1544016178849
 30
0.0
 10
92.59670234236481
 20
174.9869813030062
 30
0.0
 10
92.64871917496191
 20
174.8043472010422
 30
0.0
 10
92.69884983939724
 20
174.6211765363952
 30
0.0
 10
92.74769353445022
 20
174.4376677010464
 30
0.0
 10
92.76545552189025
 20
174.370934796729
 30
0.0
 10
92.7830473192233
 20
174.304157172383
 30
0.0
 10
92.80050895402353
 20
174.2373454211205
 30
0.0
 10
92.90370301929553
 20
173.8425040274304
 30
0.0
 10
93.00235112433836
 20
173.4464707423257
 30
0.0
 10
93.0971333238842
 20
173.0495217993432
 30
0.0
 10
93.29400542896894
 20
172.225019156543
 30
0.0
 10
93.47419868655271
 20
171.3965660503615
 30
0.0
 10
93.64063307036037
 20
170.5653890100398
 30
0.0
 10
93.84047551337598
 20
169.567371373801
 30
0.0
 10
94.02048112774135
 20
168.5654265109829
 30
0.0
 10
94.18626660739918
 20
167.5611877727759
 30
0.0
 10
94.37976641301061
 20
166.3890706426634
 30
0.0
 10
94.55389433745395
 20
165.213828599717
 30
0.0
 10
94.71746930560619
 20
164.0371549267983
 30
0.0
 10
95.09911836991287
 20
161.2917690567205
 30
0.0
 10
95.42332023573148
 20
158.5385898130222
 30
0.0
 10
95.71051546427636
 20
155.7817879596778
 30
0.0
  0
ENDBLK
  5
72
330
6F
100
AcDbEntity
  8
0
100
AcDbBlockEnd
  0
BLOCK
  5
76
330
74
100
AcDbEntity
  8
0
100
AcDbBlockBegin
  2
block 12
 70
     0
 10
0.0
 20
0.0
 30
0.0
  3
block 12
  1

  0
SPLINE
  5
78
330
74
100
AcDbEntity
  8
0
 62
   179
420
  1842203
370
    25
100
AcDbSpline
210
0.0
220
0.0
230
1.0
 70
     8
 71
     3
 72
    92
 73
    88
 74
     0
 42
0.0000000001
 43
0.0000000001
 12
1.0
 22
0.0
 32
0.0
 13
1.0
 23
0.0
 33
0.0
 40
0.0
 40
0.0
 40
0.0
 40
0.0
 40
1.0
 40
1.0
 40
1.0
 40
2.0
 40
2.0
 40
2.0
 40
3.0
 40
3.0
 40
3.0
 40
4.0
 40
4.0
 40
4.0
 40
5.0
 40
5.0
 40
5.0
 40
6.0
 40
6.0
 40
6.0
 40
7.0
 40
7.0
 40
7.0
 40
8.0
 40
8.0
 40
8.0
 40
9.0
 40
9.0
 40
9.0
 40
10.0
 40
10.0
 40
10.0
 40
11.0
 40
11.0
 40
11.0
 40
12.0
 40
12.0
 40
12.0
 40
13.0
 40
13.0
 40
13.0
 40
14.0
 40
14.0
 40
14.0
 40
15.0
 40
15.0
 40
15.0
 40
16.0
 40
16.0
 40
16.0
 40
17.0
 40
17.0
 40
17.0
 40
18.0
 40
18.0
 40
18.0
 40
19.0
 40
19.0
 40
19.0
 40
20.0
 40
20.0
 40
20.0
 40
21.0
 40
21.0
 40
21.0
 40
22.0
 40
22.0
 40
22.0
 40
23.0
 40
23.0
 40
23.0
 40
24.0
 40
24.0
 40
24.0
 40
25.0
 40
25.0
 40
25.0
 40
26.0
 40
26.0
 40
26.0
 40
27.0
 40
27.0
 40
27.0
 40
28.0
 40
28.0
 40
28.0
 40
29.0
 40
29.0
 40
29.0
 40
29.0
 10
130.2998639377129
 20
184.0046393548747
 30
0.0
 10
129.8031260868359
 20
183.9723894348605
 30
0.0
 10
129.3061199360378
 20
183.943796197135
 30
0.0
 10
128.8097079244039
 20
183.9069072268368
 30
0.0
 10
128.512729082782
 20
183.884838373926
 30
0.0
 10
128.2159628858965
 20
183.8598004458094
 30
0.0
 10
127.9197137448436
 20
183.8291641516668
 30
0.0
 10
127.4303355765237
 20
183.7785556217702
 30
0.0
 10
126.9423683608049
 20
183.7126701554162
 30
0.0
 10
126.4594218550223
 20
183.6188541141605
 30
0.0
 10
125.9814080605854
 20
183.5259962896964
 30
0.0
 10
125.508312938957
 20
183.4057755302986
 30
0.0
 10
125.0480989886285
 20
183.2466216461221
 30
0.0
 10
124.8328903027504
 20
183.1721969177066
 30
0.0
 10
124.6204984128282
 20
183.0892584706343
 30
0.0
 10
124.412206232879
 20
182.9973020236894
 30
0.0
 10
124.291911607601
 20
182.9441945746731
 30
0.0
 10
124.1729843951554
 20
182.8880792717289
 30
0.0
 10
124.0555081219048
 20
182.8289854749174
 30
0.0
 10
123.9671687859513
 20
182.7845483590227
 30
0.0
 10
123.8796499095046
 20
182.7384270005225
 30
0.0
 10
123.7930691421594
 20
182.6906381190508
 30
0.0
 10
123.677465216729
 20
182.6268296953166
 30
0.0
 10
123.5635337509552
 20
182.5600484138477
 30
0.0
 10
123.4514063160952
 20
182.4903317307221
 30
0.0
 10
123.2831711815897
 20
182.3857293595229
 30
0.0
 10
123.1189972398206
 20
182.2745188798924
 30
0.0
 10
122.9598301496718
 20
182.1565772191739
 30
0.0
 10
122.6358197678007
 20
181.9164878734914
 30
0.0
 10
122.3325573754385
 20
181.648505055979
 30
0.0
 10
122.0532749559653
 20
181.3575855485639
 30
0.0
 10
121.9102699023284
 20
181.2086217869346
 30
0.0
 10
121.7735521498277
 20
181.0536442621882
 30
0.0
 10
121.6431281319331
 20
180.8935600126346
 30
0.0
 10
121.4993068286457
 20
180.717031749066
 30
0.0
 10
121.3631386663666
 20
180.5342937408078
 30
0.0
 10
121.233616752638
 20
180.3470068111308
 30
0.0
 10
121.0974482156952
 20
180.1501089544795
 30
0.0
 10
120.9686255551367
 20
179.9481833270242
 30
0.0
 10
120.8462121667909
 20
179.7424581002067
 30
0.0
 10
120.7186497526139
 20
179.528079534719
 30
0.0
 10
120.5980471316897
 20
179.3095750052965
 30
0.0
 10
120.4837256318722
 20
179.0878549892734
 30
0.0
 10
120.3485632626881
 20
178.8257152980607
 30
0.0
 10
120.222180861474
 20
178.5590808886479
 30
0.0
 10
120.102480953454
 20
178.2895261138012
 30
0.0
 10
120.0433518417472
 20
178.1563720065277
 30
0.0
 10
119.9858533531796
 20
178.0225052886585
 30
0.0
 10
119.9297979383607
 20
177.8880300411014
 30
0.0
 10
119.8677395777302
 20
177.739153907801
 30
0.0
 10
119.8074499163128
 20
177.5895319318287
 30
0.0
 10
119.7489984104067
 20
177.4392003910911
 30
0.0
 10
119.6970461855377
 20
177.3055843637829
 30
0.0
 10
119.6465460694239
 20
177.1714077934728
 30
0.0
 10
119.5974733024529
 20
177.036709808646
 30
0.0
 10
119.5432415052765
 20
176.8878509966402
 30
0.0
 10
119.4907529478454
 20
176.7383553744237
 30
0.0
 10
119.4396250142491
 20
176.5884004115213
 30
0.0
 10
119.3771292537931
 20
176.4051043386818
 30
0.0
 10
119.3166664246607
 20
176.2211219570748
 30
0.0
 10
119.2574697336201
 20
176.0367336205283
 30
0.0
 10
119.1988768093039
 20
175.854225921902
 30
0.0
 10
119.1415243272657
 20
175.671320507045
 30
0.0
 10
119.0857974494934
 20
175.4879183627132
 30
0.0
 10
119.0351879517445
 20
175.3213579742273
 30
0.0
 10
118.9859192091105
 20
175.1543878964966
 30
0.0
 10
118.9382350948705
 20
174.9869670281807
 30
0.0
 10
118.8862186234358
 20
174.8043350772009
 30
0.0
 10
118.8360878049754
 20
174.6211667010175
 30
0.0
 10
118.7872438737617
 20
174.4376601716194
 30
0.0
 10
118.7694818938546
 20
174.3709284568092
 30
0.0
 10
118.7518900914027
 20
174.3041520247539
 30
0.0
 10
118.7344284600343
 20
174.2373414628179
 30
0.0
 10
118.6312340649829
 20
173.8425057583763
 30
0.0
 10
118.5325859596519
 20
173.4464780509145
 30
0.0
 10
118.4378041242408
 20
173.0495345931453
 30
0.0
 10
118.240930508961
 20
172.225033851476
 30
0.0
 10
118.0607376975095
 20
171.3965821566772
 30
0.0
 10
117.8943043508043
 20
170.5654064340694
 30
0.0
 10
117.6944610973395
 20
169.567380113654
 30
0.0
 10
117.5144559326896
 20
168.5654263508096
 30
0.0
 10
117.3486708514826
 20
167.5611787577293
 30
0.0
 10
117.1551713290055
 20
166.3890501904615
 30
0.0
 10
116.9810436542877
 20
165.2137967659941
 30
0.0
 10
116.8174680640781
 20
164.0371118317766
 30
0.0
 10
116.4358283654902
 20
161.2917775000896
 30
0.0
 10
116.1116278635394
 20
158.5386508909695
 30
0.0
 10
115.8244350204664
 20
155.7819013807852
 30
0.0
  0
ENDBLK
  5
77
330
74
100
AcDbEntity
  8
0
100
AcDbBlockEnd
  0
BLOCK
  5
7B
330
79
100
AcDbEntity
  8
0
100
AcDbBlockBegin
  2
block 13
 70
     0
 10
0.0
 20
0.0
 30
0.0
  3
block 13
  1

  0
SPLINE
  5
7D
330
79
100
AcDbEntity
  8
0
 62
   179
420
  1842203
370
    25
100
AcDbSpline
210
0.0
220
0.0
230
1.0
 70
     8
 71
     3
 72
    11
 73
     7
 74
     0
 42
0.0000000001
 43
0.0000000001
 12
1.0
 22
0.0
 32
0.0
 13
1.0
 23
0.0
 33
0.0
 40
0.0
 40
0.0
 40
0.0
 40
0.0
 40
1.0
 40
1.0
 40
1.0
 40
2.0
 40
2.0
 40
2.0
 40
2.0
 10
81.23507351094402
 20
184.0046397147196
 30
0.0
 10
81.23507430761593
 20
183.9969666448467
 30
0.0
 10
81.28834976821422
 20
183.9894222221709
 30
0.0
 10
81.39107432249591
 20
183.982088496125
 30
0.0
 10
81.40332117168106
 20
183.9812141673192
 30
0.0
 10
81.41627463557101
 20
183.9803425907638
 30
0.0
 10
81.42992785620045
 20
183.9794739299869
 30
0.0
  0
ENDBLK
  5
7C
330
79
100
AcDbEntity
  8
0
100
AcDbBlockEnd
  0
BLOCK
  5
80
330
7E
100
AcDbEntity
  8
0
100
AcDbBlockBegin
  2
block 14
 70
     0
 10
0.0
 20
0.0
 30
0.0
  3
block 14
  1

  0
SPLINE
  5
82
330
7E
100
AcDbEntity
  8
0
 62
   179
420
  1842203
370
    25
100
AcDbSpline
210
0.0
220
0.0
230
1.0
 70
     8
 71
     3
 72
    11
 73
     7
 74
     0
 42
0.0000000001
 43
0.0000000001
 12
1.0
 22
0.0
 32
0.0
 13
1.0
 23
0.0
 33
0.0
 40
0.0
 40
0.0
 40
0.0
 40
0.0
 40
1.0
 40
1.0
 40
1.0
 40
2.0
 40
2.0
 40
2.0
 40
2.0
 10
81.46558167910251
 20
183.9773045465012
 30
0.0
 10
81.5005356940145
 20
183.9752670614123
 30
0.0
 10
81.539352168191
 20
183.9732465631263
 30
0.0
 10
81.58194106433412
 20
183.9712451985782
 30
0.0
 10
81.65765466228662
 20
183.9676872169329
 30
0.0
 10
81.7452975465356
 20
183.9641892637474
 30
0.0
 10
81.84462729543527
 20
183.9607469914966
 30
0.0
  0
ENDBLK
  5
81
330
7E
100
AcDbEntity
  8
0
100
AcDbBlockEnd
  0
BLOCK
  5
85
330
83
100
AcDbEntity
  8
0
100
AcDbBlockBegin
  2
block 15
 70
     0
 10
0.0
 20
0.0
 30
0.0
  3
block 15
  1

  0
SPLINE
  5
87
330
83
100
AcDbEntity
  8
0
 62
   179
420
  1842203
370
    25
100
AcDbSpline
210
0.0
220
0.0
230
1.0
 70
     8
 71
     3
 72
   101
 73
    97
 74
     0
 42
0.0000000001
 43
0.0000000001
 12
1.0
 22
0.0
 32
0.0
 13
1.0
 23
0.0
 33
0.0
 40
0.0
 40
0.0
 40
0.0
 40
0.0
 40
1.0
 40
1.0
 40
1.0
 40
2.0
 40
2.0
 40
2.0
 40
3.0
 40
3.0
 40
3.0
 40
4.0
 40
4.0
 40
4.0
 40
5.0
 40
5.0
 40
5.0
 40
6.0
 40
6.0
 40
6.0
 40
7.0
 40
7.0
 40
7.0
 40
8.0
 40
8.0
 40
8.0
 40
9.0
 40
9.0
 40
9.0
 40
10.0
 40
10.0
 40
10.0
 40
11.0
 40
11.0
 40
11.0
 40
12.0
 40
12.0
 40
12.0
 40
13.0
 40
13.0
 40
13.0
 40
14.0
 40
14.0
 40
14.0
 40
15.0
 40
15.0
 40
15.0
 40
16.0
 40
16.0
 40
16.0
 40
17.0
 40
17.0
 40
17.0
 40
18.0
 40
18.0
 40
18.0
 40
19.0
 40
19.0
 40
19.0
 40
20.0
 40
20.0
 40
20.0
 40
21.0
 40
21.0
 40
21.0
 40
22.0
 40
22.0
 40
22.0
 40
23.0
 40
23.0
 40
23.0
 40
24.0
 40
24.0
 40
24.0
 40
25.0
 40
25.0
 40
25.0
 40
26.0
 40
26.0
 40
26.0
 40
27.0
 40
27.0
 40
27.0
 40
28.0
 40
28.0
 40
28.0
 40
29.0
 40
29.0
 40
29.0
 40
30.0
 40
30.0
 40
30.0
 40
31.0
 40
31.0
 40
31.0
 40
32.0
 40
32.0
 40
32.0
 40
32.0
 10
115.8244350204664
 20
155.7819013807852
 30
0.0
 10
115.8233580520371
 20
155.7933002155625
 30
0.0
 10
115.8218800971873
 20
155.7969642104057
 30
0.0
 10
115.820048957088
 20
155.8004204039514
 30
0.0
 10
115.8177903515594
 20
155.804683419028
 30
0.0
 10
115.8149944171493
 20
155.8086302894216
 30
0.0
 10
115.8119514870653
 20
155.812368611429
 30
0.0
 10
115.8082215465139
 20
155.8169509444002
 30
0.0
 10
115.8041204903552
 20
155.8212199295338
 30
0.0
 10
115.7998452248697
 20
155.8252965273433
 30
0.0
 10
115.7903018203385
 20
155.8343964585985
 30
0.0
 10
115.7798903515178
 20
155.8425377467764
 30
0.0
 10
115.7691794214107
 20
155.8502376700751
 30
0.0
 10
115.7531867425591
 20
155.8617345614991
 30
0.0
 10
115.7365264446163
 20
155.8722474739128
 30
0.0
 10
115.7195739374262
 20
155.8822596519918
 30
0.0
 10
115.6983078310098
 20
155.8948194487297
 30
0.0
 10
115.6765818895699
 20
155.9065912649798
 30
0.0
 10
115.6546267539798
 20
155.9179088394403
 30
0.0
 10
115.6317482389693
 20
155.9297024034629
 30
0.0
 10
115.6086208457086
 20
155.9410027136136
 30
0.0
 10
115.5853481914137
 20
155.951990525341
 30
0.0
 10
115.5238520851843
 20
155.9810249289226
 30
0.0
 10
115.4613417114072
 20
156.0078773501679
 30
0.0
 10
115.3983989006875
 20
156.033643502148
 30
0.0
 10
115.3197711429395
 20
156.0658304148847
 30
0.0
 10
115.2404685739561
 20
156.0963222210447
 30
0.0
 10
115.1607587591579
 20
156.1257104152047
 30
0.0
 10
115.0659709859265
 20
156.1606576985571
 30
0.0
 10
114.9706073251689
 20
156.1940443608766
 30
0.0
 10
114.8748889202841
 20
156.2263639036894
 30
0.0
 10
114.6746618922225
 20
156.2939710270368
 30
0.0
 10
114.4728825854137
 20
156.3569086807454
 30
0.0
 10
114.2701669424608
 20
156.4166382854016
 30
0.0
 10
114.0662303256447
 20
156.476727646637
 30
0.0
 10
113.8613460594482
 20
156.5335701977266
 30
0.0
 10
113.6557354786687
 20
156.5876476456556
 30
0.0
 10
113.4223791939794
 20
156.6490224654081
 30
0.0
 10
113.1880873466993
 20
156.7068355680522
 30
0.0
 10
112.9530714483251
 20
156.7615149439603
 30
0.0
 10
112.4609819665392
 20
156.876005690934
 30
0.0
 10
111.9657180756653
 20
156.976757448068
 30
0.0
 10
111.4682924412775
 20
157.0652296255438
 30
0.0
 10
110.5248522223779
 20
157.2330300055683
 30
0.0
 10
109.5736356389201
 20
157.3566574819071
 30
0.0
 10
108.6188996093395
 20
157.4387188651551
 30
0.0
 10
107.6705377970787
 20
157.520232372262
 30
0.0
 10
106.7187033764074
 20
157.5607329587563
 30
0.0
 10
105.7668555365899
 20
157.5607351598822
 30
0.0
 10
104.8141389145013
 20
157.5607373630172
 30
0.0
 10
103.8614088487594
 20
157.5201672186761
 30
0.0
 10
102.9121934473428
 20
157.4384425518293
 30
0.0
 10
101.9574774304745
 20
157.3562442980976
 30
0.0
 10
101.0063169302672
 20
157.2324131665497
 30
0.0
 10
100.0628926727052
 20
157.0645365551364
 30
0.0
 10
99.56576447880447
 20
156.9760756151493
 30
0.0
 10
99.0707843764886
 20
156.8753847427532
 30
0.0
 10
98.57900526449168
 20
156.7608840970151
 30
0.0
 10
98.34416034663398
 20
156.706205290846
 30
0.0
 10
98.11004540133833
 20
156.6483772231587
 30
0.0
 10
97.8768549545471
 20
156.5870226618754
 30
0.0
 10
97.67140308185228
 20
156.5329663757472
 30
0.0
 10
97.46666884630677
 20
156.4761726673326
 30
0.0
 10
97.26289084047211
 20
156.4161063361739
 30
0.0
 10
97.06034816090502
 20
156.3564041341878
 30
0.0
 10
96.85875015263605
 20
156.2934688672403
 30
0.0
 10
96.65869660728663
 20
156.2258978360401
 30
0.0
 10
96.56307467861826
 20
156.1936001213747
 30
0.0
 10
96.46780560795865
 20
156.1602432899617
 30
0.0
 10
96.373108884195
 20
156.1253249006737
 30
0.0
 10
96.29349059505665
 20
156.0959665205306
 30
0.0
 10
96.21427689588248
 20
156.0655042807359
 30
0.0
 10
96.1357514374751
 20
156.0333324004782
 30
0.0
 10
96.07289454212456
 20
156.0075799304935
 30
0.0
 10
96.01047863326535
 20
155.9807320177733
 30
0.0
 10
95.94904973380049
 20
155.9517387729112
 30
0.0
 10
95.92580191798515
 20
155.9407662563541
 30
0.0
 10
95.90269546659381
 20
155.9294864745933
 30
0.0
 10
95.87985114674653
 20
155.9176968314379
 30
0.0
 10
95.8579303755659
 20
155.9063838192037
 30
0.0
 10
95.83625096948835
 20
155.894601337535
 30
0.0
 10
95.81501300124243
 20
155.8820507712445
 30
0.0
 10
95.79808724195937
 20
155.8720485025993
 30
0.0
 10
95.78144185809624
 20
155.8615583916516
 30
0.0
 10
95.76548838643735
 20
155.8500626406179
 30
0.0
 10
95.7548086179902
 20
155.8423670141244
 30
0.0
 10
95.74443892275957
 20
155.8342207205458
 30
0.0
 10
95.7349173207332
 20
155.8251327485201
 30
0.0
 10
95.73065374419173
 20
155.8210633425279
 30
0.0
 10
95.72656021570235
 20
155.8168051240517
 30
0.0
 10
95.7228500605477
 20
155.8122247352712
 30
0.0
 10
95.71982405226116
 20
155.8084889630927
 30
0.0
 10
95.71705306617288
 20
155.8045388813323
 30
0.0
 10
95.71481546715322
 20
155.8002795764582
 30
0.0
 10
95.71300113404817
 20
155.796825964899
 30
0.0
 10
95.71153748175686
 20
155.7931690514238
 30
0.0
 10
95.71051546427636
 20
155.7817879596778
 30
0.0
  0
ENDBLK
  5
86
330
83
100
AcDbEntity
  8
0
100
AcDbBlockEnd
  0
BLOCK
  5
8A
330
88
100
AcDbEntity
  8
0
100
AcDbBlockBegin
  2
block 16
 70
     0
 10
0.0
 20
0.0
 30
0.0
  3
block 16
  1

  0
SPLINE
  5
8C
330
88
100
AcDbEntity
  8
0
 62
   179
420
  1842203
370
    25
100
AcDbSpline
210
0.0
220
0.0
230
1.0
 70
     8
 71
     3
 72
    29
 73
    25
 74
     0
 42
0.0000000001
 43
0.0000000001
 12
1.0
 22
0.0
 32
0.0
 13
1.0
 23
0.0
 33
0.0
 40
0.0
 40
0.0
 40
0.0
 40
0.0
 40
1.0
 40
1.0
 40
1.0
 40
2.0
 40
2.0
 40
2.0
 40
3.0
 40
3.0
 40
3.0
 40
4.0
 40
4.0
 40
4.0
 40
5.0
 40
5.0
 40
5.0
 40
6.0
 40
6.0
 40
6.0
 40
7.0
 40
7.0
 40
7.0
 40
8.0
 40
8.0
 40
8.0
 40
8.0
 10
130.767479982784
 20
184.5035584948272
 30
0.0
 10
130.7674976291483
 20
184.4702950078518
 30
0.0
 10
130.7641386164039
 20
184.4370156828111
 30
0.0
 10
130.7575577351118
 20
184.4043990692377
 30
0.0
 10
130.7510909220639
 20
184.3723478084868
 30
0.0
 10
130.741512963566
 20
184.3409364843862
 30
0.0
 10
130.7289496339345
 20
184.3107585578695
 30
0.0
 10
130.7043688745204
 20
184.2517139914193
 30
0.0
 10
130.6683598735345
 20
184.1973909704352
 30
0.0
 10
130.6235651477926
 20
184.1517393026633
 30
0.0
 10
130.577958032843
 20
184.1052597043365
 30
0.0
 10
130.5232436307477
 20
184.0677688355517
 30
0.0
 10
130.4635756121708
 20
184.0416835028333
 30
0.0
 10
130.4341132610251
 20
184.0288033159157
 30
0.0
 10
130.4034431684907
 20
184.0187039131031
 30
0.0
 10
130.3722042407623
 20
184.0110806722008
 30
0.0
 10
130.3552056474472
 20
184.0069325025531
 30
0.0
 10
130.3380386238451
 20
184.0035175165512
 30
0.0
 10
130.3207780999244
 20
184.0006406021487
 30
0.0
 10
130.3004849187025
 20
183.9972582166783
 30
0.0
 10
130.2800624949633
 20
183.9946195904724
 30
0.0
 10
130.2596278923391
 20
183.9923149740385
 30
0.0
 10
130.2322427449982
 20
183.9892666288157
 30
0.0
 10
130.204807435964
 20
183.9867087934621
 30
0.0
 10
130.1773307503085
 20
183.9846422870247
 30
0.0
  0
ENDBLK
  5
8B
330
88
100
AcDbEntity
  8
0
100
AcDbBlockEnd
  0
BLOCK
  5
8F
330
8D
100
AcDbEntity
  8
0
100
AcDbBlockBegin
  2
block 17
 70
     0
 10
0.0
 20
0.0
 30
0.0
  3
block 17
  1

  0
SPLINE
  5
91
330
8D
100
AcDbEntity
  8
0
 62
   179
420
  1842203
370
    25
100
AcDbSpline
210
0.0
220
0.0
230
1.0
 70
     8
 71
     3
 72
    38
 73
    34
 74
     0
 42
0.0000000001
 43
0.0000000001
 12
1.0
 22
0.0
 32
0.0
 13
1.0
 23
0.0
 33
0.0
 40
0.0
 40
0.0
 40
0.0
 40
0.0
 40
1.0
 40
1.0
 40
1.0
 40
2.0
 40
2.0
 40
2.0
 40
3.0
 40
3.0
 40
3.0
 40
4.0
 40
4.0
 40
4.0
 40
5.0
 40
5.0
 40
5.0
 40
6.0
 40
6.0
 40
6.0
 40
7.0
 40
7.0
 40
7.0
 40
8.0
 40
8.0
 40
8.0
 40
9.0
 40
9.0
 40
9.0
 40
10.0
 40
10.0
 40
10.0
 40
11.0
 40
11.0
 40
11.0
 40
11.0
 10
130.1086980336181
 20
183.979927875564
 30
0.0
 10
130.038360336356
 20
183.9754806044054
 30
0.0
 10
129.9680188946304
 20
183.9710988726714
 30
0.0
 10
129.8976746387735
 20
183.9667609534096
 30
0.0
 10
129.69184526135
 20
183.954068073086
 30
0.0
 10
129.4859917903221
 20
183.9417502997828
 30
0.0
 10
129.2801770132572
 20
183.9288214783635
 30
0.0
 10
129.1536550866465
 20
183.9208736554804
 30
0.0
 10
129.0271477825376
 20
183.9126949166654
 30
0.0
 10
128.9006716786003
 20
183.9040437985166
 30
0.0
 10
128.6587659486975
 20
183.8874971546443
 30
0.0
 10
128.4169743573396
 20
183.8692224212271
 30
0.0
 10
128.1754687695731
 20
183.8475702146844
 30
0.0
 10
127.9847314963415
 20
183.8306261741895
 30
0.0
 10
127.7941768492453
 20
183.8114011154916
 30
0.0
 10
127.6039501659429
 20
183.78940428999
 30
0.0
 10
127.437491221333
 20
183.7701558423267
 30
0.0
 10
127.2712834059752
 20
183.7487849904905
 30
0.0
 10
127.1054418292594
 20
183.7247749534246
 30
0.0
 10
126.7836413684429
 20
183.6781856653507
 30
0.0
 10
126.4632198644006
 20
183.62165935281
 30
0.0
 10
126.1456969211758
 20
183.551638647875
 30
0.0
 10
125.8566279000048
 20
183.4878926507137
 30
0.0
 10
125.5699612233994
 20
183.4129624203181
 30
0.0
 10
125.2875379373491
 20
183.324301388208
 30
0.0
 10
125.020766131264
 20
183.2405538191024
 30
0.0
 10
124.7577804232549
 20
183.1445551594416
 30
0.0
 10
124.5005744321036
 20
183.0348805518039
 30
0.0
 10
123.9344068107946
 20
182.7018880394617
 30
0.0
 10
123.3682391894863
 20
182.3688955271203
 30
0.0
 10
122.8020715681779
 20
182.0359030147788
 30
0.0
 10
122.4555752476946
 20
181.7027581391468
 30
0.0
 10
122.1090789272118
 20
181.3696132635141
 30
0.0
 10
121.7625826067291
 20
181.0364683878821
 30
0.0
  0
ENDBLK
  5
90
330
8D
100
AcDbEntity
  8
0
100
AcDbBlockEnd
  0
BLOCK
  5
94
330
92
100
AcDbEntity
  8
0
100
AcDbBlockBegin
  2
block 18
 70
     0
 10
0.0
 20
0.0
 30
0.0
  3
block 18
  1

  0
SPLINE
  5
96
330
92
100
AcDbEntity
  8
0
 62
   179
420
  1842203
370
    25
100
AcDbSpline
210
0.0
220
0.0
230
1.0
 70
     8
 71
     3
 72
    38
 73
    34
 74
     0
 42
0.0000000001
 43
0.0000000001
 12
1.0
 22
0.0
 32
0.0
 13
1.0
 23
0.0
 33
0.0
 40
0.0
 40
0.0
 40
0.0
 40
0.0
 40
1.0
 40
1.0
 40
1.0
 40
2.0
 40
2.0
 40
2.0
 40
3.0
 40
3.0
 40
3.0
 40
4.0
 40
4.0
 40
4.0
 40
5.0
 40
5.0
 40
5.0
 40
6.0
 40
6.0
 40
6.0
 40
7.0
 40
7.0
 40
7.0
 40
8.0
 40
8.0
 40
8.0
 40
9.0
 40
9.0
 40
9.0
 40
10.0
 40
10.0
 40
10.0
 40
11.0
 40
11.0
 40
11.0
 40
11.0
 10
89.46900944849388
 20
181.370445984121
 30
0.0
 10
89.23911273353741
 20
181.6089998454426
 30
0.0
 10
88.99334528414194
 20
181.8311682615516
 30
0.0
 10
88.73287225861809
 20
182.0358979547393
 30
0.0
 10
88.47339945918958
 20
182.2395446639626
 30
0.0
 10
88.19905972314537
 20
182.4251752836131
 30
0.0
 10
87.91481258475123
 20
182.5917550874045
 30
0.0
 10
87.63150270337658
 20
182.757785622375
 30
0.0
 10
87.33526848308595
 20
182.9065037642345
 30
0.0
 10
87.03436298919448
 20
183.0348805450211
 30
0.0
 10
86.8572475789176
 20
183.1104007871476
 30
0.0
 10
86.67740854036057
 20
183.1794455235072
 30
0.0
 10
86.49547437846859
 20
183.2424476822412
 30
0.0
 10
86.32285036894793
 20
183.3022258192109
 30
0.0
 10
86.14834017791142
 20
183.3565639908903
 30
0.0
 10
85.97247216145618
 20
183.4059805333979
 30
0.0
 10
85.77859341409386
 20
183.4604578485655
 30
0.0
 10
85.58306448941194
 20
183.5089538639836
 30
0.0
 10
85.38638106055141
 20
183.5522580444564
 30
0.0
 10
85.1824598671597
 20
183.5971557778958
 30
0.0
 10
84.97729763686598
 20
183.6364725365088
 30
0.0
 10
84.77140241261074
 20
183.671178175637
 30
0.0
 10
84.32786882778586
 20
183.7459400677196
 30
0.0
 10
83.88093381817681
 20
183.7993042718029
 30
0.0
 10
83.43303544519651
 20
183.8406099480182
 30
0.0
 10
83.1814866578612
 20
183.8638080514025
 30
0.0
 10
82.92963400906868
 20
183.8832026866905
 30
0.0
 10
82.67762054767148
 20
183.9006276132011
 30
0.0
 10
82.55059190185621
 20
183.90941073457
 30
0.0
 10
82.4235223981506
 20
183.9176934091841
 30
0.0
 10
82.29644335243223
 20
183.9257374460385
 30
0.0
 10
82.00762011216358
 20
183.9440198054638
 30
0.0
 10
81.71874758217545
 20
183.9610694701465
 30
0.0
 10
81.42992799721574
 20
183.9794761384692
 30
0.0
  0
ENDBLK
  5
95
330
92
100
AcDbEntity
  8
0
100
AcDbBlockEnd
  0
BLOCK
  5
99
330
97
100
AcDbEntity
  8
0
100
AcDbBlockBegin
  2
block 19
 70
     0
 10
0.0
 20
0.0
 30
0.0
  3
block 19
  1

  0
SPLINE
  5
9B
330
97
100
AcDbEntity
  8
0
 62
   179
420
  1842203
370
    25
100
AcDbSpline
210
0.0
220
0.0
230
1.0
 70
     8
 71
     3
 72
    38
 73
    34
 74
     0
 42
0.0000000001
 43
0.0000000001
 12
1.0
 22
0.0
 32
0.0
 13
1.0
 23
0.0
 33
0.0
 40
0.0
 40
0.0
 40
0.0
 40
0.0
 40
1.0
 40
1.0
 40
1.0
 40
2.0
 40
2.0
 40
2.0
 40
3.0
 40
3.0
 40
3.0
 40
4.0
 40
4.0
 40
4.0
 40
5.0
 40
5.0
 40
5.0
 40
6.0
 40
6.0
 40
6.0
 40
7.0
 40
7.0
 40
7.0
 40
8.0
 40
8.0
 40
8.0
 40
9.0
 40
9.0
 40
9.0
 40
10.0
 40
10.0
 40
10.0
 40
11.0
 40
11.0
 40
11.0
 40
11.0
 10
81.34654706736625
 20
183.985400686663
 30
0.0
 10
81.33354300273616
 20
183.9864572943687
 30
0.0
 10
81.32054535054395
 20
183.9876133119374
 30
0.0
 10
81.30755851112941
 20
183.9888712935769
 30
0.0
 10
81.29559166726878
 20
183.9900304724502
 30
0.0
 10
81.28363400439909
 20
183.9912762277127
 30
0.0
 10
81.271689960876
 20
183.9926513858825
 30
0.0
 10
81.25298723696002
 20
183.9948046938094
 30
0.0
 10
81.23431790664237
 20
183.9972752878046
 30
0.0
 10
81.21574430395431
 20
184.0003481834193
 30
0.0
 10
81.19926687698282
 20
184.0030742788308
 30
0.0
 10
81.1828647896958
 20
184.0062743984482
 30
0.0
 10
81.16661481462559
 20
184.0101308408435
 30
0.0
 10
81.15171272415954
 20
184.0136674034052
 30
0.0
 10
81.13693855800574
 20
184.0177559245245
 30
0.0
 10
81.12236028838136
 20
184.0224492321132
 30
0.0
 10
81.10908730100745
 20
184.0266599344307
 30
0.0
 10
81.09599350372996
 20
184.0314281592393
 30
0.0
 10
81.08311022130695
 20
184.0367091455728
 30
0.0
 10
81.07087838525992
 20
184.0417230975201
 30
0.0
 10
81.05883631284874
 20
184.0471992662166
 30
0.0
 10
81.04701701705184
 20
184.0531219680645
 30
0.0
 10
81.02262658653278
 20
184.0653441216
 30
0.0
 10
80.99918484821022
 20
184.0794678325238
 30
0.0
 10
80.97704200452665
 20
184.0953998829186
 30
0.0
 10
80.93412276663024
 20
184.1262808063852
 30
0.0
 10
80.89608343117537
 20
184.1639555989873
 30
0.0
 10
80.86480725626424
 20
184.2065904360041
 30
0.0
 10
80.8339515972299
 20
184.2486520371338
 30
0.0
 10
80.80967845662812
 20
184.2955412012898
 30
0.0
 10
80.79319632957244
 20
184.3450349654445
 30
0.0
 10
80.7762105399622
 20
184.3960411651979
 30
0.0
 10
80.76749919633406
 20
184.449813580396
 30
0.0
 10
80.76749036980868
 20
184.5035633397827
 30
0.0
  0
ENDBLK
  5
9A
330
97
100
AcDbEntity
  8
0
100
AcDbBlockEnd
  0
BLOCK
  5
9E
330
9C
100
AcDbEntity
  8
0
100
AcDbBlockBegin
  2
block 20
 70
     0
 10
0.0
 20
0.0
 30
0.0
  3
block 20
  1

  0
SPLINE
  5
A0
330
9C
100
AcDbEntity
  8
0
 62
   179
420
  1842203
370
    25
100
AcDbSpline
210
0.0
220
0.0
230
1.0
 70
     8
 71
     3
 72
    20
 73
    16
 74
     0
 42
0.0000000001
 43
0.0000000001
 12
1.0
 22
0.0
 32
0.0
 13
1.0
 23
0.0
 33
0.0
 40
0.0
 40
0.0
 40
0.0
 40
0.0
 40
1.0
 40
1.0
 40
1.0
 40
2.0
 40
2.0
 40
2.0
 40
3.0
 40
3.0
 40
3.0
 40
4.0
 40
4.0
 40
4.0
 40
5.0
 40
5.0
 40
5.0
 40
5.0
 10
98.26746870322786
 20
104.501202816726
 30
0.0
 10
98.26746870272798
 20
106.1648038158313
 30
0.0
 10
98.55850886915492
 20
114.4728619253125
 30
0.0
 10
98.60143573237448
 20
115.7094557571791
 30
0.0
 10
98.64436259559406
 20
116.9460495890456
 30
0.0
 10
99.32742312214792
 20
118.0540662009367
 30
0.0
 10
99.79573750756605
 20
118.7567726403946
 30
0.0
 10
100.3149277457262
 20
119.5358183733864
 30
0.0
 10
102.1977971145367
 20
121.1117330393847
 30
0.0
 10
105.117948009285
 20
121.1117330393847
 30
0.0
 10
109.4039759354476
 20
121.1117330393847
 30
0.0
 10
112.192721848526
 20
118.9444570002966
 30
0.0
 10
112.51746998325
 20
117.1785929370623
 30
0.0
 10
112.842218117974
 20
115.412728873828
 30
0.0
 10
113.3148565736339
 20
106.2475425333348
 30
0.0
 10
113.279908387058
 20
104.9014974767221
 30
0.0
  0
ENDBLK
  5
9F
330
9C
100
AcDbEntity
  8
0
100
AcDbBlockEnd
  0
BLOCK
  5
A3
330
A1
100
AcDbEntity
  8
0
100
AcDbBlockBegin
  2
block 21
 70
     0
 10
0.0
 20
0.0
 30
0.0
  3
block 21
  1

  0
POLYLINE
  5
A5
330
A1
100
AcDbEntity
  8
0
 62
   179
420
  1842203
370
    25
100
AcDb2dPolyline
 66
     1
 10
0.0
 20
0.0
 30
0.0
  0
VERTEX
  5
A6
330
A5
100
AcDbEntity
  8
0
 62
   179
420
  1842203
370
    25
100
AcDbVertex
100
AcDb2dVertex
 10
65.12777899004512
 20
114.8649349065401
 30
0.0
  0
VERTEX
  5
A7
330
A5
100
AcDbEntity
  8
0
 62
   179
420
  1842203
370
    25
100
AcDbVertex
100
AcDb2dVertex
 10
65.19138370449932
 20
140.1594633662991
 30
0.0
  0
SEQEND
  5
A8
330
A5
100
AcDbEntity
  8
0
 62
   179
420
  1842203
370
    25
  0
ENDBLK
  5
A4
330
A1
100
AcDbEntity
  8
0
100
AcDbBlockEnd
  0
BLOCK
  5
AB
330
A9
100
AcDbEntity
  8
0
100
AcDbBlockBegin
  2
block 22
 70
     0
 10
0.0
 20
0.0
 30
0.0
  3
block 22
  1

  0
POLYLINE
  5
AD
330
A9
100
AcDbEntity
  8
0
 62
   179
420
  1842203
370
    25
100
AcDb2dPolyline
 66
     1
 10
0.0
 20
0.0
 30
0.0
  0
VERTEX
  5
AE
330
AD
100
AcDbEntity
  8
0
 62
   179
420
  1842203
370
    25
100
AcDbVertex
100
AcDb2dVertex
 10
145.1277789700452
 20
114.8527526263181
 30
0.0
  0
VERTEX
  5
AF
330
AD
100
AcDbEntity
  8
0
 62
   179
420
  1842203
370
    25
100
AcDbVertex
100
AcDb2dVertex
 10
145.1086419789333
 20
139.0946607200414
 30
0.0
  0
SEQEND
  5
B0
330
AD
100
AcDbEntity
  8
0
 62
   179
420
  1842203
370
    25
  0
ENDBLK
  5
AC
330
A9
100
AcDbEntity
  8
0
100
AcDbBlockEnd
  0
BLOCK
  5
B3
330
B1
100
AcDbEntity
  8
0
100
AcDbBlockBegin
  2
block 23
 70
     0
 10
0.0
 20
0.0
 30
0.0
  3
block 23
  1

  0
SPLINE
  5
B5
330
B1
100
AcDbEntity
  8
0
 62
   179
420
  1842203
370
    25
100
AcDbSpline
210
0.0
220
0.0
230
1.0
 70
     8
 71
     3
 72
    11
 73
     7
 74
     0
 42
0.0000000001
 43
0.0000000001
 12
1.0
 22
0.0
 32
0.0
 13
1.0
 23
0.0
 33
0.0
 40
0.0
 40
0.0
 40
0.0
 40
0.0
 40
1.0
 40
1.0
 40
1.0
 40
2.0
 40
2.0
 40
2.0
 40
2.0
 10
92.31245296684162
 20
175.7906181118044
 30
0.0
 10
76.50656320225428
 20
170.4483943953219
 30
0.0
 10
65.12777653294646
 20
155.4968357575933
 30
0.0
 10
65.12777653294646
 20
137.8876148674813
 30
0.0
 10
65.12777653294646
 20
137.1574914749223
 30
0.0
 10
65.14734359871034
 20
136.4319220679591
 30
0.0
 10
65.18597173183902
 20
135.7114234109127
 30
0.0
  0
ENDBLK
  5
B4
330
B1
100
AcDbEntity
  8
0
100
AcDbBlockEnd
  0
BLOCK
  5
B8
330
B6
100
AcDbEntity
  8
0
100
AcDbBlockBegin
  2
block 24
 70
     0
 10
0.0
 20
0.0
 30
0.0
  3
block 24
  1

  0
SPLINE
  5
BA
330
B6
100
AcDbEntity
  8
0
  6
AI-Linetype-1
 62
     6
420
 16711935
370
    25
100
AcDbSpline
210
0.0
220
0.0
230
1.0
 70
     8
 71
     3
 72
    11
 73
     7
 74
     0
 42
0.0000000001
 43
0.0000000001
 12
1.0
 22
0.0
 32
0.0
 13
1.0
 23
0.0
 33
0.0
 40
0.0
 40
0.0
 40
0.0
 40
0.0
 40
1.0
 40
1.0
 40
1.0
 40
2.0
 40
2.0
 40
2.0
 40
2.0
 10
119.0075233324107
 20
175.4139014242846
 30
0.0
 10
114.683685517691
 20
177.0137268564969
 30
0.0
 10
110.007783777511
 20
177.8876173158414
 30
0.0
 10
105.1277735983452
 20
177.8876173158414
 30
0.0
 10
100.6867477034698
 20
177.8876173158414
 30
0.0
 10
96.41476000995651
 20
177.1638773152252
 30
0.0
 10
92.42332213732178
 20
175.8279087585825
 30
0.0
  0
ENDBLK
  5
B9
330
B6
100
AcDbEntity
  8
0
100
AcDbBlockEnd
  0
BLOCK
  5
BE
330
BC
100
AcDbEntity
  8
0
100
AcDbBlockBegin
  2
block 25
 70
     0
 10
0.0
 20
0.0
 30
0.0
  3
block 25
  1

  0
SPLINE
  5
C0
330
BC
100
AcDbEntity
  8
0
 62
   179
420
  1842203
370
    25
100
AcDbSpline
210
0.0
220
0.0
230
1.0
 70
     8
 71
     3
 72
     8
 73
     4
 74
     0
 42
0.0000000001
 43
0.0000000001
 12
1.0
 22
0.0
 32
0.0
 13
1.0
 23
0.0
 33
0.0
 40
0.0
 40
0.0
 40
0.0
 40
0.0
 40
1.0
 40
1.0
 40
1.0
 40
1.0
 10
145.1277760467057
 20
137.8876148674813
 30
0.0
 10
145.1277760467057
 20
155.0525001610256
 30
0.0
 10
134.3159922310265
 20
169.6921532659529
 30
0.0
 10
119.1310270010559
 20
175.3679717808778
 30
0.0
  0
ENDBLK
  5
BF
330
BC
100
AcDbEntity
  8
0
100
AcDbBlockEnd
  0
BLOCK
  5
C3
330
C1
100
AcDbEntity
  8
0
100
AcDbBlockBegin
  2
block 26
 70
     0
 10
0.0
 20
0.0
 30
0.0
  3
block 26
  1

  0
SPLINE
  5
C5
330
C1
100
AcDbEntity
  8
0
 62
   179
420
  1842203
370
    25
100
AcDbSpline
210
0.0
220
0.0
230
1.0
 70
    11
 71
     3
 72
    17
 73
    13
 74
     0
 42
0.0000000001
 43
0.0000000001
 12
1.0
 22
0.0
 32
0.0
 13
1.0
 23
0.0
 33
0.0
 40
0.0
 40
0.0
 40
0.0
 40
0.0
 40
1.0
 40
1.0
 40
1.0
 40
2.0
 40
2.0
 40
2.0
 40
3.0
 40
3.0
 40
3.0
 40
4.0
 40
4.0
 40
4.0
 40
4.0
 10
65.12777899004512
 20
114.5306448174426
 30
0.0
 10
65.12777899004512
 20
92.43925483096598
 30
0.0
 10
83.03638899356774
 20
74.53064482744271
 30
0.0
 10
105.1277789800447
 20
74.53064482744271
 30
0.0
 10
127.219168966522
 20
74.53064482744271
 30
0.0
 10
145.1277789700452
 20
92.43925483096598
 30
0.0
 10
145.1277789700452
 20
114.5306448174426
 30
0.0
 10
145.1277789700452
 20
136.6220348039199
 30
0.0
 10
127.219168966522
 20
154.5306448074425
 30
0.0
 10
105.1277789800447
 20
154.5306448074425
 30
0.0
 10
83.03638899356774
 20
154.5306448074425
 30
0.0
 10
65.12777899004512
 20
136.6220348039199
 30
0.0
 10
65.12777899004512
 20
114.5306448174426
 30
0.0
  0
ENDBLK
  5
C4
330
C1
100
AcDbEntity
  8
0
100
AcDbBlockEnd
  0
BLOCK
  5
C8
330
C6
100
AcDbEntity
  8
0
100
AcDbBlockBegin
  2
block 27
 70
     0
 10
0.0
 20
0.0
 30
0.0
  3
block 27
  1

  0
SPLINE
  5
CA
330
C6
100
AcDbEntity
  8
0
 62
   179
420
  1842203
370
    25
100
AcDbSpline
210
0.0
220
0.0
230
1.0
 70
    11
 71
     3
 72
    17
 73
    13
 74
     0
 42
0.0000000001
 43
0.0000000001
 12
1.0
 22
0.0
 32
0.0
 13
1.0
 23
0.0
 33
0.0
 40
0.0
 40
0.0
 40
0.0
 40
0.0
 40
1.0
 40
1.0
 40
1.0
 40
2.0
 40
2.0
 40
2.0
 40
3.0
 40
3.0
 40
3.0
 40
4.0
 40
4.0
 40
4.0
 40
4.0
 10
113.279908387058
 20
104.1317593812613
 30
0.0
 10
113.279908387058
 20
99.98962375879746
 30
0.0
 10
109.9220440113976
 20
96.63175938313641
 30
0.0
 10
105.7799083889331
 20
96.63175938313641
 30
0.0
 10
101.637772766469
 20
96.63175938313641
 30
0.0
 10
98.27990839080886
 20
99.98962375879746
 30
0.0
 10
98.27990839080886
 20
104.1317593812613
 30
0.0
 10
98.27990839080886
 20
108.2738950037252
 30
0.0
 10
101.637772766469
 20
111.6317593793862
 30
0.0
 10
105.7799083889331
 20
111.6317593793862
 30
0.0
 10
109.9220440113976
 20
111.6317593793862
 30
0.0
 10
113.279908387058
 20
108.2738950037252
 30
0.0
 10
113.279908387058
 20
104.1317593812613
 30
0.0
  0
ENDBLK
  5
C9
330
C6
100
AcDbEntity
  8
0
100
AcDbBlockEnd
  0
BLOCK
  5
CD
330
CB
100
AcDbEntity
  8
0
100
AcDbBlockBegin
  2
block 28
 70
     0
 10
0.0
 20
0.0
 30
0.0
  3
block 28
  1

  0
POLYLINE
  5
CF
330
CB
100
AcDbEntity
  8
0
  6
AI-Linetype-2
 62
     4
420
    65535
370
    25
100
AcDb2dPolyline
 66
     1
 10
0.0
 20
0.0
 30
0.0
  0
VERTEX
  5
D0
330
CF
100
AcDbEntity
  8
0
  6
AI-Linetype-2
 62
     4
420
    65535
370
    25
100
AcDbVertex
100
AcDb2dVertex
 10
105.7746047237518
 20
142.5081522762596
 30
0.0
  0
VERTEX
  5
D1
330
CF
100
AcDbEntity
  8
0
  6
AI-Linetype-2
 62
     4
420
    65535
370
    25
100
AcDbVertex
100
AcDb2dVertex
 10
105.7746047237518
 20
222.5082439871865
 30
0.0
  0
SEQEND
  5
D3
330
CF
100
AcDbEntity
  8
0
  6
AI-Linetype-2
 62
     4
420
    65535
370
    25
  0
ENDBLK
  5
CE
330
CB
100
AcDbEntity
  8
0
100
AcDbBlockEnd
  0
ENDSEC
  0
SECTION
  2
ENTITIES
  0
INSERT
  5
41
330
1F
100
AcDbEntity
  8
0
100
AcDbBlockReference
  2
block 2
 10
0.0
 20
0.0
 30
0.0
  0
INSERT
  5
46
330
1F
100
AcDbEntity
  8
0
100
AcDbBlockReference
  2
block 3
 10
0.0
 20
0.0
 30
0.0
  0
INSERT
  5
4B
330
1F
100
AcDbEntity
  8
0
100
AcDbBlockReference
  2
block 4
 10
0.0
 20
0.0
 30
0.0
  0
INSERT
  5
50
330
1F
100
AcDbEntity
  8
0
100
AcDbBlockReference
  2
block 5
 10
0.0
 20
0.0
 30
0.0
  0
INSERT
  5
57
330
1F
100
AcDbEntity
  8
0
100
AcDbBlockReference
  2
block 6
 10
0.0
 20
0.0
 30
0.0
  0
INSERT
  5
5C
330
1F
100
AcDbEntity
  8
0
100
AcDbBlockReference
  2
block 7
 10
0.0
 20
0.0
 30
0.0
  0
INSERT
  5
61
330
1F
100
AcDbEntity
  8
0
100
AcDbBlockReference
  2
block 8
 10
0.0
 20
0.0
 30
0.0
  0
INSERT
  5
66
330
1F
100
AcDbEntity
  8
0
100
AcDbBlockReference
  2
block 9
 10
0.0
 20
0.0
 30
0.0
  0
INSERT
  5
6B
330
1F
100
AcDbEntity
  8
0
100
AcDbBlockReference
  2
block 10
 10
0.0
 20
0.0
 30
0.0
  0
INSERT
  5
70
330
1F
100
AcDbEntity
  8
0
100
AcDbBlockReference
  2
block 11
 10
0.0
 20
0.0
 30
0.0
  0
INSERT
  5
75
330
1F
100
AcDbEntity
  8
0
100
AcDbBlockReference
  2
block 12
 10
0.0
 20
0.0
 30
0.0
  0
INSERT
  5
7A
330
1F
100
AcDbEntity
  8
0
100
AcDbBlockReference
  2
block 13
 10
0.0
 20
0.0
 30
0.0
  0
INSERT
  5
7F
330
1F
100
AcDbEntity
  8
0
100
AcDbBlockReference
  2
block 14
 10
0.0
 20
0.0
 30
0.0
  0
INSERT
  5
84
330
1F
100
AcDbEntity
  8
0
100
AcDbBlockReference
  2
block 15
 10
0.0
 20
0.0
 30
0.0
  0
INSERT
  5
89
330
1F
100
AcDbEntity
  8
0
100
AcDbBlockReference
  2
block 16
 10
0.0
 20
0.0
 30
0.0
  0
INSERT
  5
8E
330
1F
100
AcDbEntity
  8
0
100
AcDbBlockReference
  2
block 17
 10
0.0
 20
0.0
 30
0.0
  0
INSERT
  5
93
330
1F
100
AcDbEntity
  8
0
100
AcDbBlockReference
  2
block 18
 10
0.0
 20
0.0
 30
0.0
  0
INSERT
  5
98
330
1F
100
AcDbEntity
  8
0
100
AcDbBlockReference
  2
block 19
 10
0.0
 20
0.0
 30
0.0
  0
INSERT
  5
9D
330
1F
100
AcDbEntity
  8
0
100
AcDbBlockReference
  2
block 20
 10
0.0
 20
0.0
 30
0.0
  0
INSERT
  5
A2
330
1F
100
AcDbEntity
  8
0
100
AcDbBlockReference
  2
block 21
 10
0.0
 20
0.0
 30
0.0
  0
INSERT
  5
AA
330
1F
100
AcDbEntity
  8
0
100
AcDbBlockReference
  2
block 22
 10
0.0
 20
0.0
 30
0.0
  0
INSERT
  5
B2
330
1F
100
AcDbEntity
  8
0
100
AcDbBlockReference
  2
block 23
 10
0.0
 20
0.0
 30
0.0
  0
INSERT
  5
B7
330
1F
100
AcDbEntity
  8
0
100
AcDbBlockReference
  2
block 24
 10
0.0
 20
0.0
 30
0.0
  0
INSERT
  5
BD
330
1F
100
AcDbEntity
  8
0
100
AcDbBlockReference
  2
block 25
 10
0.0
 20
0.0
 30
0.0
  0
INSERT
  5
C2
330
1F
100
AcDbEntity
  8
0
100
AcDbBlockReference
  2
block 26
 10
0.0
 20
0.0
 30
0.0
  0
INSERT
  5
C7
330
1F
100
AcDbEntity
  8
0
100
AcDbBlockReference
  2
block 27
 10
0.0
 20
0.0
 30
0.0
  0
INSERT
  5
CC
330
1F
100
AcDbEntity
  8
0
100
AcDbBlockReference
  2
block 28
 10
0.0
 20
0.0
 30
0.0
  0
ENDSEC
  0
SECTION
  2
OBJECTS
  0
DICTIONARY
  5
C
330
0
100
AcDbDictionary
281
     1
  3
ACAD_GROUP
350
D
  3
ACAD_LAYOUT
350
1A
  3
ACAD_MATERIAL
350
3B
  3
ACAD_MLEADERSTYLE
350
D6
  3
ACAD_MLINESTYLE
350
17
  3
ACAD_PLOTSETTINGS
350
19
  3
ACAD_PLOTSTYLENAME
350
E
  3
ACAD_TABLESTYLE
350
D5
  3
ACAD_VISUALSTYLE
350
2A
  0
SUN
  5
3F
330
29
100
AcDbSun
 90
        1
290
     0
 63
     7
421
 16777215
 40
1.0
291
     1
 91
  2455826
 92
 54000000
292
     0
 70
     2
 71
   256
280
     1
  0
DICTIONARY
  5
D
102
{ACAD_REACTORS
330
C
102
}
330
C
100
AcDbDictionary
281
     1
  0
DICTIONARY
  5
1A
102
{ACAD_REACTORS
330
C
102
}
330
C
100
AcDbDictionary
281
     1
  3
Layout1
350
1E
  3
Layout2
350
26
  3
Model
350
22
  0
DICTIONARY
  5
3B
102
{ACAD_REACTORS
330
C
102
}
330
C
100
AcDbDictionary
281
     1
  3
ByBlock
350
3D
  3
ByLayer
350
3C
  3
Global
350
3E
  0
DICTIONARY
  5
D6
102
{ACAD_REACTORS
330
C
102
}
330
C
100
AcDbDictionary
281
     1
  0
DICTIONARY
  5
17
102
{ACAD_REACTORS
330
C
102
}
330
C
100
AcDbDictionary
281
     1
  3
Standard
350
18
  0
DICTIONARY
  5
19
102
{ACAD_REACTORS
330
C
102
}
330
C
100
AcDbDictionary
281
     1
  0
ACDBDICTIONARYWDFLT
  5
E
102
{ACAD_REACTORS
330
C
102
}
330
C
100
AcDbDictionary
281
     1
  3
Normal
350
F
100
AcDbDictionaryWithDefault
340
F
  0
DICTIONARY
  5
D5
102
{ACAD_REACTORS
330
C
102
}
330
C
100
AcDbDictionary
281
     1
  0
DICTIONARY
  5
2A
102
{ACAD_REACTORS
330
C
102
}
330
C
100
AcDbDictionary
281
     1
  3
2dWireframe
350
2F
  3
3D Hidden
350
31
  3
3dWireframe
350
30
  3
Basic
350
32
  3
Brighten
350
36
  3
ColorChange
350
3A
  3
Conceptual
350
34
  3
Dim
350
35
  3
Facepattern
350
39
  3
Flat
350
2B
  3
FlatWithEdges
350
2C
  3
Gouraud
350
2D
  3
GouraudWithEdges
350
2E
  3
Linepattern
350
38
  3
Realistic
350
33
  3
Thicken
350
37
  0
LAYOUT
  5
1E
102
{ACAD_REACTORS
330
1A
102
}
330
1A
100
AcDbPlotSettings
  1

  2
none_device
  4

  6

 40
0.0
 41
0.0
 42
0.0
 43
0.0
 44
0.0
 45
0.0
 46
0.0
 47
0.0
 48
0.0
 49
0.0
140
0.0
141
0.0
142
1.0
143
1.0
 70
   688
 72
     0
 73
     0
 74
     5
  7

 75
    16
 76
     0
 77
     2
 78
   300
147
1.0
148
0.0
149
0.0
100
AcDbLayout
  1
Layout1
 70
     1
 71
     1
 10
0.0
 20
0.0
 11
12.0
 21
9.0
 12
0.0
 22
0.0
 32
0.0
 14
1.000000000000000E+20
 24
1.000000000000000E+20
 34
1.000000000000000E+20
 15
-1.000000000000000E+20
 25
-1.000000000000000E+20
 35
-1.000000000000000E+20
146
0.0
 13
0.0
 23
0.0
 33
0.0
 16
1.0
 26
0.0
 36
0.0
 17
0.0
 27
1.0
 37
0.0
 76
     0
330
1B
  0
LAYOUT
  5
26
102
{ACAD_REACTORS
330
1A
102
}
330
1A
100
AcDbPlotSettings
  1

  2
none_device
  4

  6

 40
0.0
 41
0.0
 42
0.0
 43
0.0
 44
0.0
 45
0.0
 46
0.0
 47
0.0
 48
0.0
 49
0.0
140
0.0
141
0.0
142
1.0
143
1.0
 70
   688
 72
     0
 73
     0
 74
     5
  7

 75
    16
 76
     0
 77
     2
 78
   300
147
1.0
148
0.0
149
0.0
100
AcDbLayout
  1
Layout2
 70
     1
 71
     2
 10
0.0
 20
0.0
 11
0.0
 21
0.0
 12
0.0
 22
0.0
 32
0.0
 14
0.0
 24
0.0
 34
0.0
 15
0.0
 25
0.0
 35
0.0
146
0.0
 13
0.0
 23
0.0
 33
0.0
 16
1.0
 26
0.0
 36
0.0
 17
0.0
 27
1.0
 37
0.0
 76
     0
330
23
  0
LAYOUT
  5
22
102
{ACAD_REACTORS
330
1A
102
}
330
1A
100
AcDbPlotSettings
  1

  2
none_device
  4

  6

 40
0.0
 41
0.0
 42
0.0
 43
0.0
 44
0.0
 45
0.0
 46
0.0
 47
0.0
 48
0.0
 49
0.0
140
0.0
141
0.0
142
1.0
143
1.0
 70
  1712
 72
     0
 73
     0
 74
     0
  7

 75
     0
 76
     0
 77
     2
 78
   300
147
1.0
148
0.0
149
0.0
100
AcDbLayout
  1
Model
 70
     1
 71
     0
 10
0.0
 20
0.0
 11
12.0
 21
9.0
 12
0.0
 22
0.0
 32
0.0
 14
1.000000000000000E+20
 24
1.000000000000000E+20
 34
1.000000000000000E+20
 15
-1.000000000000000E+20
 25
-1.000000000000000E+20
 35
-1.000000000000000E+20
146
0.0
 13
0.0
 23
0.0
 33
0.0
 16
1.0
 26
0.0
 36
0.0
 17
0.0
 27
1.0
 37
0.0
 76
     0
330
1F
331
29
  0
MATERIAL
  5
3D
102
{ACAD_REACTORS
330
3B
102
}
330
3B
100
AcDbMaterial
  1
ByBlock
 72
     1
 94
      127
  0
MATERIAL
  5
3C
102
{ACAD_REACTORS
330
3B
102
}
330
3B
100
AcDbMaterial
  1
ByLayer
 72
     1
 94
      127
  0
MATERIAL
  5
3E
102
{ACAD_REACTORS
330
3B
102
}
330
3B
100
AcDbMaterial
  1
Global
 72
     1
 94
      127
  0
MLINESTYLE
  5
18
102
{ACAD_REACTORS
330
17
102
}
330
17
100
AcDbMlineStyle
  2
Standard
 70
     0
  3

 62
   256
 51
90.0
 52
90.0
 71
     2
 49
0.5
 62
   256
  6
BYLAYER
 49
-0.5
 62
   256
  6
BYLAYER
  0
ACDBPLACEHOLDER
  5
F
102
{ACAD_REACTORS
330
E
102
}
330
E
  0
VISUALSTYLE
  5
2F
102
{ACAD_REACTORS
330
2A
102
}
330
2A
100
AcDbVisualStyle
  2
2dWireframe
 70
     4
177
     2
291
     0
 71
     0
176
     1
 72
     2
176
     1
 73
     0
176
     1
 90
        0
176
     1
 40
-0.6
176
     1
 41
-30.0
176
     1
 62
     5
 63
     7
421
 16777215
176
     1
 74
     1
176
     1
 91
        4
176
     1
 64
     7
176
     1
 65
   257
176
     1
 75
     1
176
     1
175
     1
176
     1
 42
1.0
176
     1
 92
        0
176
     1
 66
   257
176
     1
 43
1.0
176
     1
 76
     1
176
     1
 77
     6
176
     1
 78
     2
176
     1
 67
     7
176
     1
 79
     5
176
     1
170
     0
176
     1
171
     0
176
     1
290
     0
176
     1
 93
        1
176
     1
 44
0.0
176
     1
173
     0
176
     1
  0
VISUALSTYLE
  5
31
102
{ACAD_REACTORS
330
2A
102
}
330
2A
100
AcDbVisualStyle
  2
3D Hidden
 70
     6
177
     2
291
     0
 71
     1
176
     1
 72
     2
176
     1
 73
     2
176
     1
 90
        0
176
     1
 40
-0.6
176
     1
 41
-30.0
176
     1
 62
     5
 63
     7
421
 16777215
176
     1
 74
     2
176
     1
 91
        2
176
     1
 64
     7
176
     1
 65
   257
176
     1
 75
     2
176
     1
175
     1
176
     1
 42
40.0
176
     1
 92
        0
176
     1
 66
   257
176
     1
 43
1.0
176
     1
 76
     1
176
     1
 77
     6
176
     1
 78
     2
176
     1
 67
     7
176
     1
 79
     3
176
     1
170
     0
176
     1
171
     0
176
     1
290
     0
176
     1
 93
        1
176
     1
 44
0.0
176
     1
173
     0
176
     1
  0
VISUALSTYLE
  5
30
102
{ACAD_REACTORS
330
2A
102
}
330
2A
100
AcDbVisualStyle
  2
3dWireframe
 70
     5
177
     2
291
     0
 71
     0
176
     1
 72
     2
176
     1
 73
     0
176
     1
 90
        0
176
     1
 40
-0.6
176
     1
 41
-30.0
176
     1
 62
     5
 63
     7
421
 16777215
176
     1
 74
     1
176
     1
 91
        4
176
     1
 64
     7
176
     1
 65
   257
176
     1
 75
     1
176
     1
175
     1
176
     1
 42
1.0
176
     1
 92
        0
176
     1
 66
   257
176
     1
 43
1.0
176
     1
 76
     1
176
     1
 77
     6
176
     1
 78
     2
176
     1
 67
     7
176
     1
 79
     5
176
     1
170
     0
176
     1
171
     0
176
     1
290
     0
176
     1
 93
        1
176
     1
 44
0.0
176
     1
173
     0
176
     1
  0
VISUALSTYLE
  5
32
102
{ACAD_REACTORS
330
2A
102
}
330
2A
100
AcDbVisualStyle
  2
Basic
 70
     7
177
     2
291
     1
 71
     1
176
     1
 72
     0
176
     1
 73
     1
176
     1
 90
        0
176
     1
 40
-0.6
176
     1
 41
-30.0
176
     1
 62
     5
 63
     7
421
 16777215
176
     1
 74
     0
176
     1
 91
        4
176
     1
 64
     7
176
     1
 65
   257
176
     1
 75
     1
176
     1
175
     1
176
     1
 42
1.0
176
     1
 92
        8
176
     1
 66
     7
176
     1
 43
1.0
176
     1
 76
     1
176
     1
 77
     6
176
     1
 78
     2
176
     1
 67
     7
176
     1
 79
     5
176
     1
170
     0
176
     1
171
     0
176
     1
290
     0
176
     1
 93
        1
176
     1
 44
0.0
176
     1
173
     0
176
     1
  0
VISUALSTYLE
  5
36
102
{ACAD_REACTORS
330
2A
102
}
330
2A
100
AcDbVisualStyle
  2
Brighten
 70
    12
177
     2
291
     1
 71
     2
176
     1
 72
     2
176
     1
 73
     0
176
     1
 90
        0
176
     1
 40
-0.6
176
     1
 41
-30.0
176
     1
 62
     5
 63
     7
421
 16777215
176
     1
 74
     1
176
     1
 91
        4
176
     1
 64
     7
176
     1
 65
   257
176
     1
 75
     1
176
     1
175
     1
176
     1
 42
1.0
176
     1
 92
        8
176
     1
 66
     7
176
     1
 43
1.0
176
     1
 76
     1
176
     1
 77
     6
176
     1
 78
     2
176
     1
 67
     7
176
     1
 79
     5
176
     1
170
     0
176
     1
171
     0
176
     1
290
     0
176
     1
 93
        1
176
     1
 44
50.0
176
     1
173
     0
176
     1
  0
VISUALSTYLE
  5
3A
102
{ACAD_REACTORS
330
2A
102
}
330
2A
100
AcDbVisualStyle
  2
ColorChange
 70
    16
177
     2
291
     1
 71
     2
176
     1
 72
     2
176
     1
 73
     3
176
     1
 90
        0
176
     1
 40
-0.6
176
     1
 41
-30.0
176
     1
 62
     5
 63
     8
421
  8421504
176
     1
 74
     1
176
     1
 91
        4
176
     1
 64
     7
176
     1
 65
   257
176
     1
 75
     1
176
     1
175
     1
176
     1
 42
1.0
176
     1
 92
        8
176
     1
 66
     8
424
  8421504
176
     1
 43
1.0
176
     1
 76
     1
176
     1
 77
     6
176
     1
 78
     2
176
     1
 67
     7
176
     1
 79
     5
176
     1
170
     0
176
     1
171
     0
176
     1
290
     0
176
     1
 93
        1
176
     1
 44
0.0
176
     1
173
     0
176
     1
  0
VISUALSTYLE
  5
34
102
{ACAD_REACTORS
330
2A
102
}
330
2A
100
AcDbVisualStyle
  2
Conceptual
 70
     9
177
     2
291
     0
 71
     3
176
     1
 72
     2
176
     1
 73
     0
176
     1
 90
        0
176
     1
 40
-0.6
176
     1
 41
-30.0
176
     1
 62
     5
 63
     7
421
 16777215
176
     1
 74
     2
176
     1
 91
        2
176
     1
 64
     7
176
     1
 65
   257
176
     1
 75
     1
176
     1
175
     1
176
     1
 42
40.0
176
     1
 92
        8
176
     1
 66
     7
176
     1
 43
1.0
176
     1
 76
     1
176
     1
 77
     6
176
     1
 78
     2
176
     1
 67
     7
176
     1
 79
     3
176
     1
170
     0
176
     1
171
     0
176
     1
290
     0
176
     1
 93
        1
176
     1
 44
0.0
176
     1
173
     0
176
     1
  0
VISUALSTYLE
  5
35
102
{ACAD_REACTORS
330
2A
102
}
330
2A
100
AcDbVisualStyle
  2
Dim
 70
    11
177
     2
291
     1
 71
     2
176
     1
 72
     2
176
     1
 73
     0
176
     1
 90
        0
176
     1
 40
-0.6
176
     1
 41
-30.0
176
     1
 62
     5
 63
     7
421
 16777215
176
     1
 74
     1
176
     1
 91
        4
176
     1
 64
     7
176
     1
 65
   257
176
     1
 75
     1
176
     1
175
     1
176
     1
 42
1.0
176
     1
 92
        8
176
     1
 66
     7
176
     1
 43
1.0
176
     1
 76
     1
176
     1
 77
     6
176
     1
 78
     2
176
     1
 67
     7
176
     1
 79
     5
176
     1
170
     0
176
     1
171
     0
176
     1
290
     0
176
     1
 93
        1
176
     1
 44
-50.0
176
     1
173
     0
176
     1
  0
VISUALSTYLE
  5
39
102
{ACAD_REACTORS
330
2A
102
}
330
2A
100
AcDbVisualStyle
  2
Facepattern
 70
    15
177
     2
291
     1
 71
     2
176
     1
 72
     2
176
     1
 73
     0
176
     1
 90
        0
176
     1
 40
-0.6
176
     1
 41
-30.0
176
     1
 62
     5
 63
     7
421
 16777215
176
     1
 74
     1
176
     1
 91
        4
176
     1
 64
     7
176
     1
 65
   257
176
     1
 75
     1
176
     1
175
     1
176
     1
 42
1.0
176
     1
 92
        8
176
     1
 66
     7
176
     1
 43
1.0
176
     1
 76
     1
176
     1
 77
     6
176
     1
 78
     2
176
     1
 67
     7
176
     1
 79
     5
176
     1
170
     0
176
     1
171
     0
176
     1
290
     0
176
     1
 93
        1
176
     1
 44
0.0
176
     1
173
     0
176
     1
  0
VISUALSTYLE
  5
2B
102
{ACAD_REACTORS
330
2A
102
}
330
2A
100
AcDbVisualStyle
  2
Flat
 70
     0
177
     2
291
     1
 71
     2
176
     1
 72
     1
176
     1
 73
     1
176
     1
 90
        2
176
     1
 40
-0.6
176
     1
 41
30.0
176
     1
 62
     5
 63
     7
421
 16777215
176
     1
 74
     0
176
     1
 91
        4
176
     1
 64
     7
176
     1
 65
   257
176
     1
 75
     1
176
     1
175
     1
176
     1
 42
1.0
176
     1
 92
        8
176
     1
 66
     7
176
     1
 43
1.0
176
     1
 76
     1
176
     1
 77
     6
176
     1
 78
     2
176
     1
 67
     7
176
     1
 79
     5
176
     1
170
     0
176
     1
171
     0
176
     1
290
     0
176
     1
 93
       13
176
     1
 44
0.0
176
     1
173
     0
176
     1
  0
VISUALSTYLE
  5
2C
102
{ACAD_REACTORS
330
2A
102
}
330
2A
100
AcDbVisualStyle
  2
FlatWithEdges
 70
     1
177
     2
291
     1
 71
     2
176
     1
 72
     1
176
     1
 73
     1
176
     1
 90
        2
176
     1
 40
-0.6
176
     1
 41
30.0
176
     1
 62
     5
 63
     7
421
 16777215
176
     1
 74
     1
176
     1
 91
        4
176
     1
 64
     7
176
     1
 65
   257
176
     1
 75
     1
176
     1
175
     1
176
     1
 42
1.0
176
     1
 92
        0
176
     1
 66
   257
176
     1
 43
1.0
176
     1
 76
     1
176
     1
 77
     6
176
     1
 78
     2
176
     1
 67
     7
176
     1
 79
     5
176
     1
170
     0
176
     1
171
     0
176
     1
290
     0
176
     1
 93
       13
176
     1
 44
0.0
176
     1
173
     0
176
     1
  0
VISUALSTYLE
  5
2D
102
{ACAD_REACTORS
330
2A
102
}
330
2A
100
AcDbVisualStyle
  2
Gouraud
 70
     2
177
     2
291
     1
 71
     2
176
     1
 72
     2
176
     1
 73
     1
176
     1
 90
        2
176
     1
 40
-0.6
176
     1
 41
30.0
176
     1
 62
     5
 63
     7
421
 16777215
176
     1
 74
     0
176
     1
 91
        4
176
     1
 64
     7
176
     1
 65
   257
176
     1
 75
     1
176
     1
175
     1
176
     1
 42
1.0
176
     1
 92
        0
176
     1
 66
     7
176
     1
 43
1.0
176
     1
 76
     1
176
     1
 77
     6
176
     1
 78
     2
176
     1
 67
     7
176
     1
 79
     5
176
     1
170
     0
176
     1
171
     0
176
     1
290
     0
176
     1
 93
       13
176
     1
 44
0.0
176
     1
173
     0
176
     1
  0
VISUALSTYLE
  5
2E
102
{ACAD_REACTORS
330
2A
102
}
330
2A
100
AcDbVisualStyle
  2
GouraudWithEdges
 70
     3
177
     2
291
     1
 71
     2
176
     1
 72
     2
176
     1
 73
     1
176
     1
 90
        2
176
     1
 40
-0.6
176
     1
 41
30.0
176
     1
 62
     5
 63
     7
421
 16777215
176
     1
 74
     1
176
     1
 91
        4
176
     1
 64
     7
176
     1
 65
   257
176
     1
 75
     1
176
     1
175
     1
176
     1
 42
1.0
176
     1
 92
        0
176
     1
 66
   257
176
     1
 43
1.0
176
     1
 76
     1
176
     1
 77
     6
176
     1
 78
     2
176
     1
 67
     7
176
     1
 79
     5
176
     1
170
     0
176
     1
171
     0
176
     1
290
     0
176
     1
 93
       13
176
     1
 44
0.0
176
     1
173
     0
176
     1
  0
VISUALSTYLE
  5
38
102
{ACAD_REACTORS
330
2A
102
}
330
2A
100
AcDbVisualStyle
  2
Linepattern
 70
    14
177
     2
291
     1
 71
     2
176
     1
 72
     2
176
     1
 73
     0
176
     1
 90
        0
176
     1
 40
-0.6
176
     1
 41
-30.0
176
     1
 62
     5
 63
     7
421
 16777215
176
     1
 74
     1
176
     1
 91
        4
176
     1
 64
     7
176
     1
 65
   257
176
     1
 75
     7
176
     1
175
     7
176
     1
 42
1.0
176
     1
 92
        8
176
     1
 66
     7
176
     1
 43
1.0
176
     1
 76
     1
176
     1
 77
     6
176
     1
 78
     2
176
     1
 67
     7
176
     1
 79
     5
176
     1
170
     0
176
     1
171
     0
176
     1
290
     0
176
     1
 93
        1
176
     1
 44
0.0
176
     1
173
     0
176
     1
  0
VISUALSTYLE
  5
33
102
{ACAD_REACTORS
330
2A
102
}
330
2A
100
AcDbVisualStyle
  2
Realistic
 70
     8
177
     2
291
     0
 71
     2
176
     1
 72
     2
176
     1
 73
     0
176
     1
 90
        0
176
     1
 40
-0.6
176
     1
 41
-30.0
176
     1
 62
     5
 63
     7
421
 16777215
176
     1
 74
     1
176
     1
 91
        0
176
     1
 64
     7
176
     1
 65
   257
176
     1
 75
     1
176
     1
175
     1
176
     1
 42
1.0
176
     1
 92
        8
176
     1
 66
     8
424
  7895160
176
     1
 43
1.0
176
     1
 76
     1
176
     1
 77
     6
176
     1
 78
     2
176
     1
 67
     7
176
     1
 79
     5
176
     1
170
     0
176
     1
171
     0
176
     1
290
     0
176
     1
 93
       13
176
     1
 44
0.0
176
     1
173
     0
176
     1
  0
VISUALSTYLE
  5
37
102
{ACAD_REACTORS
330
2A
102
}
330
2A
100
AcDbVisualStyle
  2
Thicken
 70
    13
177
     2
291
     1
 71
     2
176
     1
 72
     2
176
     1
 73
     0
176
     1
 90
        0
176
     1
 40
-0.6
176
     1
 41
-30.0
176
     1
 62
     5
 63
     7
421
 16777215
176
     1
 74
     1
176
     1
 91
        4
176
     1
 64
     7
176
     1
 65
   257
176
     1
 75
     1
176
     1
175
     1
176
     1
 42
1.0
176
     1
 92
       12
176
     1
 66
     7
176
     1
 43
1.0
176
     1
 76
     1
176
     1
 77
     6
176
     1
 78
     2
176
     1
 67
     7
176
     1
 79
     5
176
     1
170
     0
176
     1
171
     0
176
     1
290
     0
176
     1
 93
        1
176
     1
 44
0.0
176
     1
173
     0
176
     1
  0
ENDSEC
  0
EOF
