  0
SECTION
  2
HEADER
  9
$ACADVER
  1
AC1021
  9
$ACADMAINTVER
 70
    25
  9
$DWGCODEPAGE
  3
UNDEFINED
  9
$INSBASE
 10
0.0
 20
0.0
 30
0.0
  9
$EXTMIN
 10
1.000000000000000E+20
 20
1.000000000000000E+20
 30
1.000000000000000E+20
  9
$EXTMAX
 10
-1.000000000000000E+20
 20
-1.000000000000000E+20
 30
-1.000000000000000E+20
  9
$LIMMIN
 10
0.0
 20
0.0
  9
$LIMMAX
 10
12.0
 20
9.0
  9
$ORTHOMODE
 70
     0
  9
$REGENMODE
 70
     1
  9
$FILLMODE
 70
     1
  9
$QTEXTMODE
 70
     0
  9
$MIRRTEXT
 70
     1
  9
$LTSCALE
 40
1.0
  9
$ATTMODE
 70
     1
  9
$TEXTSIZE
 40
0.2
  9
$TRACEWID
 40
0.05
  9
$TEXTSTYLE
  7
Standard
  9
$CLAYER
  8
0
  9
$CELTYPE
  6
ByLayer
  9
$CECOLOR
 62
   256
  9
$CELTSCALE
 40
1.0
  9
$DISPSILH
 70
     0
  9
$DIMSCALE
 40
1.0
  9
$DIMASZ
 40
0.18
  9
$DIMEXO
 40
0.0625
  9
$DIMDLI
 40
0.38
  9
$DIMRND
 40
0.0
  9
$DIMDLE
 40
0.0
  9
$DIMEXE
 40
0.18
  9
$DIMTP
 40
0.0
  9
$DIMTM
 40
0.0
  9
$DIMTXT
 40
0.18
  9
$DIMCEN
 40
0.09
  9
$DIMTSZ
 40
0.0
  9
$DIMTOL
 70
     0
  9
$DIMLIM
 70
     0
  9
$DIMTIH
 70
     1
  9
$DIMTOH
 70
     1
  9
$DIMSE1
 70
     0
  9
$DIMSE2
 70
     0
  9
$DIMTAD
 70
     0
  9
$DIMZIN
 70
     0
  9
$DIMBLK
  1

  9
$DIMASO
 70
     1
  9
$DIMSHO
 70
     1
  9
$DIMPOST
  1

  9
$DIMAPOST
  1

  9
$DIMALT
 70
     0
  9
$DIMALTD
 70
     2
  9
$DIMALTF
 40
25.4
  9
$DIMLFAC
 40
1.0
  9
$DIMTOFL
 70
     0
  9
$DIMTVP
 40
0.0
  9
$DIMTIX
 70
     0
  9
$DIMSOXD
 70
     0
  9
$DIMSAH
 70
     0
  9
$DIMBLK1
  1

  9
$DIMBLK2
  1

  9
$DIMSTYLE
  2
Standard
  9
$DIMCLRD
 70
     0
  9
$DIMCLRE
 70
     0
  9
$DIMCLRT
 70
     0
  9
$DIMTFAC
 40
1.0
  9
$DIMGAP
 40
0.09
  9
$DIMJUST
 70
     0
  9
$DIMSD1
 70
     0
  9
$DIMSD2
 70
     0
  9
$DIMTOLJ
 70
     1
  9
$DIMTZIN
 70
     0
  9
$DIMALTZ
 70
     0
  9
$DIMALTTZ
 70
     0
  9
$DIMUPT
 70
     0
  9
$DIMDEC
 70
     4
  9
$DIMTDEC
 70
     4
  9
$DIMALTU
 70
     2
  9
$DIMALTTD
 70
     2
  9
$DIMTXSTY
  7
Standard
  9
$DIMAUNIT
 70
     0
  9
$DIMADEC
 70
     0
  9
$DIMALTRND
 40
0.0
  9
$DIMAZIN
 70
     0
  9
$DIMDSEP
 70
    46
  9
$DIMATFIT
 70
     3
  9
$DIMFRAC
 70
     0
  9
$DIMLDRBLK
  1

  9
$DIMLUNIT
 70
     2
  9
$DIMLWD
 70
    -2
  9
$DIMLWE
 70
    -2
  9
$DIMTMOVE
 70
     0
  9
$DIMFXL
 40
1.0
  9
$DIMFXLON
 70
     0
  9
$DIMJOGANG
 40
0.7853981633974483
  9
$DIMTFILL
 70
     0
  9
$DIMTFILLCLR
 70
     0
  9
$DIMARCSYM
 70
     0
  9
$DIMLTYPE
  6

  9
$DIMLTEX1
  6

  9
$DIMLTEX2
  6

  9
$LUNITS
 70
     2
  9
$LUPREC
 70
     4
  9
$SKETCHINC
 40
0.1
  9
$FILLETRAD
 40
0.5
  9
$AUNITS
 70
     0
  9
$AUPREC
 70
     0
  9
$MENU
  1
.
  9
$ELEVATION
 40
0.0
  9
$PELEVATION
 40
0.0
  9
$THICKNESS
 40
0.0
  9
$LIMCHECK
 70
     0
  9
$CHAMFERA
 40
0.5
  9
$CHAMFERB
 40
0.5
  9
$CHAMFERC
 40
1.0
  9
$CHAMFERD
 40
0.0
  9
$SKPOLY
 70
     0
  9
$TDCREATE
 40
2459377.493993044
  9
$TDUCREATE
 40
2459377.452326389
  9
$TDUPDATE
 40
2459377.493993044
  9
$TDUUPDATE
 40
2459377.452326389
  9
$TDINDWG
 40
0.0000000116
  9
$TDUSRTIMER
 40
0.0000000116
  9
$USRTIMER
 70
     1
  9
$ANGBASE
 50
0.0
  9
$ANGDIR
 70
     0
  9
$PDMODE
 70
     0
  9
$PDSIZE
 40
0.0
  9
$PLINEWID
 40
0.0
  9
$SPLFRAME
 70
     0
  9
$SPLINETYPE
 70
     6
  9
$SPLINESEGS
 70
     8
  9
$HANDSEED
  5
DE
  9
$SURFTAB1
 70
     6
  9
$SURFTAB2
 70
     6
  9
$SURFTYPE
 70
     6
  9
$SURFU
 70
     6
  9
$SURFV
 70
     6
  9
$UCSBASE
  2

  9
$UCSNAME
  2

  9
$UCSORG
 10
0.0
 20
0.0
 30
0.0
  9
$UCSXDIR
 10
1.0
 20
0.0
 30
0.0
  9
$UCSYDIR
 10
0.0
 20
1.0
 30
0.0
  9
$UCSORTHOREF
  2

  9
$UCSORTHOVIEW
 70
     0
  9
$UCSORGTOP
 10
0.0
 20
0.0
 30
0.0
  9
$UCSORGBOTTOM
 10
0.0
 20
0.0
 30
0.0
  9
$UCSORGLEFT
 10
0.0
 20
0.0
 30
0.0
  9
$UCSORGRIGHT
 10
0.0
 20
0.0
 30
0.0
  9
$UCSORGFRONT
 10
0.0
 20
0.0
 30
0.0
  9
$UCSORGBACK
 10
0.0
 20
0.0
 30
0.0
  9
$PUCSBASE
  2

  9
$PUCSNAME
  2

  9
$PUCSORG
 10
0.0
 20
0.0
 30
0.0
  9
$PUCSXDIR
 10
1.0
 20
0.0
 30
0.0
  9
$PUCSYDIR
 10
0.0
 20
1.0
 30
0.0
  9
$PUCSORTHOREF
  2

  9
$PUCSORTHOVIEW
 70
     0
  9
$PUCSORGTOP
 10
0.0
 20
0.0
 30
0.0
  9
$PUCSORGBOTTOM
 10
0.0
 20
0.0
 30
0.0
  9
$PUCSORGLEFT
 10
0.0
 20
0.0
 30
0.0
  9
$PUCSORGRIGHT
 10
0.0
 20
0.0
 30
0.0
  9
$PUCSORGFRONT
 10
0.0
 20
0.0
 30
0.0
  9
$PUCSORGBACK
 10
0.0
 20
0.0
 30
0.0
  9
$USERI1
 70
     0
  9
$USERI2
 70
     0
  9
$USERI3
 70
     0
  9
$USERI4
 70
     0
  9
$USERI5
 70
     0
  9
$USERR1
 40
0.0
  9
$USERR2
 40
0.0
  9
$USERR3
 40
0.0
  9
$USERR4
 40
0.0
  9
$USERR5
 40
0.0
  9
$WORLDVIEW
 70
     1
  9
$SHADEDGE
 70
     3
  9
$SHADEDIF
 70
    70
  9
$TILEMODE
 70
     1
  9
$MAXACTVP
 70
    64
  9
$PINSBASE
 10
0.0
 20
0.0
 30
0.0
  9
$PLIMCHECK
 70
     0
  9
$PEXTMIN
 10
1.000000000000000E+20
 20
1.000000000000000E+20
 30
1.000000000000000E+20
  9
$PEXTMAX
 10
-1.000000000000000E+20
 20
-1.000000000000000E+20
 30
-1.000000000000000E+20
  9
$PLIMMIN
 10
0.0
 20
0.0
  9
$PLIMMAX
 10
12.0
 20
9.0
  9
$UNITMODE
 70
     0
  9
$VISRETAIN
 70
     1
  9
$PLINEGEN
 70
     0
  9
$PSLTSCALE
 70
     1
  9
$TREEDEPTH
 70
  3020
  9
$CMLSTYLE
  2
Standard
  9
$CMLJUST
 70
     0
  9
$CMLSCALE
 40
1.0
  9
$PROXYGRAPHICS
 70
     1
  9
$MEASUREMENT
 70
     0
  9
$CELWEIGHT
370
    -1
  9
$ENDCAPS
280
     0
  9
$JOINSTYLE
280
     0
  9
$LWDISPLAY
290
     1
  9
$INSUNITS
 70
     1
  9
$HYPERLINKBASE
  1

  9
$STYLESHEET
  1

  9
$XEDIT
290
     1
  9
$CEPSNTYPE
380
     0
  9
$PSTYLEMODE
290
     1
  9
$FINGERPRINTGUID
  2
{E3A30C04-3041-0D4C-5378-DF77AF6736FB}
  9
$VERSIONGUID
  2
{FAEB1C32-E019-11D5-929B-00C0DF256EC4}
  9
$EXTNAMES
290
     1
  9
$PSVPSCALE
 40
0.0
  9
$OLESTARTUP
290
     0
  9
$SORTENTS
280
   127
  9
$INDEXCTL
280
     0
  9
$HIDETEXT
280
     1
  9
$XCLIPFRAME
290
     0
  9
$HALOGAP
280
     0
  9
$OBSCOLOR
 70
   257
  9
$OBSLTYPE
280
     0
  9
$INTERSECTIONDISPLAY
280
     0
  9
$INTERSECTIONCOLOR
 70
   257
  9
$DIMASSOC
280
     2
  9
$PROJECTNAME
  1

  9
$CAMERADISPLAY
290
     0
  9
$LENSLENGTH
 40
50.0
  9
$CAMERAHEIGHT
 40
0.0
  9
$STEPSPERSEC
 40
2.0
  9
$STEPSIZE
 40
6.0
  9
$3DDWFPREC
 40
2.0
  9
$PSOLWIDTH
 40
0.25
  9
$PSOLHEIGHT
 40
4.0
  9
$LOFTANG1
 40
1.570796326794897
  9
$LOFTANG2
 40
1.570796326794897
  9
$LOFTMAG1
 40
0.0
  9
$LOFTMAG2
 40
0.0
  9
$LOFTPARAM
 70
     7
  9
$LOFTNORMALS
280
     1
  9
$LATITUDE
 40
37.795
  9
$LONGITUDE
 40
-122.394
  9
$NORTHDIRECTION
 40
0.0
  9
$TIMEZONE
 70
 -8000
  9
$LIGHTGLYPHDISPLAY
280
     1
  9
$TILEMODELIGHTSYNCH
280
     1
  9
$CMATERIAL
347
3C
  9
$SOLIDHIST
280
     1
  9
$SHOWHIST
280
     1
  9
$DWFFRAME
280
     2
  9
$DGNFRAME
280
     2
  9
$REALWORLDSCALE
290
     1
  9
$INTERFERECOLOR
 62
   256
  9
$CSHADOW
280
     0
  9
$SHADOWPLANELOCATION
 40
0.0
  0
ENDSEC
  0
SECTION
  2
CLASSES
  0
CLASS
  1
ACDBDICTIONARYWDFLT
  2
AcDbDictionaryWithDefault
  3
ObjectDBX Classes
 90
        0
 91
        4
280
     0
281
     0
  0
CLASS
  1
VISUALSTYLE
  2
AcDbVisualStyle
  3
ObjectDBX Classes
 90
     4095
 91
        4
280
     0
281
     0
  0
CLASS
  1
MATERIAL
  2
AcDbMaterial
  3
ObjectDBX Classes
 90
     1153
 91
        4
280
     0
281
     0
  0
CLASS
  1
SUN
  2
AcDbSun
  3
SCENEOE
 90
     1024
 91
        4
280
     0
281
     0
  0
ENDSEC
  0
SECTION
  2
TABLES
  0
TABLE
  2
VPORT
  5
8
330
0
100
AcDbSymbolTable
 70
     1
  0
VPORT
  5
29
330
8
100
AcDbSymbolTableRecord
100
AcDbViewportTableRecord
  2
*Active
 70
     0
 10
0.0
 20
0.0
 11
1.0
 21
1.0
 12
0.0
 22
0.0
 13
0.0
 23
0.0
 14
0.5
 24
0.5
 15
0.5
 25
0.5
 16
0.0
 26
0.0
 36
1.0
 17
105.0007777515277
 27
-148.5000416295416
 37
0.0
 40
297.0000832590831
 41
0.7070757462376333
 42
50.0
 43
0.0
 44
0.0
 50
0.0
 51
0.0
 71
     0
 72
   100
 73
     1
 74
     3
 75
     0
 76
     0
 77
     0
 78
     0
281
     0
 65
     1
110
0.0
120
0.0
130
0.0
111
1.0
121
0.0
131
0.0
112
0.0
122
1.0
132
0.0
 79
     0
146
0.0
 60
     3
 61
     5
292
     1
282
     1
141
0.0
142
0.0
 63
   250
361
3F
  0
ENDTAB
  0
TABLE
  2
LTYPE
  5
5
330
0
100
AcDbSymbolTable
 70
     9
  0
LTYPE
  5
14
330
5
100
AcDbSymbolTableRecord
100
AcDbLinetypeTableRecord
  2
ByBlock
 70
     0
  3

 72
    65
 73
     0
 40
0.0
  0
LTYPE
  5
15
330
5
100
AcDbSymbolTableRecord
100
AcDbLinetypeTableRecord
  2
ByLayer
 70
     0
  3

 72
    65
 73
     0
 40
0.0
  0
LTYPE
  5
16
330
5
100
AcDbSymbolTableRecord
100
AcDbLinetypeTableRecord
  2
Continuous
 70
     0
  3
Solid line
 72
    65
 73
     0
 40
0.0
  0
LTYPE
  5
60
330
5
100
AcDbSymbolTableRecord
100
AcDbLinetypeTableRecord
  2
AI-Linetype-1
 70
     0
  3
Adobe Illustrator Linetype No. 1
 72
    65
 73
     2
 40
8.794537478473567
 49
4.397268739236783
 74
     0
 49
-4.397268739236783
 74
     0
  0
LTYPE
  5
65
330
5
100
AcDbSymbolTableRecord
100
AcDbLinetypeTableRecord
  2
AI-Linetype-2
 70
     0
  3
Adobe Illustrator Linetype No. 2
 72
    65
 73
     4
 40
39.5756124397521
 49
26.38380622204174
 74
     0
 49
-4.397268739236783
 74
     0
 49
4.397268739236783
 74
     0
 49
-4.397268739236783
 74
     0
  0
LTYPE
  5
7A
330
5
100
AcDbSymbolTableRecord
100
AcDbLinetypeTableRecord
  2
AI-Linetype-3
 70
     0
  3
Adobe Illustrator Linetype No. 3
 72
    65
 73
     2
 40
8.776163411595498
 49
4.388081705797749
 74
     0
 49
-4.388081705797749
 74
     0
  0
LTYPE
  5
7F
330
5
100
AcDbSymbolTableRecord
100
AcDbLinetypeTableRecord
  2
AI-Linetype-4
 70
     0
  3
Adobe Illustrator Linetype No. 4
 72
    65
 73
     4
 40
39.49292981167099
 49
26.32868469427775
 74
     0
 49
-4.388081705797749
 74
     0
 49
4.388081705797749
 74
     0
 49
-4.388081705797749
 74
     0
  0
LTYPE
  5
9B
330
5
100
AcDbSymbolTableRecord
100
AcDbLinetypeTableRecord
  2
AI-Linetype-5
 70
     0
  3
Adobe Illustrator Linetype No. 5
 72
    65
 73
     2
 40
9.583047165064363
 49
4.791523582532181
 74
     0
 49
-4.791523582532181
 74
     0
  0
LTYPE
  5
A0
330
5
100
AcDbSymbolTableRecord
100
AcDbLinetypeTableRecord
  2
AI-Linetype-6
 70
     0
  3
Adobe Illustrator Linetype No. 6
 72
    65
 73
     4
 40
43.12392486977661
 49
28.74935412218007
 74
     0
 49
-4.791523582532181
 74
     0
 49
4.791523582532181
 74
     0
 49
-4.791523582532181
 74
     0
  0
LTYPE
  5
B1
330
5
100
AcDbSymbolTableRecord
100
AcDbLinetypeTableRecord
  2
AI-Linetype-7
 70
     0
  3
Adobe Illustrator Linetype No. 7
 72
    65
 73
     2
 40
9.583047165064363
 49
4.791523582532181
 74
     0
 49
-4.791523582532181
 74
     0
  0
LTYPE
  5
B6
330
5
100
AcDbSymbolTableRecord
100
AcDbLinetypeTableRecord
  2
AI-Linetype-8
 70
     0
  3
Adobe Illustrator Linetype No. 8
 72
    65
 73
     4
 40
43.12392486977661
 49
28.74935412218007
 74
     0
 49
-4.791523582532181
 74
     0
 49
4.791523582532181
 74
     0
 49
-4.791523582532181
 74
     0
  0
ENDTAB
  0
TABLE
  2
LAYER
  5
2
330
0
100
AcDbSymbolTable
 70
     1
  0
LAYER
  5
10
330
2
100
AcDbSymbolTableRecord
100
AcDbLayerTableRecord
  2
0
 70
     0
 62
     7
  6
Continuous
370
    -3
390
F
347
3E
  0
ENDTAB
  0
TABLE
  2
STYLE
  5
3
330
0
100
AcDbSymbolTable
 70
     1
  0
STYLE
  5
11
330
3
100
AcDbSymbolTableRecord
100
AcDbTextStyleTableRecord
  2
Standard
 70
     0
 40
0.0
 41
1.0
 50
0.0
 71
     0
 42
0.2
  3
txt
  4

  0
ENDTAB
  0
TABLE
  2
VIEW
  5
6
330
0
100
AcDbSymbolTable
 70
     0
  0
ENDTAB
  0
TABLE
  2
UCS
  5
7
330
0
100
AcDbSymbolTable
 70
     0
  0
ENDTAB
  0
TABLE
  2
APPID
  5
9
330
0
100
AcDbSymbolTable
 70
     1
  0
APPID
  5
12
330
9
100
AcDbSymbolTableRecord
100
AcDbRegAppTableRecord
  2
ACAD
 70
     0
  0
ENDTAB
  0
TABLE
  2
DIMSTYLE
  5
A
330
0
100
AcDbSymbolTable
 70
     1
100
AcDbDimStyleTable
  0
DIMSTYLE
105
27
330
A
100
AcDbSymbolTableRecord
100
AcDbDimStyleTableRecord
  2
Standard
 70
     0
178
     0
340
11
  0
ENDTAB
  0
TABLE
  2
BLOCK_RECORD
  5
1
330
0
100
AcDbSymbolTable
 70
     9
  0
BLOCK_RECORD
  5
1F
330
1
100
AcDbSymbolTableRecord
100
AcDbBlockTableRecord
  2
*Model_Space
340
22
 70
     0
280
     1
281
     0
  0
BLOCK_RECORD
  5
1B
330
1
100
AcDbSymbolTableRecord
100
AcDbBlockTableRecord
  2
*Paper_Space
340
1E
 70
     0
280
     1
281
     0
  0
BLOCK_RECORD
  5
23
330
1
100
AcDbSymbolTableRecord
100
AcDbBlockTableRecord
  2
*Paper_Space0
340
26
 70
     0
280
     1
281
     0
  0
BLOCK_RECORD
  5
51
330
1
100
AcDbSymbolTableRecord
100
AcDbBlockTableRecord
  2
block 2
340
0
102
{BLKREFS
331
52
102
}
 70
     0
280
     1
281
     0
  0
BLOCK_RECORD
  5
55
330
1
100
AcDbSymbolTableRecord
100
AcDbBlockTableRecord
  2
block 3
340
0
102
{BLKREFS
331
56
102
}
 70
     0
280
     1
281
     0
  0
BLOCK_RECORD
  5
6B
330
1
100
AcDbSymbolTableRecord
100
AcDbBlockTableRecord
  2
block 4
340
0
102
{BLKREFS
331
6C
102
}
 70
     0
280
     1
281
     0
  0
BLOCK_RECORD
  5
6F
330
1
100
AcDbSymbolTableRecord
100
AcDbBlockTableRecord
  2
block 5
340
0
102
{BLKREFS
331
70
102
}
 70
     0
280
     1
281
     0
  0
BLOCK_RECORD
  5
88
330
1
100
AcDbSymbolTableRecord
100
AcDbBlockTableRecord
  2
block 6
340
0
102
{BLKREFS
331
89
102
}
 70
     0
280
     1
281
     0
  0
BLOCK_RECORD
  5
8C
330
1
100
AcDbSymbolTableRecord
100
AcDbBlockTableRecord
  2
block 7
340
0
102
{BLKREFS
331
8D
102
}
 70
     0
280
     1
281
     0
  0
BLOCK_RECORD
  5
90
330
1
100
AcDbSymbolTableRecord
100
AcDbBlockTableRecord
  2
block 8
340
0
102
{BLKREFS
331
91
102
}
 70
     0
280
     1
281
     0
  0
BLOCK_RECORD
  5
A6
330
1
100
AcDbSymbolTableRecord
100
AcDbBlockTableRecord
  2
block 9
340
0
102
{BLKREFS
331
A7
102
}
 70
     0
280
     1
281
     0
  0
ENDTAB
  0
ENDSEC
  0
SECTION
  2
BLOCKS
  0
BLOCK
  5
20
330
1F
100
AcDbEntity
  8
0
100
AcDbBlockBegin
  2
*Model_Space
 70
     0
 10
0.0
 20
0.0
 30
0.0
  3
*Model_Space
  1

  0
ENDBLK
  5
21
330
1F
100
AcDbEntity
  8
0
100
AcDbBlockEnd
  0
BLOCK
  5
1C
330
1B
100
AcDbEntity
 67
     1
  8
0
100
AcDbBlockBegin
  2
*Paper_Space
 70
     0
 10
0.0
 20
0.0
 30
0.0
  3
*Paper_Space
  1

  0
ENDBLK
  5
1D
330
1B
100
AcDbEntity
 67
     1
  8
0
100
AcDbBlockEnd
  0
BLOCK
  5
24
330
23
100
AcDbEntity
  8
0
100
AcDbBlockBegin
  2
*Paper_Space0
 70
     0
 10
0.0
 20
0.0
 30
0.0
  3
*Paper_Space0
  1

  0
ENDBLK
  5
25
330
23
100
AcDbEntity
  8
0
100
AcDbBlockEnd
  0
BLOCK
  5
53
330
51
100
AcDbEntity
  8
0
100
AcDbBlockBegin
  2
block 2
 70
     0
 10
0.0
 20
0.0
 30
0.0
  3
block 2
  1

  0
INSERT
  5
56
330
51
100
AcDbEntity
  8
0
100
AcDbBlockReference
  2
block 3
 10
0.0
 20
0.0
 30
0.0
  0
ENDBLK
  5
54
330
51
100
AcDbEntity
  8
0
100
AcDbBlockEnd
  0
BLOCK
  5
57
330
55
100
AcDbEntity
  8
0
100
AcDbBlockBegin
  2
block 3
 70
     0
 10
0.0
 20
0.0
 30
0.0
  3
block 3
  1

  0
POLYLINE
  5
59
330
55
100
AcDbEntity
  8
0
 62
     4
370
    25
100
AcDb2dPolyline
 66
     1
 10
0.0
 20
0.0
 30
0.0
  0
VERTEX
  5
5A
330
59
100
AcDbEntity
  8
0
 62
     4
370
    25
100
AcDbVertex
100
AcDb2dVertex
 10
43.8665649940179
 20
-188.8780489979194
 30
0.0
  0
VERTEX
  5
5B
330
59
100
AcDbEntity
  8
0
 62
     4
370
    25
100
AcDbVertex
100
AcDb2dVertex
 10
55.11665080070109
 20
-188.8780489979194
 30
0.0
  0
SEQEND
  5
5C
330
59
100
AcDbEntity
  8
0
 62
     4
370
    25
  0
POLYLINE
  5
5D
330
55
100
AcDbEntity
  8
0
  6
AI-Linetype-1
 62
     4
370
    25
100
AcDb2dPolyline
 66
     1
 10
0.0
 20
0.0
 30
0.0
  0
VERTEX
  5
5E
330
5D
100
AcDbEntity
  8
0
  6
AI-Linetype-1
 62
     4
370
    25
100
AcDbVertex
100
AcDb2dVertex
 10
59.51391684845703
 20
-188.8780489979194
 30
0.0
  0
VERTEX
  5
5F
330
5D
100
AcDbEntity
  8
0
  6
AI-Linetype-1
 62
     4
370
    25
100
AcDbVertex
100
AcDb2dVertex
 10
66.10982130305263
 20
-188.8780489979194
 30
0.0
  0
SEQEND
  5
61
330
5D
100
AcDbEntity
  8
0
  6
AI-Linetype-1
 62
     4
370
    25
  0
POLYLINE
  5
62
330
55
100
AcDbEntity
  8
0
  6
AI-Linetype-2
 62
     4
370
    25
100
AcDb2dPolyline
 66
     1
 10
0.0
 20
0.0
 30
0.0
  0
VERTEX
  5
63
330
62
100
AcDbEntity
  8
0
  6
AI-Linetype-2
 62
     4
370
    25
100
AcDbVertex
100
AcDb2dVertex
 10
68.30845432693059
 20
-188.8780489979194
 30
0.0
  0
VERTEX
  5
64
330
62
100
AcDbEntity
  8
0
  6
AI-Linetype-2
 62
     4
370
    25
100
AcDbVertex
100
AcDb2dVertex
 10
145.2610515655185
 20
-188.8780489979194
 30
0.0
  0
SEQEND
  5
66
330
62
100
AcDbEntity
  8
0
  6
AI-Linetype-2
 62
     4
370
    25
  0
POLYLINE
  5
67
330
55
100
AcDbEntity
  8
0
 62
     4
370
    25
100
AcDb2dPolyline
 66
     1
 10
0.0
 20
0.0
 30
0.0
  0
VERTEX
  5
68
330
67
100
AcDbEntity
  8
0
 62
     4
370
    25
100
AcDbVertex
100
AcDb2dVertex
 10
147.4596792064348
 20
-188.8780489979194
 30
0.0
  0
VERTEX
  5
69
330
67
100
AcDbEntity
  8
0
 62
     4
370
    25
100
AcDbVertex
100
AcDb2dVertex
 10
158.7097677045988
 20
-188.8780489979194
 30
0.0
  0
SEQEND
  5
6A
330
67
100
AcDbEntity
  8
0
 62
     4
370
    25
  0
ENDBLK
  5
58
330
55
100
AcDbEntity
  8
0
100
AcDbBlockEnd
  0
BLOCK
  5
6D
330
6B
100
AcDbEntity
  8
0
100
AcDbBlockBegin
  2
block 4
 70
     0
 10
0.0
 20
0.0
 30
0.0
  3
block 4
  1

  0
INSERT
  5
70
330
6B
100
AcDbEntity
  8
0
100
AcDbBlockReference
  2
block 5
 10
0.0
 20
0.0
 30
0.0
  0
ENDBLK
  5
6E
330
6B
100
AcDbEntity
  8
0
100
AcDbBlockEnd
  0
BLOCK
  5
71
330
6F
100
AcDbEntity
  8
0
100
AcDbBlockBegin
  2
block 5
 70
     0
 10
0.0
 20
0.0
 30
0.0
  3
block 5
  1

  0
POLYLINE
  5
73
330
6F
100
AcDbEntity
  8
0
 62
     4
370
    25
100
AcDb2dPolyline
 66
     1
 10
0.0
 20
0.0
 30
0.0
  0
VERTEX
  5
74
330
73
100
AcDbEntity
  8
0
 62
     4
370
    25
100
AcDbVertex
100
AcDb2dVertex
 10
101.2881650035679
 20
-132.2729339268927
 30
0.0
  0
VERTEX
  5
75
330
73
100
AcDbEntity
  8
0
 62
     4
370
    25
100
AcDbVertex
100
AcDb2dVertex
 10
101.2881650035679
 20
-143.5230224250568
 30
0.0
  0
SEQEND
  5
76
330
73
100
AcDbEntity
  8
0
 62
     4
370
    25
  0
POLYLINE
  5
77
330
6F
100
AcDbEntity
  8
0
  6
AI-Linetype-3
 62
     4
370
    25
100
AcDb2dPolyline
 66
     1
 10
0.0
 20
0.0
 30
0.0
  0
VERTEX
  5
78
330
77
100
AcDbEntity
  8
0
  6
AI-Linetype-3
 62
     4
370
    25
100
AcDbVertex
100
AcDb2dVertex
 10
101.2881650035679
 20
-147.9111051401598
 30
0.0
  0
VERTEX
  5
79
330
77
100
AcDbEntity
  8
0
  6
AI-Linetype-3
 62
     4
370
    25
100
AcDbVertex
100
AcDb2dVertex
 10
101.2881650035679
 20
-154.493218446891
 30
0.0
  0
SEQEND
  5
7B
330
77
100
AcDbEntity
  8
0
  6
AI-Linetype-3
 62
     4
370
    25
  0
POLYLINE
  5
7C
330
6F
100
AcDbEntity
  8
0
  6
AI-Linetype-4
 62
     4
370
    25
100
AcDb2dPolyline
 66
     1
 10
0.0
 20
0.0
 30
0.0
  0
VERTEX
  5
7D
330
7C
100
AcDbEntity
  8
0
  6
AI-Linetype-4
 62
     4
370
    25
100
AcDbVertex
100
AcDb2dVertex
 10
101.2881650035679
 20
-156.6872598044426
 30
0.0
  0
VERTEX
  5
7E
330
7C
100
AcDbEntity
  8
0
  6
AI-Linetype-4
 62
     4
370
    25
100
AcDbVertex
100
AcDb2dVertex
 10
101.2881650035679
 20
-233.4790948919883
 30
0.0
  0
SEQEND
  5
80
330
7C
100
AcDbEntity
  8
0
  6
AI-Linetype-4
 62
     4
370
    25
  0
POLYLINE
  5
81
330
6F
100
AcDbEntity
  8
0
 62
     4
370
    25
100
AcDb2dPolyline
 66
     1
 10
0.0
 20
0.0
 30
0.0
  0
VERTEX
  5
82
330
81
100
AcDbEntity
  8
0
 62
     4
370
    25
100
AcDbVertex
100
AcDb2dVertex
 10
101.2881650035679
 20
-235.6731254836164
 30
0.0
  0
VERTEX
  5
83
330
81
100
AcDbEntity
  8
0
 62
     4
370
    25
100
AcDbVertex
100
AcDb2dVertex
 10
101.2881650035679
 20
-246.9232139817805
 30
0.0
  0
SEQEND
  5
84
330
81
100
AcDbEntity
  8
0
 62
     4
370
    25
  0
ENDBLK
  5
72
330
6F
100
AcDbEntity
  8
0
100
AcDbBlockEnd
  0
BLOCK
  5
8A
330
88
100
AcDbEntity
  8
0
100
AcDbBlockBegin
  2
block 6
 70
     0
 10
0.0
 20
0.0
 30
0.0
  3
block 6
  1

  0
INSERT
  5
8D
330
88
100
AcDbEntity
  8
0
100
AcDbBlockReference
  2
block 7
 10
0.0
 20
0.0
 30
0.0
  0
ENDBLK
  5
8B
330
88
100
AcDbEntity
  8
0
100
AcDbBlockEnd
  0
BLOCK
  5
8E
330
8C
100
AcDbEntity
  8
0
100
AcDbBlockBegin
  2
block 7
 70
     0
 10
0.0
 20
0.0
 30
0.0
  3
block 7
  1

  0
INSERT
  5
91
330
8C
100
AcDbEntity
  8
0
100
AcDbBlockReference
  2
block 8
 10
0.0
 20
0.0
 30
0.0
  0
INSERT
  5
A7
330
8C
100
AcDbEntity
  8
0
100
AcDbBlockReference
  2
block 9
 10
0.0
 20
0.0
 30
0.0
  0
ENDBLK
  5
8F
330
8C
100
AcDbEntity
  8
0
100
AcDbBlockEnd
  0
BLOCK
  5
92
330
90
100
AcDbEntity
  8
0
100
AcDbBlockBegin
  2
block 8
 70
     0
 10
0.0
 20
0.0
 30
0.0
  3
block 8
  1

  0
POLYLINE
  5
94
330
90
100
AcDbEntity
  8
0
 62
     4
370
    25
100
AcDb2dPolyline
 66
     1
 10
0.0
 20
0.0
 30
0.0
  0
VERTEX
  5
95
330
94
100
AcDbEntity
  8
0
 62
     4
370
    25
100
AcDbVertex
100
AcDb2dVertex
 10
141.7185460054232
 20
-29.9984353944169
 30
0.0
  0
VERTEX
  5
96
330
94
100
AcDbEntity
  8
0
 62
     4
370
    25
100
AcDbVertex
100
AcDb2dVertex
 10
130.4684682731826
 20
-29.9984353944169
 30
0.0
  0
SEQEND
  5
97
330
94
100
AcDbEntity
  8
0
 62
     4
370
    25
  0
POLYLINE
  5
98
330
90
100
AcDbEntity
  8
0
  6
AI-Linetype-5
 62
     4
370
    25
100
AcDb2dPolyline
 66
     1
 10
0.0
 20
0.0
 30
0.0
  0
VERTEX
  5
99
330
98
100
AcDbEntity
  8
0
  6
AI-Linetype-5
 62
     4
370
    25
100
AcDbVertex
100
AcDb2dVertex
 10
125.67694334491
 20
-29.9984353944169
 30
0.0
  0
VERTEX
  5
9A
330
98
100
AcDbEntity
  8
0
  6
AI-Linetype-5
 62
     4
370
    25
100
AcDbVertex
100
AcDb2dVertex
 10
118.4896559525011
 20
-29.9984353944169
 30
0.0
  0
SEQEND
  5
9C
330
98
100
AcDbEntity
  8
0
  6
AI-Linetype-5
 62
     4
370
    25
  0
POLYLINE
  5
9D
330
90
100
AcDbEntity
  8
0
  6
AI-Linetype-6
 62
     4
370
    25
100
AcDb2dPolyline
 66
     1
 10
0.0
 20
0.0
 30
0.0
  0
VERTEX
  5
9E
330
9D
100
AcDbEntity
  8
0
  6
AI-Linetype-6
 62
     4
370
    25
100
AcDbVertex
100
AcDb2dVertex
 10
116.0938934883648
 20
-29.9984353944169
 30
0.0
  0
VERTEX
  5
9F
330
9D
100
AcDbEntity
  8
0
  6
AI-Linetype-6
 62
     4
370
    25
100
AcDbVertex
100
AcDb2dVertex
 10
75.36573242846488
 20
-29.9984353944169
 30
0.0
  0
SEQEND
  5
A1
330
9D
100
AcDbEntity
  8
0
  6
AI-Linetype-6
 62
     4
370
    25
  0
POLYLINE
  5
A2
330
90
100
AcDbEntity
  8
0
 62
     4
370
    25
100
AcDb2dPolyline
 66
     1
 10
0.0
 20
0.0
 30
0.0
  0
VERTEX
  5
A3
330
A2
100
AcDbEntity
  8
0
 62
     4
370
    25
100
AcDbVertex
100
AcDb2dVertex
 10
72.96996996432858
 20
-29.9984353944169
 30
0.0
  0
VERTEX
  5
A4
330
A2
100
AcDbEntity
  8
0
 62
     4
370
    25
100
AcDbVertex
100
AcDb2dVertex
 10
61.71988684912624
 20
-29.9984353944169
 30
0.0
  0
SEQEND
  5
A5
330
A2
100
AcDbEntity
  8
0
 62
     4
370
    25
  0
ENDBLK
  5
93
330
90
100
AcDbEntity
  8
0
100
AcDbBlockEnd
  0
BLOCK
  5
A8
330
A6
100
AcDbEntity
  8
0
100
AcDbBlockBegin
  2
block 9
 70
     0
 10
0.0
 20
0.0
 30
0.0
  3
block 9
  1

  0
POLYLINE
  5
AA
330
A6
100
AcDbEntity
  8
0
 62
     4
370
    25
100
AcDb2dPolyline
 66
     1
 10
0.0
 20
0.0
 30
0.0
  0
VERTEX
  5
AB
330
AA
100
AcDbEntity
  8
0
 62
     4
370
    25
100
AcDbVertex
100
AcDb2dVertex
 10
101.7196524471721
 20
10.00035790617267
 30
0.0
  0
VERTEX
  5
AC
330
AA
100
AcDbEntity
  8
0
 62
     4
370
    25
100
AcDbVertex
100
AcDb2dVertex
 10
101.7196524471721
 20
-1.249725461356007
 30
0.0
  0
SEQEND
  5
AD
330
AA
100
AcDbEntity
  8
0
 62
     4
370
    25
  0
POLYLINE
  5
AE
330
A6
100
AcDbEntity
  8
0
  6
AI-Linetype-7
 62
     4
370
    25
100
AcDb2dPolyline
 66
     1
 10
0.0
 20
0.0
 30
0.0
  0
VERTEX
  5
AF
330
AE
100
AcDbEntity
  8
0
  6
AI-Linetype-7
 62
     4
370
    25
100
AcDbVertex
100
AcDb2dVertex
 10
101.7196524471721
 20
-6.041248791561859
 30
0.0
  0
VERTEX
  5
B0
330
AE
100
AcDbEntity
  8
0
  6
AI-Linetype-7
 62
     4
370
    25
100
AcDbVertex
100
AcDb2dVertex
 10
101.7196524471721
 20
-13.22853416536013
 30
0.0
  0
SEQEND
  5
B2
330
AE
100
AcDbEntity
  8
0
  6
AI-Linetype-7
 62
     4
370
    25
  0
POLYLINE
  5
B3
330
A6
100
AcDbEntity
  8
0
  6
AI-Linetype-8
 62
     4
370
    25
100
AcDb2dPolyline
 66
     1
 10
0.0
 20
0.0
 30
0.0
  0
VERTEX
  5
B4
330
B3
100
AcDbEntity
  8
0
  6
AI-Linetype-8
 62
     4
370
    25
100
AcDbVertex
100
AcDb2dVertex
 10
101.7196524471721
 20
-15.62429662949643
 30
0.0
  0
VERTEX
  5
B5
330
B3
100
AcDbEntity
  8
0
  6
AI-Linetype-8
 62
     4
370
    25
100
AcDbVertex
100
AcDb2dVertex
 10
101.7196524471721
 20
-56.35246038087717
 30
0.0
  0
SEQEND
  5
B7
330
B3
100
AcDbEntity
  8
0
  6
AI-Linetype-8
 62
     4
370
    25
  0
POLYLINE
  5
B8
330
A6
100
AcDbEntity
  8
0
 62
     4
370
    25
100
AcDb2dPolyline
 66
     1
 10
0.0
 20
0.0
 30
0.0
  0
VERTEX
  5
B9
330
B8
100
AcDbEntity
  8
0
 62
     4
370
    25
100
AcDbVertex
100
AcDb2dVertex
 10
101.7196524471721
 20
-58.74822284501347
 30
0.0
  0
VERTEX
  5
BA
330
B8
100
AcDbEntity
  8
0
 62
     4
370
    25
100
AcDbVertex
100
AcDb2dVertex
 10
101.7196524471721
 20
-69.99830596021582
 30
0.0
  0
SEQEND
  5
BB
330
B8
100
AcDbEntity
  8
0
 62
     4
370
    25
  0
ENDBLK
  5
A9
330
A6
100
AcDbEntity
  8
0
100
AcDbBlockEnd
  0
ENDSEC
  0
SECTION
  2
ENTITIES
  0
SPLINE
  5
40
330
1F
100
AcDbEntity
  8
0
 62
   250
370
    25
100
AcDbSpline
210
0.0
220
0.0
230
1.0
 70
     8
 71
     3
 72
     8
 73
     4
 74
     0
 42
0.0000000001
 43
0.0000000001
 12
1.0
 22
0.0
 32
0.0
 13
1.0
 23
0.0
 33
0.0
 40
0.0
 40
0.0
 40
0.0
 40
0.0
 40
1.0
 40
1.0
 40
1.0
 40
1.0
 10
93.46094901218385
 20
-93.96995655526364
 30
0.0
 10
96.07152419490392
 20
-93.78422017346168
 30
0.0
 10
98.68040605443645
 20
-93.69179295212787
 30
0.0
 10
101.2975781420506
 20
-93.69239267073871
 30
0.0
  0
SPLINE
  5
41
330
1F
100
AcDbEntity
  8
0
 62
   250
370
    25
100
AcDbSpline
210
0.0
220
0.0
230
1.0
 70
     8
 71
     3
 72
    53
 73
    49
 74
     0
 42
0.0000000001
 43
0.0000000001
 12
1.0
 22
0.0
 32
0.0
 13
1.0
 23
0.0
 33
0.0
 40
0.0
 40
0.0
 40
0.0
 40
0.0
 40
1.0
 40
1.0
 40
1.0
 40
2.0
 40
2.0
 40
2.0
 40
3.0
 40
3.0
 40
3.0
 40
4.0
 40
4.0
 40
4.0
 40
5.0
 40
5.0
 40
5.0
 40
6.0
 40
6.0
 40
6.0
 40
7.0
 40
7.0
 40
7.0
 40
8.0
 40
8.0
 40
8.0
 40
9.0
 40
9.0
 40
9.0
 40
10.0
 40
10.0
 40
10.0
 40
11.0
 40
11.0
 40
11.0
 40
12.0
 40
12.0
 40
12.0
 40
13.0
 40
13.0
 40
13.0
 40
14.0
 40
14.0
 40
14.0
 40
15.0
 40
15.0
 40
15.0
 40
16.0
 40
16.0
 40
16.0
 40
16.0
 10
113.5274989893352
 20
-94.99674537363917
 30
0.0
 10
113.527887042563
 20
-95.05012033008356
 30
0.0
 10
113.5001941530278
 20
-95.09619283049096
 30
0.0
 10
113.4663276893892
 20
-95.13545676077557
 30
0.0
 10
113.4164804882335
 20
-95.19324141288975
 30
0.0
 10
113.3532278118783
 20
-95.23638587536804
 30
0.0
 10
113.2874704283234
 20
-95.27469731138551
 30
0.0
 10
113.1938437674032
 20
-95.32923642748261
 30
0.0
 10
113.0951724144962
 20
-95.37393310283889
 30
0.0
 10
112.994666628153
 20
-95.41386730686779
 30
0.0
 10
112.8329542642955
 20
-95.47817830858253
 30
0.0
 10
112.6665852616982
 20
-95.53010688484171
 30
0.0
 10
112.4990520994032
 20
-95.57744937760424
 30
0.0
 10
112.0773087944529
 20
-95.69665227107174
 30
0.0
 10
111.6481572005906
 20
-95.78692756091736
 30
0.0
 10
111.2169947854364
 20
-95.86510264582708
 30
0.0
 10
110.7031064773561
 20
-95.95827069603989
 30
0.0
 10
110.1862548536968
 20
-96.03429384946399
 30
0.0
 10
109.668344903059
 20
-96.10118011345409
 30
0.0
 10
108.3409559164216
 20
-96.27255852613854
 30
0.0
 10
107.0063703062635
 20
-96.38392980009293
 30
0.0
 10
105.6700560953492
 20
-96.4602351740399
 30
0.0
 10
104.2140451020366
 20
-96.54334911810963
 30
0.0
 10
102.7560585650075
 20
-96.58487081257586
 30
0.0
 10
101.2975781420506
 20
-96.58709329919171
 30
0.0
 10
99.78903885253966
 20
-96.594254644974
 30
0.0
 10
98.28074650598323
 20
-96.55918874497362
 30
0.0
 10
96.77432387044986
 20
-96.48094310492661
 30
0.0
 10
95.37098228359028
 20
-96.40809493238551
 30
0.0
 10
93.96926346479408
 20
-96.2977819853981
 30
0.0
 10
92.57484710221135
 20
-96.12435747391442
 30
0.0
 10
92.02987925822652
 20
-96.05655399322869
 30
0.0
 10
91.48600501880266
 20
-95.97911973718772
 30
0.0
 10
90.94505881737561
 20
-95.88376447792481
 30
0.0
 10
90.49301208298516
 20
-95.80407245769902
 30
0.0
 10
90.04301144744176
 20
-95.71182162419144
 30
0.0
 10
89.60048965594864
 20
-95.58954958252988
 30
0.0
 10
89.42547764960375
 20
-95.54118404037897
 30
0.0
 10
89.25159452538784
 20
-95.48812658202256
 30
0.0
 10
89.0824385950494
 20
-95.42226336743367
 30
0.0
 10
88.97769950073749
 20
-95.38144722427108
 30
0.0
 10
88.87479483988739
 20
-95.33576277708575
 30
0.0
 10
88.77697014857392
 20
-95.27988311349944
 30
0.0
 10
88.7086727802443
 20
-95.24086612617192
 30
0.0
 10
88.64288011912076
 20
-95.19691027969081
 30
0.0
 10
88.5908457088501
 20
-95.13757341469864
 30
0.0
 10
88.5558150855264
 20
-95.0976744882384
 30
0.0
 10
88.52702859144338
 20
-95.0508258813936
 30
0.0
 10
88.5275930325013
 20
-94.99607509990066
 30
0.0
  0
SPLINE
  5
42
330
1F
100
AcDbEntity
  8
0
 62
   250
370
    25
100
AcDbSpline
210
0.0
220
0.0
230
1.0
 70
     8
 71
     3
 72
    20
 73
    16
 74
     0
 42
0.0000000001
 43
0.0000000001
 12
1.0
 22
0.0
 32
0.0
 13
1.0
 23
0.0
 33
0.0
 40
0.0
 40
0.0
 40
0.0
 40
0.0
 40
1.0
 40
1.0
 40
1.0
 40
2.0
 40
2.0
 40
2.0
 40
3.0
 40
3.0
 40
3.0
 40
4.0
 40
4.0
 40
4.0
 40
5.0
 40
5.0
 40
5.0
 40
5.0
 10
113.5274989893352
 20
-94.99674537363917
 30
0.0
 10
113.5279223201256
 20
-94.78906634616435
 30
0.0
 10
113.1720775090047
 20
-94.67088650209101
 30
0.0
 10
113.0417621791417
 20
-94.62301484585174
 30
0.0
 10
112.8394100589282
 20
-94.54872029312864
 30
0.0
 10
112.632718798059
 20
-94.49520422642316
 30
0.0
 10
112.4231347767558
 20
-94.4474736804482
 30
0.0
 10
112.0038256238814
 20
-94.35190675578944
 30
0.0
 10
111.5809534368088
 20
-94.28487938154144
 30
0.0
 10
111.1554707098374
 20
-94.2263539005521
 30
0.0
 10
110.3043641456264
 20
-94.1093382161379
 30
0.0
 10
109.450717596641
 20
-94.03229201331834
 30
0.0
 10
108.5944252301819
 20
-93.96981544500188
 30
0.0
 10
106.1638714682189
 20
-93.79508566360116
 30
0.0
 10
103.734340755686
 20
-93.7027289974008
 30
0.0
 10
101.2975781420506
 20
-93.69239267073871
 30
0.0
  0
SPLINE
  5
43
330
1F
100
AcDbEntity
  8
0
 62
   250
370
    25
100
AcDbSpline
210
0.0
220
0.0
230
1.0
 70
     8
 71
     3
 72
    59
 73
    55
 74
     0
 42
0.0000000001
 43
0.0000000001
 12
1.0
 22
0.0
 32
0.0
 13
1.0
 23
0.0
 33
0.0
 40
0.0
 40
0.0
 40
0.0
 40
0.0
 40
1.0
 40
1.0
 40
1.0
 40
2.0
 40
2.0
 40
2.0
 40
3.0
 40
3.0
 40
3.0
 40
4.0
 40
4.0
 40
4.0
 40
5.0
 40
5.0
 40
5.0
 40
6.0
 40
6.0
 40
6.0
 40
7.0
 40
7.0
 40
7.0
 40
8.0
 40
8.0
 40
8.0
 40
9.0
 40
9.0
 40
9.0
 40
10.0
 40
10.0
 40
10.0
 40
11.0
 40
11.0
 40
11.0
 40
12.0
 40
12.0
 40
12.0
 40
13.0
 40
13.0
 40
13.0
 40
14.0
 40
14.0
 40
14.0
 40
15.0
 40
15.0
 40
15.0
 40
16.0
 40
16.0
 40
16.0
 40
17.0
 40
17.0
 40
17.0
 40
18.0
 40
18.0
 40
18.0
 40
18.0
 10
-122.7303487920278
 20
-97.86830391919761
 30
0.0
 10
-119.1727826199311
 20
-97.54681946576055
 30
0.0
 10
-115.610595086651
 20
-97.27892163415343
 30
0.0
 10
-112.0462203442621
 20
-97.04489026532245
 30
0.0
 10
-108.4932755333459
 20
-96.81163500293496
 30
0.0
 10
-104.938143513325
 20
-96.61203453793483
 30
0.0
 10
-101.3820237214488
 20
-96.43391811025528
 30
0.0
 10
-96.6309822043317
 20
-96.1959356541036
 30
0.0
 10
-91.87810625376879
 20
-95.9962999115313
 30
0.0
 10
-87.12445419675278
 20
-95.81758376524154
 30
0.0
 10
-81.3764333788322
 20
-95.60154395476916
 30
0.0
 10
-75.62728367879194
 20
-95.41608979348781
 30
0.0
 10
-69.87764009282465
 20
-95.24799219438205
 30
0.0
 10
-57.72663516132452
 20
-94.89271183329747
 30
0.0
 10
-45.57330191045127
 20
-94.61479517311273
 30
0.0
 10
-33.41845172423017
 20
-94.43371542994151
 30
0.0
 10
-27.27694493195336
 20
-94.34220542530974
 30
0.0
 10
-21.13505008645481
 20
-94.27546027157753
 30
0.0
 10
-14.99308468582217
 20
-94.22173253948647
 30
0.0
 10
-7.12015494024094
 20
-94.1528707318344
 30
0.0
 10
0.7528806380366023
 20
-94.10542240637909
 30
0.0
 10
8.626022049016555
 20
-94.07264954812929
 30
0.0
 10
8.63141951665722
 20
-94.07264954812929
 30
0.0
 10
8.636781706732124
 20
-94.07261427056032
 30
0.0
 10
8.642179174379207
 20
-94.07261427056032
 30
0.0
 10
10.09875460875007
 20
-94.06580570044139
 30
0.0
 10
11.55536532069279
 20
-94.06002017971663
 30
0.0
 10
13.0119760326384
 20
-94.05589270456584
 30
0.0
 10
14.98787252030919
 20
-94.0503188492337
 30
0.0
 10
16.96376900797933
 20
-94.0477435869609
 30
0.0
 10
18.93970077321523
 20
-94.04633248434403
 30
0.0
 10
24.89427174173684
 20
-94.04206389893278
 30
0.0
 10
30.84887798782999
 20
-94.04837858313687
 30
0.0
 10
36.80348423391351
 20
-94.04806108504889
 30
0.0
 10
39.85975618909088
 20
-94.04788469722202
 30
0.0
 10
42.91606342182984
 20
-94.04597970869094
 30
0.0
 10
45.97233537700368
 20
-94.04202862136702
 30
0.0
 10
55.71737501024301
 20
-94.029505085651
 30
0.0
 10
65.46237936591787
 20
-93.99648528444344
 30
0.0
 10
75.20738372158823
 20
-93.98159815184596
 30
0.0
 10
81.29191724430633
 20
-93.9723201521406
 30
0.0
 10
87.37645076703086
 20
-93.97006238796283
 30
0.0
 10
93.46094901218385
 20
-93.96995655526364
 30
0.0
 10
92.60472720085502
 20
-94.03239784601497
 30
0.0
 10
91.7512217621307
 20
-94.10940877126878
 30
0.0
 10
90.90018575305697
 20
-94.22638917812043
 30
0.0
 10
90.47480885877833
 20
-94.28487938154144
 30
0.0
 10
90.0520425044114
 20
-94.35183620066178
 30
0.0
 10
89.63283918423616
 20
-94.44733257018709
 30
0.0
 10
89.42325516293303
 20
-94.4950631161646
 30
0.0
 10
89.2165286244955
 20
-94.54854390530177
 30
0.0
 10
89.014176504282
 20
-94.62283845802487
 30
0.0
 10
88.88375534171973
 20
-94.67067483669902
 30
0.0
 10
88.52801636329843
 20
-94.7884666275535
 30
0.0
 10
88.5275930325013
 20
-94.99607509990066
 30
0.0
  0
SPLINE
  5
44
330
1F
100
AcDbEntity
  8
0
 62
   250
370
    25
100
AcDbSpline
210
0.0
220
0.0
230
1.0
 70
     8
 71
     3
 72
    20
 73
    16
 74
     0
 42
0.0000000001
 43
0.0000000001
 12
1.0
 22
0.0
 32
0.0
 13
1.0
 23
0.0
 33
0.0
 40
0.0
 40
0.0
 40
0.0
 40
0.0
 40
1.0
 40
1.0
 40
1.0
 40
2.0
 40
2.0
 40
2.0
 40
3.0
 40
3.0
 40
3.0
 40
4.0
 40
4.0
 40
4.0
 40
5.0
 40
5.0
 40
5.0
 40
5.0
 10
-190.3499645179612
 20
2.4992493488896
 30
0.0
 10
-190.3495764647298
 20
3.69882771287711
 30
0.0
 10
-190.3504584038885
 20
4.899182183314523
 30
0.0
 10
-190.2932734689375
 20
6.097596387613385
 30
0.0
 10
-190.2511520547926
 20
6.979147491529196
 30
0.0
 10
-190.1776336066553
 20
7.85964026846326
 30
0.0
 10
-190.0516926950131
 20
8.733077532130704
 30
0.0
 10
-189.9364408859555
 20
9.532184963638745
 30
0.0
 10
-189.7773390620098
 20
10.32536576400755
 30
0.0
 10
-189.5660617175226
 20
11.10457664813181
 30
0.0
 10
-189.4665789805967
 20
11.4713575048047
 30
0.0
 10
-189.355560479495
 20
11.83503393564462
 30
0.0
 10
-189.2331120469168
 20
12.19482983419524
 30
0.0
 10
-189.0963056448595
 20
12.59674714689135
 30
0.0
 10
-188.9452471060245
 20
12.99383143300151
 30
0.0
 10
-188.7798305977107
 20
13.38488325528221
 30
0.0
  0
SPLINE
  5
45
330
1F
100
AcDbEntity
  8
0
 62
   250
370
    25
100
AcDbSpline
210
0.0
220
0.0
230
1.0
 70
     8
 71
     3
 72
    38
 73
    34
 74
     0
 42
0.0000000001
 43
0.0000000001
 12
1.0
 22
0.0
 32
0.0
 13
1.0
 23
0.0
 33
0.0
 40
0.0
 40
0.0
 40
0.0
 40
0.0
 40
1.0
 40
1.0
 40
1.0
 40
2.0
 40
2.0
 40
2.0
 40
3.0
 40
3.0
 40
3.0
 40
4.0
 40
4.0
 40
4.0
 40
5.0
 40
5.0
 40
5.0
 40
6.0
 40
6.0
 40
6.0
 40
7.0
 40
7.0
 40
7.0
 40
8.0
 40
8.0
 40
8.0
 40
9.0
 40
9.0
 40
9.0
 40
10.0
 40
10.0
 40
10.0
 40
11.0
 40
11.0
 40
11.0
 40
11.0
 10
392.9450149693668
 20
-79.61236350421301
 30
0.0
 10
392.9449796917971
 20
-52.27591919014684
 30
0.0
 10
392.9453324674579
 20
-24.93999448390954
 30
0.0
 10
392.9451208020615
 20
2.396662186130682
 30
0.0
 10
392.9451208020615
 20
2.859539133367261
 30
0.0
 10
392.9450855244989
 20
3.322380803036156
 30
0.0
 10
392.9425102621594
 20
3.78504608487754
 30
0.0
 10
392.9408169389792
 20
4.084129291847368
 30
0.0
 10
392.9380652888058
 20
4.383106666118635
 30
0.0
 10
392.9329853192621
 20
4.682225150657429
 30
0.0
 10
392.9062096464526
 20
6.263224561325903
 30
0.0
 10
392.8148760273415
 20
7.848139781849429
 30
0.0
 10
392.5396051776131
 20
9.405185725007698
 30
0.0
 10
392.2983771793424
 20
10.76972198894676
 30
0.0
 10
391.9158272505468
 20
12.11288004771258
 30
0.0
 10
391.3738579996881
 20
13.38770546058591
 30
0.0
 10
390.9977285879505
 20
14.20586277788219
 30
0.0
 10
390.5573587280062
 20
14.99308166955562
 30
0.0
 10
390.0620969749141
 20
15.74442327631141
 30
0.0
 10
389.5013247812377
 20
16.59514178729363
 30
0.0
 10
388.8701385652511
 20
17.39989362941003
 30
0.0
 10
388.1903045853593
 20
18.15920796614281
 30
0.0
 10
386.8066126029258
 20
19.70468286756023
 30
0.0
 10
385.2213798843117
 20
21.06188139771077
 30
0.0
 10
383.5132754023079
 20
22.24039905462232
 30
0.0
 10
381.7244205710905
 20
23.47465526626696
 30
0.0
 10
379.8008054366526
 20
24.51290931962517
 30
0.0
 10
377.77142815849
 20
25.28795745092412
 30
0.0
 10
376.8157588878081
 20
25.65290387415799
 30
0.0
 10
375.8366653131113
 20
25.95950120274929
 30
0.0
 10
374.843319601635
 20
26.20323390821131
 30
0.0
 10
373.8420717153093
 20
26.44887160225863
 30
0.0
 10
372.8263600268068
 20
26.63065690133059
 30
0.0
 10
371.8030989391243
 20
26.76164250495077
 30
0.0
  0
SPLINE
  5
46
330
1F
100
AcDbEntity
  8
0
 62
   250
370
    25
100
AcDbSpline
210
0.0
220
0.0
230
1.0
 70
     8
 71
     3
 72
     8
 73
     4
 74
     0
 42
0.0000000001
 43
0.0000000001
 12
1.0
 22
0.0
 32
0.0
 13
1.0
 23
0.0
 33
0.0
 40
0.0
 40
0.0
 40
0.0
 40
0.0
 40
1.0
 40
1.0
 40
1.0
 40
1.0
 10
392.6948264692676
 20
-372.9502225783057
 30
0.0
 10
392.6999417163802
 20
-372.9094064341132
 30
0.0
 10
392.7049511307918
 20
-372.8685550123517
 30
0.0
 10
392.7098547125048
 20
-372.8276683130276
 30
0.0
  0
SPLINE
  5
47
330
1F
100
AcDbEntity
  8
0
 62
   250
370
    25
100
AcDbSpline
210
0.0
220
0.0
230
1.0
 70
     8
 71
     3
 72
    89
 73
    85
 74
     0
 42
0.0000000001
 43
0.0000000001
 12
1.0
 22
0.0
 32
0.0
 13
1.0
 23
0.0
 33
0.0
 40
0.0
 40
0.0
 40
0.0
 40
0.0
 40
1.0
 40
1.0
 40
1.0
 40
2.0
 40
2.0
 40
2.0
 40
3.0
 40
3.0
 40
3.0
 40
4.0
 40
4.0
 40
4.0
 40
5.0
 40
5.0
 40
5.0
 40
6.0
 40
6.0
 40
6.0
 40
7.0
 40
7.0
 40
7.0
 40
8.0
 40
8.0
 40
8.0
 40
9.0
 40
9.0
 40
9.0
 40
10.0
 40
10.0
 40
10.0
 40
11.0
 40
11.0
 40
11.0
 40
12.0
 40
12.0
 40
12.0
 40
13.0
 40
13.0
 40
13.0
 40
14.0
 40
14.0
 40
14.0
 40
15.0
 40
15.0
 40
15.0
 40
16.0
 40
16.0
 40
16.0
 40
17.0
 40
17.0
 40
17.0
 40
18.0
 40
18.0
 40
18.0
 40
19.0
 40
19.0
 40
19.0
 40
20.0
 40
20.0
 40
20.0
 40
21.0
 40
21.0
 40
21.0
 40
22.0
 40
22.0
 40
22.0
 40
23.0
 40
23.0
 40
23.0
 40
24.0
 40
24.0
 40
24.0
 40
25.0
 40
25.0
 40
25.0
 40
26.0
 40
26.0
 40
26.0
 40
27.0
 40
27.0
 40
27.0
 40
28.0
 40
28.0
 40
28.0
 40
28.0
 10
-188.7801833733737
 20
-378.2701501293457
 30
0.0
 10
-188.6281370626811
 20
-378.632909343463
 30
0.0
 10
-188.4661424782944
 20
-378.9913646944911
 30
0.0
 10
-188.2951521145063
 20
-379.3455161824369
 30
0.0
 10
-188.0993968991866
 20
-379.7510318068892
 30
0.0
 10
-187.8918942542959
 20
-380.1508677431773
 30
0.0
 10
-187.6734202862875
 20
-380.5446006604877
 30
0.0
 10
-187.2736901827005
 20
-381.2650391191858
 30
0.0
 10
-186.8373419653104
 20
-381.9650165894242
 30
0.0
 10
-186.369596713926
 20
-382.6432983564007
 30
0.0
 10
-185.4027444547304
 20
-384.0453699508693
 30
0.0
 10
-184.3019079987808
 20
-385.3546262684359
 30
0.0
 10
-183.0929458021642
 20
-386.5539929670186
 30
0.0
 10
-183.0767181216742
 20
-386.5700795372497
 30
0.0
 10
-183.0604551636152
 20
-386.5861308299106
 30
0.0
 10
-183.0441569279914
 20
-386.6021821225683
 30
0.0
 10
-182.754951439581
 20
-386.8871190254616
 30
0.0
 10
-182.4596076546362
 20
-387.1657412439839
 30
0.0
 10
-182.1579139077572
 20
-387.4374137819491
 30
0.0
 10
-181.9065965255402
 20
-387.6637546472399
 30
0.0
 10
-181.6509047250964
 20
-387.8852977635156
 30
0.0
 10
-181.3909443391412
 20
-388.101690355116
 30
0.0
 10
-180.8041725791059
 20
-388.5902493706068
 30
0.0
 10
-180.1958109485047
 20
-389.0527735421794
 30
0.0
 10
-179.5661063903022
 20
-389.4845356759566
 30
0.0
 10
-178.4169043909732
 20
-390.2724248413808
 30
0.0
 10
-177.196582818014
 20
-390.9579032318806
 30
0.0
 10
-175.9158660515688
 20
-391.5076688248798
 30
0.0
 10
-175.1311518671114
 20
-391.8192755678846
 30
0.0
 10
-174.3269644660565
 20
-392.0816348283522
 30
0.0
 10
-173.5100771411413
 20
-392.2949582716841
 30
0.0
 10
-173.0634631519631
 20
-392.4115859058248
 30
0.0
 10
-172.6130744631919
 20
-392.5135733499562
 30
0.0
 10
-172.1600399569496
 20
-392.6018730983724
 30
0.0
 10
-171.7757261498305
 20
-392.6767673715955
 30
0.0
 10
-171.3895426317006
 20
-392.7418192038268
 30
0.0
 10
-171.0020538436147
 20
-392.7979458117845
 30
0.0
 10
-170.4851669423939
 20
-392.8728048074451
 30
0.0
 10
-169.9659869993653
 20
-392.9317536207091
 30
0.0
 10
-169.4457487293477
 20
-392.9780730652415
 30
0.0
 10
-169.0387514471088
 20
-393.0142678482496
 30
0.0
 10
-168.6310838911064
 20
-393.0427368442489
 30
0.0
 10
-168.2231341145776
 20
-393.0651028212743
 30
0.0
 10
-167.5705344158534
 20
-393.100838995916
 30
0.0
 10
-166.9171586106792
 20
-393.1209472087033
 30
0.0
 10
-166.2637122503646
 20
-393.1350229576451
 30
0.0
 10
-165.5817263389272
 20
-393.1497337027911
 30
0.0
 10
-164.8996345947906
 20
-393.1578828205995
 30
0.0
 10
-164.2175781282195
 20
-393.1659966608453
 30
0.0
 10
-77.1612933711677
 20
-394.2019576724032
 30
0.0
 10
9.901023849719959
 20
-394.7301686724004
 30
0.0
 10
96.96348218086969
 20
-394.7472782920449
 30
0.0
 10
183.9993765046123
 20
-394.7643879116927
 30
0.0
 10
271.0354119386105
 20
-394.2706430939603
 30
0.0
 10
358.0655560190455
 20
-393.2681252152442
 30
0.0
 10
361.1254262859771
 20
-393.2328476489586
 30
0.0
 10
364.1852965529164
 20
-393.1969703640493
 30
0.0
 10
367.2451315422887
 20
-393.1602464175426
 30
0.0
 10
367.7658284206715
 20
-393.1539670107412
 30
0.0
 10
368.2865252990511
 20
-393.1476876039463
 30
0.0
 10
368.8071868998604
 20
-393.1370337789235
 30
0.0
 10
369.8603280861873
 20
-393.1154439083634
 30
0.0
 10
370.9133634398228
 20
-393.0759330341175
 30
0.0
 10
371.9627299265589
 20
-392.9848463579717
 30
0.0
 10
373.1032183670246
 20
-392.8858222294039
 30
0.0
 10
374.2393676668204
 20
-392.7259090214335
 30
0.0
 10
375.3565729135278
 20
-392.4764260726559
 30
0.0
 10
376.4319742441847
 20
-392.236256401383
 30
0.0
 10
377.4898073468352
 20
-391.9130786166406
 30
0.0
 10
378.5137034307111
 20
-391.506751608154
 30
0.0
 10
379.8768991471372
 20
-390.9226256655988
 30
0.0
 10
381.1705627803952
 20
-390.1825023249204
 30
0.0
 10
382.3837230074014
 20
-389.3301610458886
 30
0.0
 10
383.7304793779355
 20
-388.3839108854054
 30
0.0
 10
384.9780352320686
 20
-387.2994079426441
 30
0.0
 10
386.1210636572932
 20
-386.1147519891965
 30
0.0
 10
387.2711475957806
 20
-384.9227935795342
 30
0.0
 10
388.3154693905395
 20
-383.6294474443571
 30
0.0
 10
389.2312044561851
 20
-382.2494596063923
 30
0.0
 10
389.668575723004
 20
-381.5903688354709
 30
0.0
 10
390.076596054663
 20
-380.9115226274333
 30
0.0
 10
390.4495857629992
 20
-380.2141204195268
 30
0.0
 10
390.7875448480231
 20
-379.5821580970787
 30
0.0
 10
391.0967527165151
 20
-378.9349558660009
 30
0.0
 10
391.3741402202238
 20
-378.2739248289365
 30
0.0
  0
SPLINE
  5
48
330
1F
100
AcDbEntity
  8
0
 62
   250
370
    25
100
AcDbSpline
210
0.0
220
0.0
230
1.0
 70
     8
 71
     3
 72
    74
 73
    70
 74
     0
 42
0.0000000001
 43
0.0000000001
 12
1.0
 22
0.0
 32
0.0
 13
1.0
 23
0.0
 33
0.0
 40
0.0
 40
0.0
 40
0.0
 40
0.0
 40
1.0
 40
1.0
 40
1.0
 40
2.0
 40
2.0
 40
2.0
 40
3.0
 40
3.0
 40
3.0
 40
4.0
 40
4.0
 40
4.0
 40
5.0
 40
5.0
 40
5.0
 40
6.0
 40
6.0
 40
6.0
 40
7.0
 40
7.0
 40
7.0
 40
8.0
 40
8.0
 40
8.0
 40
9.0
 40
9.0
 40
9.0
 40
10.0
 40
10.0
 40
10.0
 40
11.0
 40
11.0
 40
11.0
 40
12.0
 40
12.0
 40
12.0
 40
13.0
 40
13.0
 40
13.0
 40
14.0
 40
14.0
 40
14.0
 40
15.0
 40
15.0
 40
15.0
 40
16.0
 40
16.0
 40
16.0
 40
17.0
 40
17.0
 40
17.0
 40
18.0
 40
18.0
 40
18.0
 40
19.0
 40
19.0
 40
19.0
 40
20.0
 40
20.0
 40
20.0
 40
21.0
 40
21.0
 40
21.0
 40
22.0
 40
22.0
 40
22.0
 40
23.0
 40
23.0
 40
23.0
 40
23.0
 10
-188.7798305977107
 20
13.38488325528221
 30
0.0
 10
-188.4019725852211
 20
14.20783832159869
 30
0.0
 10
-187.9586746872745
 20
14.99890246799309
 30
0.0
 10
-187.460061565391
 20
15.75391294163978
 30
0.0
 10
-186.8973138279965
 20
16.60597200014361
 30
0.0
 10
-186.2641167907293
 20
17.41209966734288
 30
0.0
 10
-185.5821661568606
 20
18.17257816376721
 30
0.0
 10
-184.1984388968632
 20
19.71558363554396
 30
0.0
 10
-182.6140528398292
 20
21.07052440145193
 30
0.0
 10
-180.9071125175275
 20
22.2473840127478
 30
0.0
 10
-179.1193865684247
 20
23.47991162364299
 30
0.0
 10
-177.1972530917747
 20
24.51710735001207
 30
0.0
 10
-175.1694985816633
 20
25.29081493379326
 30
0.0
 10
-174.216051797654
 20
25.65459719733237
 30
0.0
 10
-173.2392865423332
 20
25.9601361989352
 30
0.0
 10
-172.2482338726636
 20
26.20302224281291
 30
0.0
 10
-171.2459629369158
 20
26.44865993686343
 30
0.0
 10
-170.2290870887219
 20
26.63023357053378
 30
0.0
 10
-169.2049440618828
 20
26.76185417034917
 30
0.0
 10
-168.9140099727232
 20
26.79018205607668
 30
0.0
 10
-168.6226525527669
 20
26.81455885438048
 30
0.0
 10
-168.3310481898496
 20
26.8351962306561
 30
0.0
 10
-168.0197589449434
 20
26.85720943201877
 30
0.0
 10
-167.7081522019395
 20
26.87495404786014
 30
0.0
 10
-167.3964396262362
 20
26.89012340136454
 30
0.0
 10
-166.9649244354289
 20
26.91114883086864
 30
0.0
 10
-166.5331623016578
 20
26.92723540109465
 30
0.0
 10
-166.1012943351842
 20
26.93746589531742
 30
0.0
 10
-165.7999180863999
 20
26.94462724127939
 30
0.0
 10
-165.4984712824916
 20
26.94889582679395
 30
0.0
 10
-165.1970244785799
 20
26.95305857961574
 30
0.0
 10
-163.2799709714727
 20
26.97958730946612
 30
0.0
 10
-161.3628821867999
 20
27.00202384162207
 30
0.0
 10
-159.4457934021307
 20
27.02424870837961
 30
0.0
 10
-151.1475573174075
 20
27.12055646434234
 30
0.0
 10
-142.8492506775505
 20
27.21312479827657
 30
0.0
 10
-134.5509087601284
 20
27.30100121589622
 30
0.0
 10
-105.3163543014741
 20
27.61066769275218
 30
0.0
 10
-76.0812001241936
 20
27.86233785063569
 30
0.0
 10
-46.84565789368426
 20
28.05668196330676
 30
0.0
 10
2.421474245792558
 20
28.38412833356953
 30
0.0
 10
51.6896647122553
 20
28.54873345785804
 30
0.0
 10
100.9578551787145
 20
28.54933317648492
 30
0.0
 10
150.1484702769241
 20
28.54996817268013
 30
0.0
 10
199.3391206526827
 20
28.38716220426842
 30
0.0
 10
248.5286774239003
 20
28.06292609253783
 30
0.0
 10
275.3533860520006
 20
27.88611493031262
 30
0.0
 10
302.1778124595724
 20
27.66129100037099
 30
0.0
 10
329.0017097036481
 20
27.3856673749776
 30
0.0
 10
331.2569692387376
 20
27.36249001393012
 30
0.0
 10
333.5122287738264
 20
27.33895987721672
 30
0.0
 10
335.7674883089152
 20
27.31521807510781
 30
0.0
 10
345.175062743061
 20
27.21619394654411
 30
0.0
 10
354.5825666220778
 20
27.11350095108599
 30
0.0
 10
363.9899646683916
 20
27.00071857166942
 30
0.0
 10
364.5673525957939
 20
26.99380416867771
 30
0.0
 10
365.1447052456298
 20
26.98685448811766
 30
0.0
 10
365.7220578954656
 20
26.98036341592276
 30
0.0
 10
366.4229525824298
 20
26.972461241076
 30
0.0
 10
367.1238472693979
 20
26.96529989511756
 30
0.0
 10
367.8247419563659
 20
26.95394051877478
 30
0.0
 10
368.4397004918608
 20
26.94399224508097
 30
0.0
 10
369.0546590273558
 20
26.93083371285819
 30
0.0
 10
369.6691589544914
 20
26.90550442026446
 30
0.0
 10
369.9524378117638
 20
26.8938275458244
 30
0.0
 10
370.2355755587752
 20
26.87954013147873
 30
0.0
 10
370.518572195519
 20
26.86235995669528
 30
0.0
 10
370.9473004585928
 20
26.83628983521067
 30
0.0
 10
371.3756053908673
 20
26.80348169856378
 30
0.0
 10
371.8030989391243
 20
26.76164250495077
 30
0.0
  0
SPLINE
  5
49
330
1F
100
AcDbEntity
  8
0
 62
   250
370
    25
100
AcDbSpline
210
0.0
220
0.0
230
1.0
 70
     8
 71
     3
 72
    29
 73
    25
 74
     0
 42
0.0000000001
 43
0.0000000001
 12
1.0
 22
0.0
 32
0.0
 13
1.0
 23
0.0
 33
0.0
 40
0.0
 40
0.0
 40
0.0
 40
0.0
 40
1.0
 40
1.0
 40
1.0
 40
2.0
 40
2.0
 40
2.0
 40
3.0
 40
3.0
 40
3.0
 40
4.0
 40
4.0
 40
4.0
 40
5.0
 40
5.0
 40
5.0
 40
6.0
 40
6.0
 40
6.0
 40
7.0
 40
7.0
 40
7.0
 40
8.0
 40
8.0
 40
8.0
 40
8.0
 10
-188.7801833733737
 20
-378.2701501293457
 30
0.0
 10
-189.0666019340484
 20
-377.5226184997471
 30
0.0
 10
-189.3143915596391
 20
-376.7594941858501
 30
0.0
 10
-189.5183311703381
 20
-375.9851163283098
 30
0.0
 10
-189.7274565832793
 20
-375.1910535887823
 30
0.0
 10
-189.8905094946548
 20
-374.3851728645504
 30
0.0
 10
-190.0136634785524
 20
-373.5731538437821
 30
0.0
 10
-190.0851711054171
 20
-373.1018102806377
 30
0.0
 10
-190.1432379795239
 20
-372.6284206186446
 30
0.0
 10
-190.1875818803462
 20
-372.1539020745298
 30
0.0
 10
-190.2188378040763
 20
-371.8195413012801
 30
0.0
 10
-190.243285157511
 20
-371.4846513645248
 30
0.0
 10
-190.2640283664894
 20
-371.1494439296745
 30
0.0
 10
-190.2982476057849
 20
-370.5965386332816
 30
0.0
 10
-190.3223774611249
 20
-370.0428572304241
 30
0.0
 10
-190.3342660009636
 20
-369.4890347173023
 30
0.0
 10
-190.3440378868245
 20
-369.036423541853
 30
0.0
 10
-190.3456253773064
 20
-368.5837065337057
 30
0.0
 10
-190.3468248145595
 20
-368.1309895255623
 30
0.0
 10
-190.3505642365877
 20
-366.7146667160135
 30
0.0
 10
-190.3505642365877
 20
-365.2983782981135
 30
0.0
 10
-190.3505289590194
 20
-363.8820898802142
 30
0.0
 10
-190.3483064723455
 20
-241.7549684609293
 30
0.0
 10
-190.3509522898162
 20
-119.6278470416488
 30
0.0
 10
-190.3499645179612
 20
2.4992493488896
 30
0.0
  0
SPLINE
  5
4A
330
1F
100
AcDbEntity
  8
0
 62
   250
370
    25
100
AcDbSpline
210
0.0
220
0.0
230
1.0
 70
     8
 71
     3
 72
    47
 73
    43
 74
     0
 42
0.0000000001
 43
0.0000000001
 12
1.0
 22
0.0
 32
0.0
 13
1.0
 23
0.0
 33
0.0
 40
0.0
 40
0.0
 40
0.0
 40
0.0
 40
1.0
 40
1.0
 40
1.0
 40
2.0
 40
2.0
 40
2.0
 40
3.0
 40
3.0
 40
3.0
 40
4.0
 40
4.0
 40
4.0
 40
5.0
 40
5.0
 40
5.0
 40
6.0
 40
6.0
 40
6.0
 40
7.0
 40
7.0
 40
7.0
 40
8.0
 40
8.0
 40
8.0
 40
9.0
 40
9.0
 40
9.0
 40
10.0
 40
10.0
 40
10.0
 40
11.0
 40
11.0
 40
11.0
 40
12.0
 40
12.0
 40
12.0
 40
13.0
 40
13.0
 40
13.0
 40
14.0
 40
14.0
 40
14.0
 40
14.0
 10
325.3254345210017
 20
-97.86830391919761
 30
0.0
 10
321.7678330713363
 20
-97.54681946576055
 30
0.0
 10
318.2056455380562
 20
-97.27892163415343
 30
0.0
 10
314.6413060732296
 20
-97.04489026532245
 30
0.0
 10
311.0883259847544
 20
-96.81163500293496
 30
0.0
 10
307.5332292422958
 20
-96.61203453793483
 30
0.0
 10
303.9770741728509
 20
-96.43391811025528
 30
0.0
 10
299.2260679333021
 20
-96.1959356541036
 30
0.0
 10
294.4731567051741
 20
-95.9962999115313
 30
0.0
 10
289.7195399257264
 20
-95.81758376524154
 30
0.0
 10
283.9714838302407
 20
-95.60154395476916
 30
0.0
 10
278.222369407763
 20
-95.41608979348781
 30
0.0
 10
272.4727258218015
 20
-95.24799219438205
 30
0.0
 10
260.3216856127298
 20
-94.89271183329747
 30
0.0
 10
248.1683523618569
 20
-94.61479517311273
 30
0.0
 10
236.0135374532009
 20
-94.43371542994151
 30
0.0
 10
229.8720306609276
 20
-94.34220542530974
 30
0.0
 10
223.7301358154252
 20
-94.27546027157753
 30
0.0
 10
217.5881351372249
 20
-94.22173253948647
 30
0.0
 10
209.7152406692113
 20
-94.1528707318344
 30
0.0
 10
201.8422050909373
 20
-94.10542240637909
 30
0.0
 10
193.9690284023887
 20
-94.07264954812929
 30
0.0
 10
193.963666212317
 20
-94.07264954812929
 30
0.0
 10
193.9582687446699
 20
-94.07261427056032
 30
0.0
 10
193.9529065545976
 20
-94.07261427056032
 30
0.0
 10
192.4962958426523
 20
-94.06591153314059
 30
0.0
 10
191.0397204082811
 20
-94.05994962457933
 30
0.0
 10
189.5831096963352
 20
-94.0558221494356
 30
0.0
 10
188.1050855016573
 20
-94.05162411915074
 30
0.0
 10
186.6270260294098
 20
-94.04929579983921
 30
0.0
 10
185.149001834732
 20
-94.0477435869609
 30
0.0
 10
178.6965232956498
 20
-94.040899739273
 30
0.0
 10
172.2440447565676
 20
-94.04827275044087
 30
0.0
 10
165.7916014950601
 20
-94.04806108504889
 30
0.0
 10
163.2497470114604
 20
-94.04799052991865
 30
0.0
 10
160.7079278054347
 20
-94.04672053756289
 30
0.0
 10
158.166073321835
 20
-94.04393360989553
 30
0.0
 10
147.8616373200037
 20
-94.03275062166807
 30
0.0
 10
137.5572013181731
 20
-93.99701444792277
 30
0.0
 10
127.2527653163418
 20
-93.98142176401909
 30
0.0
 10
121.0333303801427
 20
-93.9720379316248
 30
0.0
 10
114.813860166381
 20
-93.96999183283195
 30
0.0
 10
108.5944252301819
 20
-93.96981544500188
 30
0.0
  0
SPLINE
  5
4B
330
1F
100
AcDbEntity
  8
0
 62
   250
370
    25
100
AcDbSpline
210
0.0
220
0.0
230
1.0
 70
     8
 71
     3
 72
     8
 73
     4
 74
     0
 42
0.0000000001
 43
0.0000000001
 12
1.0
 22
0.0
 32
0.0
 13
1.0
 23
0.0
 33
0.0
 40
0.0
 40
0.0
 40
0.0
 40
0.0
 40
1.0
 40
1.0
 40
1.0
 40
1.0
 10
330.8961502907665
 20
-98.46512977054631
 30
0.0
 10
329.088880569942
 20
-98.2378011391479
 30
0.0
 10
327.2789650316438
 20
-98.04313953329753
 30
0.0
 10
325.4646750751281
 20
-97.88096856517475
 30
0.0
  0
SPLINE
  5
4C
330
1F
100
AcDbEntity
  8
0
 62
   250
370
    25
100
AcDbSpline
210
0.0
220
0.0
230
1.0
 70
     8
 71
     3
 72
    17
 73
    13
 74
     0
 42
0.0000000001
 43
0.0000000001
 12
1.0
 22
0.0
 32
0.0
 13
1.0
 23
0.0
 33
0.0
 40
0.0
 40
0.0
 40
0.0
 40
0.0
 40
1.0
 40
1.0
 40
1.0
 40
2.0
 40
2.0
 40
2.0
 40
3.0
 40
3.0
 40
3.0
 40
4.0
 40
4.0
 40
4.0
 40
4.0
 10
392.7099252676369
 20
-372.8268216514411
 30
0.0
 10
392.8024230464335
 20
-372.0708939610609
 30
0.0
 10
392.8563624452892
 20
-371.3112621262325
 30
0.0
 10
392.8915341788769
 20
-370.5507130746718
 30
0.0
 10
392.9119951673218
 20
-370.1079796177838
 30
0.0
 10
392.9260709162636
 20
-369.664928662802
 30
0.0
 10
392.9340789238186
 20
-369.22184243025
 30
0.0
 10
392.9444858058714
 20
-368.6431845104651
 30
0.0
 10
392.9445210834378
 20
-368.0644913131136
 30
0.0
 10
392.9445563610003
 20
-367.485763740408
 30
0.0
 10
392.9482252278996
 20
-271.5279283841087
 30
0.0
 10
392.942721927552
 20
-175.5701635829449
 30
0.0
 10
392.9450149693668
 20
-79.61236350421301
 30
0.0
  0
SPLINE
  5
4D
330
1F
100
AcDbEntity
  8
0
 62
   250
370
    25
100
AcDbSpline
210
0.0
220
0.0
230
1.0
 70
     8
 71
     3
 72
   137
 73
   133
 74
     0
 42
0.0000000001
 43
0.0000000001
 12
1.0
 22
0.0
 32
0.0
 13
1.0
 23
0.0
 33
0.0
 40
0.0
 40
0.0
 40
0.0
 40
0.0
 40
1.0
 40
1.0
 40
1.0
 40
2.0
 40
2.0
 40
2.0
 40
3.0
 40
3.0
 40
3.0
 40
4.0
 40
4.0
 40
4.0
 40
5.0
 40
5.0
 40
5.0
 40
6.0
 40
6.0
 40
6.0
 40
7.0
 40
7.0
 40
7.0
 40
8.0
 40
8.0
 40
8.0
 40
9.0
 40
9.0
 40
9.0
 40
10.0
 40
10.0
 40
10.0
 40
11.0
 40
11.0
 40
11.0
 40
12.0
 40
12.0
 40
12.0
 40
13.0
 40
13.0
 40
13.0
 40
14.0
 40
14.0
 40
14.0
 40
15.0
 40
15.0
 40
15.0
 40
16.0
 40
16.0
 40
16.0
 40
17.0
 40
17.0
 40
17.0
 40
18.0
 40
18.0
 40
18.0
 40
19.0
 40
19.0
 40
19.0
 40
20.0
 40
20.0
 40
20.0
 40
21.0
 40
21.0
 40
21.0
 40
22.0
 40
22.0
 40
22.0
 40
23.0
 40
23.0
 40
23.0
 40
24.0
 40
24.0
 40
24.0
 40
25.0
 40
25.0
 40
25.0
 40
26.0
 40
26.0
 40
26.0
 40
27.0
 40
27.0
 40
27.0
 40
28.0
 40
28.0
 40
28.0
 40
29.0
 40
29.0
 40
29.0
 40
30.0
 40
30.0
 40
30.0
 40
31.0
 40
31.0
 40
31.0
 40
32.0
 40
32.0
 40
32.0
 40
33.0
 40
33.0
 40
33.0
 40
34.0
 40
34.0
 40
34.0
 40
35.0
 40
35.0
 40
35.0
 40
36.0
 40
36.0
 40
36.0
 40
37.0
 40
37.0
 40
37.0
 40
38.0
 40
38.0
 40
38.0
 40
39.0
 40
39.0
 40
39.0
 40
40.0
 40
40.0
 40
40.0
 40
41.0
 40
41.0
 40
41.0
 40
42.0
 40
42.0
 40
42.0
 40
43.0
 40
43.0
 40
43.0
 40
44.0
 40
44.0
 40
44.0
 40
44.0
 10
401.3973434636222
 20
-79.61236350421301
 30
0.0
 10
401.39751985146
 20
-52.30325930332305
 30
0.0
 10
401.3969906879647
 20
-24.99411027059591
 30
0.0
 10
401.3979431822568
 20
2.31488878748067
 30
0.0
 10
401.3979784598194
 20
2.908116342142866
 30
0.0
 10
401.3979784598194
 20
3.501308619238662
 30
0.0
 10
401.3926162697471
 20
4.094571451469183
 30
0.0
 10
401.3797399580494
 20
5.514140718809471
 30
0.0
 10
401.3359252207243
 20
6.934062761815688
 30
0.0
 10
401.2026112977256
 20
8.347105679395629
 30
0.0
 10
401.0768114963483
 20
9.680103799075331
 30
0.0
 10
400.8713902278695
 20
11.00699889978508
 30
0.0
 10
400.5702609220504
 20
12.31177496643359
 30
0.0
 10
400.2576664071916
 20
13.66625712397611
 30
0.0
 10
399.8419555660829
 20
14.99696220184812
 30
0.0
 10
399.3217525736258
 20
16.28596919636503
 30
0.0
 10
398.7288425170651
 20
17.75506816677309
 30
0.0
 10
398.0001843854259
 20
19.17001607293257
 30
0.0
 10
397.1569094409352
 20
20.51095164502446
 30
0.0
 10
395.5681489656869
 20
23.03728399945355
 30
0.0
 10
393.5724617633251
 20
25.30079848505251
 30
0.0
 10
391.3114519849354
 20
27.25076596150236
 30
0.0
 10
388.9364956674393
 20
29.29894618249416
 30
0.0
 10
386.2688061049023
 20
31.00119458848772
 30
0.0
 10
383.4173204220194
 20
32.30526510380695
 30
0.0
 10
381.9746443487555
 20
32.96506142605188
 30
0.0
 10
380.4849080020712
 20
33.52294085929822
 30
0.0
 10
378.9623282411732
 20
33.96761458233183
 30
0.0
 10
378.166783843862
 20
34.19995263388884
 30
0.0
 10
377.3623142222746
 20
34.4013875373817
 30
0.0
 10
376.5515299163297
 20
34.57315400762577
 30
0.0
 10
375.7305151161556
 20
34.74710768698152
 30
0.0
 10
374.9030445213597
 20
34.89061682663249
 30
0.0
 10
374.0715170064304
 20
35.00421059007402
 30
0.0
 10
373.6525253516574
 20
35.0614660801588
 30
0.0
 10
373.2324753698866
 20
35.11110161591937
 30
0.0
 10
372.8117551143671
 20
35.15410496922711
 30
0.0
 10
372.2510887533821
 20
35.21139573687027
 30
0.0
 10
371.6892582327195
 20
35.25693907494635
 30
0.0
 10
371.1268279934158
 20
35.29232247392988
 30
0.0
 10
370.5325421117661
 20
35.32971669419182
 30
0.0
 10
369.9375859563567
 20
35.35578681567708
 30
0.0
 10
369.3424181355515
 20
35.37349615395301
 30
0.0
 10
368.7649243754474
 20
35.3907116063019
 30
0.0
 10
368.1872542275242
 20
35.40002488380019
 30
0.0
 10
367.6095840795824
 20
35.40856205484215
 30
0.0
 10
365.988509353619
 20
35.43258607748965
 30
0.0
 10
364.367364072519
 20
35.45064819141932
 30
0.0
 10
362.7462187914196
 20
35.46885141562581
 30
0.0
 10
358.288827736071
 20
35.51887500461775
 30
0.0
 10
353.8314366807192
 20
35.57009803086697
 30
0.0
 10
349.3740809029344
 20
35.61990995446371
 30
0.0
 10
325.9649462426305
 20
35.88152838603782
 30
0.0
 10
302.5553529739615
 20
36.10444732739671
 30
0.0
 10
279.1455127623315
 20
36.29103037548245
 30
0.0
 10
253.0030369886381
 20
36.49937968196702
 30
0.0
 10
226.8601731617034
 20
36.66232676064016
 30
0.0
 10
200.7171329469457
 20
36.77902494991467
 30
0.0
 10
173.509909667606
 20
36.90048561063785
 30
0.0
 10
146.3024394453053
 20
36.97181684966637
 30
0.0
 10
119.0949692229988
 20
36.99347727536888
 30
0.0
 10
71.44079796924696
 20
37.03140065912395
 30
0.0
 10
23.78652088279589
 20
36.91688967896435
 30
0.0
 10
-23.86690954206509
 20
36.64930933868234
 30
0.0
 10
-49.8596673244483
 20
36.50336604695584
 30
0.0
 10
-75.85217816386798
 20
36.31184413959167
 30
0.0
 10
-101.8442656724873
 20
36.07502583711496
 30
0.0
 10
-119.47902717286
 20
35.91433652268439
 30
0.0
 10
-137.113577007831
 20
35.73276288901083
 30
0.0
 10
-154.7479151774072
 20
35.53002271556532
 30
0.0
 10
-157.8034815812578
 20
35.49492153711395
 30
0.0
 10
-160.8590479851059
 20
35.45915008489585
 30
0.0
 10
-163.9146143889572
 20
35.42337863268383
 30
0.0
 10
-164.3883921041743
 20
35.41784005477532
 30
0.0
 10
-164.8621698193946
 20
35.41230147687033
 30
0.0
 10
-165.3359122570466
 20
35.40461096741877
 30
0.0
 10
-166.2935570714431
 20
35.38905356068942
 30
0.0
 10
-167.2511666082675
 20
35.36471203995073
 30
0.0
 10
-168.2074355975833
 20
35.31151346998853
 30
0.0
 10
-169.3785096880072
 20
35.24632052749509
 30
0.0
 10
-170.5475729571552
 20
35.13787728873038
 30
0.0
 10
-171.7086282187543
 20
34.97157884126042
 30
0.0
 10
-172.7075830632707
 20
34.82849303240337
 30
0.0
 10
-173.700575999085
 20
34.64261553564982
 30
0.0
 10
-174.6828445547492
 20
34.41115942324222
 30
0.0
 10
-176.6908436277408
 20
33.93808725934768
 30
0.0
 10
-178.653934358848
 20
33.27465734777697
 30
0.0
 10
-180.5382502844421
 20
32.43487488234361
 30
0.0
 10
-182.5078320877446
 20
31.55709847801788
 30
0.0
 10
-184.3913366293173
 20
30.48660072907424
 30
0.0
 10
-186.1554266090072
 20
29.24599455549933
 30
0.0
 10
-187.9950105805476
 20
27.95226036709919
 30
0.0
 10
-189.7047025530254
 20
26.47353062109492
 30
0.0
 10
-191.2351492112059
 20
24.82596244284627
 30
0.0
 10
-192.6564823568611
 20
23.29586856032845
 30
0.0
 10
-193.923229207055
 20
21.62014888418591
 30
0.0
 10
-194.9824381347865
 20
19.82039328497969
 30
0.0
 10
-195.9219150025445
 20
18.22411868811051
 30
0.0
 10
-196.698127293535
 20
16.53023106532947
 30
0.0
 10
-197.2839465592775
 20
14.77365520725755
 30
0.0
 10
-197.860240882123
 20
13.04558362274289
 30
0.0
 10
-198.2523157538241
 20
11.25683462421961
 30
0.0
 10
-198.4847243605149
 20
9.449388515568893
 30
0.0
 10
-198.6112649907808
 20
8.465109138622788
 30
0.0
 10
-198.6904984046596
 20
7.475291183774908
 30
0.0
 10
-198.7370647921555
 20
6.484203236543668
 30
0.0
 10
-198.799435529352
 20
5.157096470432312
 30
0.0
 10
-198.8032807840759
 20
3.827696662515832
 30
0.0
 10
-198.8022577346525
 20
2.4992493488896
 30
0.0
 10
-198.8018344038589
 20
-120.746921971097
 30
0.0
 10
-198.8028927308477
 20
-243.9930477646955
 30
0.0
 10
-198.8020813468224
 20
-367.239208835861
 30
0.0
 10
-198.8020813468224
 20
-367.7195481662723
 30
0.0
 10
-198.8020813468224
 20
-368.1999218900824
 30
0.0
 10
-198.7980244267031
 20
-368.6802612326288
 30
0.0
 10
-198.7945672252042
 20
-369.096430682107
 30
0.0
 10
-198.7880408754406
 20
-369.5126001315782
 30
0.0
 10
-198.7769637196274
 20
-369.9286990259212
 30
0.0
 10
-198.7447553016103
 20
-371.137943443069
 30
0.0
 10
-198.6739532260717
 20
-372.3465528640165
 30
0.0
 10
-198.5400395844518
 20
-373.5486712127798
 30
0.0
 10
-198.4311730148932
 20
-374.5260361867274
 30
0.0
 10
-198.2805730844175
 20
-375.4991325751586
 30
0.0
 10
-198.0833714888805
 20
-376.4626687431235
 30
0.0
 10
-197.6628981763181
 20
-378.5172694811764
 30
0.0
 10
-197.03058307821
 20
-380.528408257569
 30
0.0
 10
-196.2009958294339
 20
-382.4543517113797
 30
0.0
 10
-195.4149763750175
 20
-384.2792249377783
 30
0.0
 10
-194.4518635378468
 20
-386.0276516780386
 30
0.0
 10
-193.3394913177219
 20
-387.6743731946963
 30
0.0
 10
-192.0958159958826
 20
-389.5154741015865
 30
0.0
 10
-190.6655576259538
 20
-391.2295052147168
 30
0.0
 10
-189.0759504891125
 20
-392.7823178499204
 30
0.0
  0
SPLINE
  5
4E
330
1F
100
AcDbEntity
  8
0
 62
   250
370
    25
100
AcDbSpline
210
0.0
220
0.0
230
1.0
 70
     8
 71
     3
 72
    29
 73
    25
 74
     0
 42
0.0000000001
 43
0.0000000001
 12
1.0
 22
0.0
 32
0.0
 13
1.0
 23
0.0
 33
0.0
 40
0.0
 40
0.0
 40
0.0
 40
0.0
 40
1.0
 40
1.0
 40
1.0
 40
2.0
 40
2.0
 40
2.0
 40
3.0
 40
3.0
 40
3.0
 40
4.0
 40
4.0
 40
4.0
 40
5.0
 40
5.0
 40
5.0
 40
6.0
 40
6.0
 40
6.0
 40
7.0
 40
7.0
 40
7.0
 40
8.0
 40
8.0
 40
8.0
 40
8.0
 10
401.1018232908493
 20
-373.8361833780094
 30
0.0
 10
401.1596079444246
 20
-373.3647339821632
 30
0.0
 10
401.2049748946719
 20
-372.8923673695982
 30
0.0
 10
401.2429335559917
 20
-372.4191540954396
 30
0.0
 10
401.2800102781561
 20
-371.9569826995273
 30
0.0
 10
401.3099962095054
 20
-371.4939999195914
 30
0.0
 10
401.3322210762626
 20
-371.0308054742554
 30
0.0
 10
401.3872893572373
 20
-369.881391809534
 30
0.0
 10
401.3943095929201
 20
-368.7304964870232
 30
0.0
 10
401.397025965524
 20
-367.5797784521869
 30
0.0
 10
401.4002362240639
 20
-366.2015545273421
 30
0.0
 10
401.3972023533618
 20
-364.8235422678984
 30
0.0
 10
401.3966731898664
 20
-363.4454241757561
 30
0.0
 10
401.3963204142056
 20
-362.4974101609037
 30
0.0
 10
401.3971317982258
 20
-361.5493961460519
 30
0.0
 10
401.3974492963208
 20
-360.6013468536369
 30
0.0
 10
401.3977667944191
 20
-359.6008398214796
 30
0.0
 10
401.3975551290226
 20
-358.6003327893184
 30
0.0
 10
401.3974140187615
 20
-357.5998257571642
 30
0.0
 10
401.3972023533618
 20
-356.0994356233597
 30
0.0
 10
401.3972023533618
 20
-354.5990102119927
 30
0.0
 10
401.3972023533618
 20
-353.0986200781946
 30
0.0
 10
401.39751985146
 20
-261.9365227943441
 30
0.0
 10
401.3972376309243
 20
-170.7744255104974
 30
0.0
 10
401.3973434636222
 20
-79.61236350421301
 30
0.0
  0
SPLINE
  5
4F
330
1F
100
AcDbEntity
  8
0
 62
   250
370
    25
100
AcDbSpline
210
0.0
220
0.0
230
1.0
 70
     8
 71
     3
 72
    80
 73
    76
 74
     0
 42
0.0000000001
 43
0.0000000001
 12
1.0
 22
0.0
 32
0.0
 13
1.0
 23
0.0
 33
0.0
 40
0.0
 40
0.0
 40
0.0
 40
0.0
 40
1.0
 40
1.0
 40
1.0
 40
2.0
 40
2.0
 40
2.0
 40
3.0
 40
3.0
 40
3.0
 40
4.0
 40
4.0
 40
4.0
 40
5.0
 40
5.0
 40
5.0
 40
6.0
 40
6.0
 40
6.0
 40
7.0
 40
7.0
 40
7.0
 40
8.0
 40
8.0
 40
8.0
 40
9.0
 40
9.0
 40
9.0
 40
10.0
 40
10.0
 40
10.0
 40
11.0
 40
11.0
 40
11.0
 40
12.0
 40
12.0
 40
12.0
 40
13.0
 40
13.0
 40
13.0
 40
14.0
 40
14.0
 40
14.0
 40
15.0
 40
15.0
 40
15.0
 40
16.0
 40
16.0
 40
16.0
 40
17.0
 40
17.0
 40
17.0
 40
18.0
 40
18.0
 40
18.0
 40
19.0
 40
19.0
 40
19.0
 40
20.0
 40
20.0
 40
20.0
 40
21.0
 40
21.0
 40
21.0
 40
22.0
 40
22.0
 40
22.0
 40
23.0
 40
23.0
 40
23.0
 40
24.0
 40
24.0
 40
24.0
 40
25.0
 40
25.0
 40
25.0
 40
25.0
 10
401.1018232908493
 20
-373.8361833780094
 30
0.0
 10
400.8613008439079
 20
-375.8561062683997
 30
0.0
 10
400.429644542833
 20
-377.8553212273861
 30
0.0
 10
399.8010688667557
 20
-379.790295738169
 30
0.0
 10
399.2310186731454
 20
-381.5450724403559
 30
0.0
 10
398.4990091727052
 20
-383.2470386258188
 30
0.0
 10
397.6267007911607
 20
-384.8731580437672
 30
0.0
 10
395.7917734583635
 20
-388.293776703541
 30
0.0
 10
393.3360667916423
 20
-391.3787998752379
 30
0.0
 10
390.4194587213927
 20
-393.9410447921484
 30
0.0
 10
389.0078974616042
 20
-395.1810865246593
 30
0.0
 10
387.488386848967
 20
-396.2986445470346
 30
0.0
 10
385.8772251191236
 20
-397.2636976503489
 30
0.0
 10
384.3962023313127
 20
-398.150787332171
 30
0.0
 10
382.8377100079391
 20
-398.908972786786
 30
0.0
 10
381.2230205214646
 20
-399.5215324477747
 30
0.0
 10
379.4160682987442
 20
-400.2070461158415
 30
0.0
 10
377.5387373312729
 20
-400.7101747662063
 30
0.0
 10
375.6343837480293
 20
-401.0343403228098
 30
0.0
 10
373.738743723663
 20
-401.3569889440646
 30
0.0
 10
371.8163280264763
 20
-401.502261962025
 30
0.0
 10
369.8932420555408
 20
-401.5644563113882
 30
0.0
 10
368.9792003130715
 20
-401.5940189119336
 30
0.0
 10
368.0650174603444
 20
-401.6047785696543
 30
0.0
 10
367.1507993300373
 20
-401.6155382273725
 30
0.0
 10
359.4045513249915
 20
-401.7065543483854
 30
0.0
 10
351.6580563769828
 20
-401.7951010397644
 30
0.0
 10
343.9115261514057
 20
-401.8795202558842
 30
0.0
 10
331.9687646936842
 20
-402.0096944754791
 30
0.0
 10
320.025897403277
 20
-402.1301320867802
 30
0.0
 10
308.0829595577318
 20
-402.2409036449203
 30
0.0
 10
283.777527770801
 20
-402.4663625710548
 30
0.0
 10
259.4717432082106
 20
-402.6518167370209
 30
0.0
 10
235.1657117026465
 20
-402.7978658614396
 30
0.0
 10
210.8593979765602
 20
-402.943879708295
 30
0.0
 10
186.5528725850748
 20
-403.0504532360514
 30
0.0
 10
162.2462060833282
 20
-403.1168103382319
 30
0.0
 10
144.0161003743196
 20
-403.1665517066936
 30
0.0
 10
125.785959387735
 20
-403.193680155167
 30
0.0
 10
107.5557831235955
 20
-403.1986190144464
 30
0.0
 10
23.50116064910965
 20
-403.2214435998312
 30
0.0
 10
-60.55360293564377
 20
-402.7728893445083
 30
0.0
 10
-144.6031101630209
 20
-401.8427257542492
 30
0.0
 10
-149.6072329406705
 20
-401.7873399751865
 30
0.0
 10
-154.6113204407482
 20
-401.7302608729334
 30
0.0
 10
-159.6154079408317
 20
-401.6743106528057
 30
0.0
 10
-161.6561798729013
 20
-401.6515213449836
 30
0.0
 10
-163.6969518049708
 20
-401.6288731474295
 30
0.0
 10
-165.7376531819094
 20
-401.5982169423206
 30
0.0
 10
-166.0364541683506
 20
-401.5937014138386
 30
0.0
 10
-166.3352551547915
 20
-401.5890447750917
 30
0.0
 10
-166.6339855861018
 20
-401.5824478701953
 30
0.0
 10
-166.9429112340662
 20
-401.5756040223361
 30
0.0
 10
-167.2517663269007
 20
-401.5667140756327
 30
0.0
 10
-167.560586142166
 20
-401.5556721973859
 30
0.0
 10
-168.2313890650935
 20
-401.5316481747397
 30
0.0
 10
-168.901909767486
 20
-401.4975700457085
 30
0.0
 10
-169.5712663101931
 20
-401.447969787515
 30
0.0
 10
-170.1237482757962
 20
-401.407012533055
 30
0.0
 10
-170.6754541349424
 20
-401.355507286281
 30
0.0
 10
-171.2257841689989
 20
-401.2916548912969
 30
0.0
 10
-171.6466455347898
 20
-401.242830739561
 30
0.0
 10
-172.0666955165555
 20
-401.1867746867316
 30
0.0
 10
-172.4854755059368
 20
-401.1226400712266
 30
0.0
 10
-173.4910625329128
 20
-400.9686182168156
 30
0.0
 10
-174.4893471036717
 20
-400.7679241422229
 30
0.0
 10
-175.4751434159622
 20
-400.5168184253941
 30
0.0
 10
-176.5076472260166
 20
-400.2537536136075
 30
0.0
 10
-177.5263927852218
 20
-399.935373577866
 30
0.0
 10
-178.5240070822166
 20
-399.561149154716
 30
0.0
 10
-180.5061829766868
 20
-398.8175333349756
 30
0.0
 10
-182.4047510390615
 20
-397.85339744838
 30
0.0
 10
-184.1818937182753
 20
-396.7028196239675
 30
0.0
 10
-185.9394220706365
 20
-395.5649417234219
 30
0.0
 10
-187.5781355797488
 20
-394.2447493603038
 30
0.0
 10
-189.0759504891125
 20
-392.7823178499204
 30
0.0
  0
SPLINE
  5
50
330
1F
100
AcDbEntity
  8
0
 62
   250
370
    25
100
AcDbSpline
210
0.0
220
0.0
230
1.0
 70
     8
 71
     3
 72
     8
 73
     4
 74
     0
 42
0.0000000001
 43
0.0000000001
 12
1.0
 22
0.0
 32
0.0
 13
1.0
 23
0.0
 33
0.0
 40
0.0
 40
0.0
 40
0.0
 40
0.0
 40
1.0
 40
1.0
 40
1.0
 40
1.0
 10
391.3741402202238
 20
-378.2739248289365
 30
0.0
 10
392.0377817971903
 20
-376.5409849402765
 30
0.0
 10
392.4715547522414
 20
-374.7924170897525
 30
0.0
 10
392.6948264692676
 20
-372.9502225783057
 30
0.0
  0
INSERT
  5
52
330
1F
100
AcDbEntity
  8
0
100
AcDbBlockReference
  2
block 2
 10
0.0
 20
0.0
 30
0.0
  0
INSERT
  5
6C
330
1F
100
AcDbEntity
  8
0
100
AcDbBlockReference
  2
block 4
 10
0.0
 20
0.0
 30
0.0
  0
SPLINE
  5
85
330
1F
100
AcDbEntity
  8
0
 62
   250
370
    25
100
AcDbSpline
210
0.0
220
0.0
230
1.0
 70
    11
 71
     3
 72
    17
 73
    13
 74
     0
 42
0.0000000001
 43
0.0000000001
 12
1.0
 22
0.0
 32
0.0
 13
1.0
 23
0.0
 33
0.0
 40
0.0
 40
0.0
 40
0.0
 40
0.0
 40
1.0
 40
1.0
 40
1.0
 40
2.0
 40
2.0
 40
2.0
 40
3.0
 40
3.0
 40
3.0
 40
4.0
 40
4.0
 40
4.0
 40
4.0
 10
127.0581645716244
 20
-188.8780519172676
 30
0.0
 10
127.0581645716244
 20
-174.6369855091799
 30
0.0
 10
115.5150201788583
 20
-163.1123583784511
 30
0.0
 10
101.2894565948024
 20
-163.1123583784511
 30
0.0
 10
87.05528033072918
 20
-163.1123583784511
 30
0.0
 10
75.50481515994868
 20
-174.6369855091799
 30
0.0
 10
75.50481515994868
 20
-188.8780519172676
 30
0.0
 10
75.50481515994868
 20
-203.1225633973607
 30
0.0
 10
87.05528033072918
 20
-214.6540806721037
 30
0.0
 10
101.2894565948024
 20
-214.6540806721037
 30
0.0
 10
115.5150201788583
 20
-214.6540806721037
 30
0.0
 10
127.0581645716244
 20
-203.1225633973607
 30
0.0
 10
127.0581645716244
 20
-188.8780519172676
 30
0.0
  0
SPLINE
  5
86
330
1F
100
AcDbEntity
  8
0
 62
   250
370
    25
100
AcDbSpline
210
0.0
220
0.0
230
1.0
 70
    11
 71
     3
 72
    17
 73
    13
 74
     0
 42
0.0000000001
 43
0.0000000001
 12
1.0
 22
0.0
 32
0.0
 13
1.0
 23
0.0
 33
0.0
 40
0.0
 40
0.0
 40
0.0
 40
0.0
 40
1.0
 40
1.0
 40
1.0
 40
2.0
 40
2.0
 40
2.0
 40
3.0
 40
3.0
 40
3.0
 40
4.0
 40
4.0
 40
4.0
 40
4.0
 10
138.239576403677
 20
-188.8780519172676
 30
0.0
 10
138.239576403677
 20
-168.4599714009982
 30
0.0
 10
121.6972018950514
 20
-151.9339609844048
 30
0.0
 10
101.2954854708142
 20
-151.9339609844048
 30
0.0
 10
80.89376904657732
 20
-151.9339609844048
 30
0.0
 10
64.33761424992436
 20
-168.4599714009982
 30
0.0
 10
64.33761424992436
 20
-188.8780519172676
 30
0.0
 10
64.33761424992436
 20
-209.296993701538
 30
0.0
 10
80.89376904657732
 20
-225.8264491901382
 30
0.0
 10
101.2954854708142
 20
-225.8264491901382
 30
0.0
 10
121.6972018950514
 20
-225.8264491901382
 30
0.0
 10
138.239576403677
 20
-209.296993701538
 30
0.0
 10
138.239576403677
 20
-188.8780519172676
 30
0.0
  0
SPLINE
  5
87
330
1F
100
AcDbEntity
  8
0
 62
   250
370
    25
100
AcDbSpline
210
0.0
220
0.0
230
1.0
 70
    11
 71
     3
 72
    20
 73
    16
 74
     0
 42
0.0000000001
 43
0.0000000001
 12
1.0
 22
0.0
 32
0.0
 13
1.0
 23
0.0
 33
0.0
 40
0.0
 40
0.0
 40
0.0
 40
0.0
 40
1.0
 40
1.0
 40
1.0
 40
2.0
 40
2.0
 40
2.0
 40
3.0
 40
3.0
 40
3.0
 40
4.0
 40
4.0
 40
4.0
 40
5.0
 40
5.0
 40
5.0
 40
5.0
 10
84.21922088185356
 20
-29.99843558463831
 30
0.0
 10
84.21922088185356
 20
-20.33479328857965
 30
0.0
 10
92.05417589330582
 20
-12.49983827712738
 30
0.0
 10
101.7196483838683
 20
-12.49983827712738
 30
0.0
 10
111.3842596064291
 20
-12.49983827712738
 30
0.0
 10
119.2192146178814
 20
-20.33479328857965
 30
0.0
 10
119.2192146178814
 20
-29.99843558463831
 30
0.0
 10
119.2192146178814
 20
-39.66401573370126
 30
0.0
 10
111.3842596064291
 20
-47.49897074515352
 30
0.0
 10
101.7196483838683
 20
-47.49897074515352
 30
0.0
 10
92.05417589330582
 20
-47.49897074515352
 30
0.0
 10
84.21922088185356
 20
-39.66401573370126
 30
0.0
 10
84.21922088185356
 20
-29.99843558463831
 30
0.0
 10
84.21922088185356
 20
-29.99843558463831
 30
0.0
 10
84.21922088185356
 20
-29.99843558463831
 30
0.0
 10
84.21922088185356
 20
-29.99843558463831
 30
0.0
  0
INSERT
  5
89
330
1F
100
AcDbEntity
  8
0
100
AcDbBlockReference
  2
block 6
 10
0.0
 20
0.0
 30
0.0
  0
ENDSEC
  0
SECTION
  2
OBJECTS
  0
DICTIONARY
  5
C
330
0
100
AcDbDictionary
281
     1
  3
ACAD_GROUP
350
D
  3
ACAD_LAYOUT
350
1A
  3
ACAD_MATERIAL
350
3B
  3
ACAD_MLEADERSTYLE
350
DD
  3
ACAD_MLINESTYLE
350
17
  3
ACAD_PLOTSETTINGS
350
19
  3
ACAD_PLOTSTYLENAME
350
E
  3
ACAD_TABLESTYLE
350
DC
  3
ACAD_VISUALSTYLE
350
2A
  0
SUN
  5
3F
330
29
100
AcDbSun
 90
        1
290
     0
 63
     7
421
 16777215
 40
1.0
291
     1
 91
  2455826
 92
 54000000
292
     0
 70
     2
 71
   256
280
     1
  0
DICTIONARY
  5
D
102
{ACAD_REACTORS
330
C
102
}
330
C
100
AcDbDictionary
281
     1
  0
DICTIONARY
  5
1A
102
{ACAD_REACTORS
330
C
102
}
330
C
100
AcDbDictionary
281
     1
  3
Layout1
350
1E
  3
Layout2
350
26
  3
Model
350
22
  0
DICTIONARY
  5
3B
102
{ACAD_REACTORS
330
C
102
}
330
C
100
AcDbDictionary
281
     1
  3
ByBlock
350
3D
  3
ByLayer
350
3C
  3
Global
350
3E
  0
DICTIONARY
  5
DD
102
{ACAD_REACTORS
330
C
102
}
330
C
100
AcDbDictionary
281
     1
  0
DICTIONARY
  5
17
102
{ACAD_REACTORS
330
C
102
}
330
C
100
AcDbDictionary
281
     1
  3
Standard
350
18
  0
DICTIONARY
  5
19
102
{ACAD_REACTORS
330
C
102
}
330
C
100
AcDbDictionary
281
     1
  0
ACDBDICTIONARYWDFLT
  5
E
102
{ACAD_REACTORS
330
C
102
}
330
C
100
AcDbDictionary
281
     1
  3
Normal
350
F
100
AcDbDictionaryWithDefault
340
F
  0
DICTIONARY
  5
DC
102
{ACAD_REACTORS
330
C
102
}
330
C
100
AcDbDictionary
281
     1
  0
DICTIONARY
  5
2A
102
{ACAD_REACTORS
330
C
102
}
330
C
100
AcDbDictionary
281
     1
  3
2dWireframe
350
2F
  3
3D Hidden
350
31
  3
3dWireframe
350
30
  3
Basic
350
32
  3
Brighten
350
36
  3
ColorChange
350
3A
  3
Conceptual
350
34
  3
Dim
350
35
  3
Facepattern
350
39
  3
Flat
350
2B
  3
FlatWithEdges
350
2C
  3
Gouraud
350
2D
  3
GouraudWithEdges
350
2E
  3
Linepattern
350
38
  3
Realistic
350
33
  3
Thicken
350
37
  0
LAYOUT
  5
1E
102
{ACAD_REACTORS
330
1A
102
}
330
1A
100
AcDbPlotSettings
  1

  2
none_device
  4

  6

 40
0.0
 41
0.0
 42
0.0
 43
0.0
 44
0.0
 45
0.0
 46
0.0
 47
0.0
 48
0.0
 49
0.0
140
0.0
141
0.0
142
1.0
143
1.0
 70
   688
 72
     0
 73
     0
 74
     5
  7

 75
    16
 76
     0
 77
     2
 78
   300
147
1.0
148
0.0
149
0.0
100
AcDbLayout
  1
Layout1
 70
     1
 71
     1
 10
0.0
 20
0.0
 11
12.0
 21
9.0
 12
0.0
 22
0.0
 32
0.0
 14
1.000000000000000E+20
 24
1.000000000000000E+20
 34
1.000000000000000E+20
 15
-1.000000000000000E+20
 25
-1.000000000000000E+20
 35
-1.000000000000000E+20
146
0.0
 13
0.0
 23
0.0
 33
0.0
 16
1.0
 26
0.0
 36
0.0
 17
0.0
 27
1.0
 37
0.0
 76
     0
330
1B
  0
LAYOUT
  5
26
102
{ACAD_REACTORS
330
1A
102
}
330
1A
100
AcDbPlotSettings
  1

  2
none_device
  4

  6

 40
0.0
 41
0.0
 42
0.0
 43
0.0
 44
0.0
 45
0.0
 46
0.0
 47
0.0
 48
0.0
 49
0.0
140
0.0
141
0.0
142
1.0
143
1.0
 70
   688
 72
     0
 73
     0
 74
     5
  7

 75
    16
 76
     0
 77
     2
 78
   300
147
1.0
148
0.0
149
0.0
100
AcDbLayout
  1
Layout2
 70
     1
 71
     2
 10
0.0
 20
0.0
 11
0.0
 21
0.0
 12
0.0
 22
0.0
 32
0.0
 14
0.0
 24
0.0
 34
0.0
 15
0.0
 25
0.0
 35
0.0
146
0.0
 13
0.0
 23
0.0
 33
0.0
 16
1.0
 26
0.0
 36
0.0
 17
0.0
 27
1.0
 37
0.0
 76
     0
330
23
  0
LAYOUT
  5
22
102
{ACAD_REACTORS
330
1A
102
}
330
1A
100
AcDbPlotSettings
  1

  2
none_device
  4

  6

 40
0.0
 41
0.0
 42
0.0
 43
0.0
 44
0.0
 45
0.0
 46
0.0
 47
0.0
 48
0.0
 49
0.0
140
0.0
141
0.0
142
1.0
143
1.0
 70
  1712
 72
     0
 73
     0
 74
     0
  7

 75
     0
 76
     0
 77
     2
 78
   300
147
1.0
148
0.0
149
0.0
100
AcDbLayout
  1
Model
 70
     1
 71
     0
 10
0.0
 20
0.0
 11
12.0
 21
9.0
 12
0.0
 22
0.0
 32
0.0
 14
1.000000000000000E+20
 24
1.000000000000000E+20
 34
1.000000000000000E+20
 15
-1.000000000000000E+20
 25
-1.000000000000000E+20
 35
-1.000000000000000E+20
146
0.0
 13
0.0
 23
0.0
 33
0.0
 16
1.0
 26
0.0
 36
0.0
 17
0.0
 27
1.0
 37
0.0
 76
     0
330
1F
331
29
  0
MATERIAL
  5
3D
102
{ACAD_REACTORS
330
3B
102
}
330
3B
100
AcDbMaterial
  1
ByBlock
 72
     1
 94
      127
  0
MATERIAL
  5
3C
102
{ACAD_REACTORS
330
3B
102
}
330
3B
100
AcDbMaterial
  1
ByLayer
 72
     1
 94
      127
  0
MATERIAL
  5
3E
102
{ACAD_REACTORS
330
3B
102
}
330
3B
100
AcDbMaterial
  1
Global
 72
     1
 94
      127
  0
MLINESTYLE
  5
18
102
{ACAD_REACTORS
330
17
102
}
330
17
100
AcDbMlineStyle
  2
Standard
 70
     0
  3

 62
   256
 51
90.0
 52
90.0
 71
     2
 49
0.5
 62
   256
  6
BYLAYER
 49
-0.5
 62
   256
  6
BYLAYER
  0
ACDBPLACEHOLDER
  5
F
102
{ACAD_REACTORS
330
E
102
}
330
E
  0
VISUALSTYLE
  5
2F
102
{ACAD_REACTORS
330
2A
102
}
102
{ACAD_XDICTIONARY
360
C4
102
}
330
2A
100
AcDbVisualStyle
  2
2dWireframe
 70
     4
 71
     0
 72
     2
 73
     0
 90
        0
 40
-0.6
 41
-30.0
 62
     5
 63
     7
421
 16777215
 74
     1
 91
        4
 64
     7
 65
   257
 75
     1
175
     1
 42
1.0
 92
        0
 66
   257
 43
1.0
 76
     1
 77
     6
 78
     2
 67
     7
 79
     5
170
     0
171
     0
290
     0
174
     0
 93
        1
 44
0.0
173
     0
291
     0
 45
0.0
  0
VISUALSTYLE
  5
31
102
{ACAD_REACTORS
330
2A
102
}
102
{ACAD_XDICTIONARY
360
C8
102
}
330
2A
100
AcDbVisualStyle
  2
3D Hidden
 70
     6
 71
     1
 72
     2
 73
     2
 90
        0
 40
-0.6
 41
-30.0
 62
     5
 63
     7
421
 16777215
 74
     2
 91
        2
 64
     7
 65
   257
 75
     2
175
     1
 42
40.0
 92
        0
 66
   257
 43
1.0
 76
     1
 77
     6
 78
     2
 67
     7
 79
     3
170
     0
171
     0
290
     0
174
     0
 93
        1
 44
0.0
173
     0
291
     0
 45
0.0
  0
VISUALSTYLE
  5
30
102
{ACAD_REACTORS
330
2A
102
}
102
{ACAD_XDICTIONARY
360
C6
102
}
330
2A
100
AcDbVisualStyle
  2
3dWireframe
 70
     5
 71
     0
 72
     2
 73
     0
 90
        0
 40
-0.6
 41
-30.0
 62
     5
 63
     7
421
 16777215
 74
     1
 91
        4
 64
     7
 65
   257
 75
     1
175
     1
 42
1.0
 92
        0
 66
   257
 43
1.0
 76
     1
 77
     6
 78
     2
 67
     7
 79
     5
170
     0
171
     0
290
     0
174
     0
 93
        1
 44
0.0
173
     0
291
     0
 45
0.0
  0
VISUALSTYLE
  5
32
102
{ACAD_REACTORS
330
2A
102
}
102
{ACAD_XDICTIONARY
360
CA
102
}
330
2A
100
AcDbVisualStyle
  2
Basic
 70
     7
 71
     1
 72
     0
 73
     1
 90
        0
 40
-0.6
 41
-30.0
 62
     5
 63
     7
421
 16777215
 74
     0
 91
        4
 64
     7
 65
   257
 75
     1
175
     1
 42
1.0
 92
        8
 66
     7
 43
1.0
 76
     1
 77
     6
 78
     2
 67
     7
 79
     5
170
     0
171
     0
290
     0
174
     0
 93
        1
 44
0.0
173
     0
291
     1
 45
0.0
  0
VISUALSTYLE
  5
36
102
{ACAD_REACTORS
330
2A
102
}
102
{ACAD_XDICTIONARY
360
D2
102
}
330
2A
100
AcDbVisualStyle
  2
Brighten
 70
    12
 71
     2
 72
     2
 73
     0
 90
        0
 40
-0.6
 41
-30.0
 62
     5
 63
     7
421
 16777215
 74
     1
 91
        4
 64
     7
 65
   257
 75
     1
175
     1
 42
1.0
 92
        8
 66
     7
 43
1.0
 76
     1
 77
     6
 78
     2
 67
     7
 79
     5
170
     0
171
     0
290
     0
174
     0
 93
        1
 44
50.0
173
     0
291
     1
 45
0.0
  0
VISUALSTYLE
  5
3A
102
{ACAD_REACTORS
330
2A
102
}
102
{ACAD_XDICTIONARY
360
DA
102
}
330
2A
100
AcDbVisualStyle
  2
ColorChange
 70
    16
 71
     2
 72
     2
 73
     3
 90
        0
 40
-0.6
 41
-30.0
 62
     5
 63
     8
421
  8421504
 74
     1
 91
        4
 64
     7
 65
   257
 75
     1
175
     1
 42
1.0
 92
        8
 66
     8
424
  8421504
 43
1.0
 76
     1
 77
     6
 78
     2
 67
     7
 79
     5
170
     0
171
     0
290
     0
174
     0
 93
        1
 44
0.0
173
     0
291
     1
 45
0.0
  0
VISUALSTYLE
  5
34
102
{ACAD_REACTORS
330
2A
102
}
102
{ACAD_XDICTIONARY
360
CE
102
}
330
2A
100
AcDbVisualStyle
  2
Conceptual
 70
     9
 71
     3
 72
     2
 73
     0
 90
        0
 40
-0.6
 41
-30.0
 62
     5
 63
     7
421
 16777215
 74
     2
 91
        2
 64
     7
 65
   257
 75
     1
175
     1
 42
40.0
 92
        8
 66
     7
 43
1.0
 76
     1
 77
     6
 78
     2
 67
     7
 79
     3
170
     0
171
     0
290
     0
174
     0
 93
        1
 44
0.0
173
     0
291
     0
 45
0.0
  0
VISUALSTYLE
  5
35
102
{ACAD_REACTORS
330
2A
102
}
102
{ACAD_XDICTIONARY
360
D0
102
}
330
2A
100
AcDbVisualStyle
  2
Dim
 70
    11
 71
     2
 72
     2
 73
     0
 90
        0
 40
-0.6
 41
-30.0
 62
     5
 63
     7
421
 16777215
 74
     1
 91
        4
 64
     7
 65
   257
 75
     1
175
     1
 42
1.0
 92
        8
 66
     7
 43
1.0
 76
     1
 77
     6
 78
     2
 67
     7
 79
     5
170
     0
171
     0
290
     0
174
     0
 93
        1
 44
-50.0
173
     0
291
     1
 45
0.0
  0
VISUALSTYLE
  5
39
102
{ACAD_REACTORS
330
2A
102
}
102
{ACAD_XDICTIONARY
360
D8
102
}
330
2A
100
AcDbVisualStyle
  2
Facepattern
 70
    15
 71
     2
 72
     2
 73
     0
 90
        0
 40
-0.6
 41
-30.0
 62
     5
 63
     7
421
 16777215
 74
     1
 91
        4
 64
     7
 65
   257
 75
     1
175
     1
 42
1.0
 92
        8
 66
     7
 43
1.0
 76
     1
 77
     6
 78
     2
 67
     7
 79
     5
170
     0
171
     0
290
     0
174
     0
 93
        1
 44
0.0
173
     0
291
     1
 45
0.0
  0
VISUALSTYLE
  5
2B
102
{ACAD_REACTORS
330
2A
102
}
102
{ACAD_XDICTIONARY
360
BC
102
}
330
2A
100
AcDbVisualStyle
  2
Flat
 70
     0
 71
     2
 72
     1
 73
     1
 90
        2
 40
-0.6
 41
30.0
 62
     5
 63
     7
421
 16777215
 74
     0
 91
        4
 64
     7
 65
   257
 75
     1
175
     1
 42
1.0
 92
        8
 66
     7
 43
1.0
 76
     1
 77
     6
 78
     2
 67
     7
 79
     5
170
     0
171
     0
290
     0
174
     0
 93
       13
 44
0.0
173
     0
291
     1
 45
0.0
  0
VISUALSTYLE
  5
2C
102
{ACAD_REACTORS
330
2A
102
}
102
{ACAD_XDICTIONARY
360
BE
102
}
330
2A
100
AcDbVisualStyle
  2
FlatWithEdges
 70
     1
 71
     2
 72
     1
 73
     1
 90
        2
 40
-0.6
 41
30.0
 62
     5
 63
     7
421
 16777215
 74
     1
 91
        4
 64
     7
 65
   257
 75
     1
175
     1
 42
1.0
 92
        0
 66
   257
 43
1.0
 76
     1
 77
     6
 78
     2
 67
     7
 79
     5
170
     0
171
     0
290
     0
174
     0
 93
       13
 44
0.0
173
     0
291
     1
 45
0.0
  0
VISUALSTYLE
  5
2D
102
{ACAD_REACTORS
330
2A
102
}
102
{ACAD_XDICTIONARY
360
C0
102
}
330
2A
100
AcDbVisualStyle
  2
Gouraud
 70
     2
 71
     2
 72
     2
 73
     1
 90
        2
 40
-0.6
 41
30.0
 62
     5
 63
     7
421
 16777215
 74
     0
 91
        4
 64
     7
 65
   257
 75
     1
175
     1
 42
1.0
 92
        0
 66
     7
 43
1.0
 76
     1
 77
     6
 78
     2
 67
     7
 79
     5
170
     0
171
     0
290
     0
174
     0
 93
       13
 44
0.0
173
     0
291
     1
 45
0.0
  0
VISUALSTYLE
  5
2E
102
{ACAD_REACTORS
330
2A
102
}
102
{ACAD_XDICTIONARY
360
C2
102
}
330
2A
100
AcDbVisualStyle
  2
GouraudWithEdges
 70
     3
 71
     2
 72
     2
 73
     1
 90
        2
 40
-0.6
 41
30.0
 62
     5
 63
     7
421
 16777215
 74
     1
 91
        4
 64
     7
 65
   257
 75
     1
175
     1
 42
1.0
 92
        0
 66
   257
 43
1.0
 76
     1
 77
     6
 78
     2
 67
     7
 79
     5
170
     0
171
     0
290
     0
174
     0
 93
       13
 44
0.0
173
     0
291
     1
 45
0.0
  0
VISUALSTYLE
  5
38
102
{ACAD_REACTORS
330
2A
102
}
102
{ACAD_XDICTIONARY
360
D6
102
}
330
2A
100
AcDbVisualStyle
  2
Linepattern
 70
    14
 71
     2
 72
     2
 73
     0
 90
        0
 40
-0.6
 41
-30.0
 62
     5
 63
     7
421
 16777215
 74
     1
 91
        4
 64
     7
 65
   257
 75
     7
175
     7
 42
1.0
 92
        8
 66
     7
 43
1.0
 76
     1
 77
     6
 78
     2
 67
     7
 79
     5
170
     0
171
     0
290
     0
174
     0
 93
        1
 44
0.0
173
     0
291
     1
 45
0.0
  0
VISUALSTYLE
  5
33
102
{ACAD_REACTORS
330
2A
102
}
102
{ACAD_XDICTIONARY
360
CC
102
}
330
2A
100
AcDbVisualStyle
  2
Realistic
 70
     8
 71
     2
 72
     2
 73
     0
 90
        0
 40
-0.6
 41
-30.0
 62
     5
 63
     7
421
 16777215
 74
     1
 91
        0
 64
     7
 65
   257
 75
     1
175
     1
 42
1.0
 92
        8
 66
     8
424
  7895160
 43
1.0
 76
     1
 77
     6
 78
     2
 67
     7
 79
     5
170
     0
171
     0
290
     0
174
     0
 93
       13
 44
0.0
173
     0
291
     0
 45
0.0
  0
VISUALSTYLE
  5
37
102
{ACAD_REACTORS
330
2A
102
}
102
{ACAD_XDICTIONARY
360
D4
102
}
330
2A
100
AcDbVisualStyle
  2
Thicken
 70
    13
 71
     2
 72
     2
 73
     0
 90
        0
 40
-0.6
 41
-30.0
 62
     5
 63
     7
421
 16777215
 74
     1
 91
        4
 64
     7
 65
   257
 75
     1
175
     1
 42
1.0
 92
       12
 66
     7
 43
1.0
 76
     1
 77
     6
 78
     2
 67
     7
 79
     5
170
     0
171
     0
290
     0
174
     0
 93
        1
 44
0.0
173
     0
291
     1
 45
0.0
  0
DICTIONARY
  5
C4
330
2F
100
AcDbDictionary
280
     1
281
     1
  3
ACAD_XREC_ROUNDTRIP
360
C5
  0
DICTIONARY
  5
C8
330
31
100
AcDbDictionary
280
     1
281
     1
  3
ACAD_XREC_ROUNDTRIP
360
C9
  0
DICTIONARY
  5
C6
330
30
100
AcDbDictionary
280
     1
281
     1
  3
ACAD_XREC_ROUNDTRIP
360
C7
  0
DICTIONARY
  5
CA
330
32
100
AcDbDictionary
280
     1
281
     1
  3
ACAD_XREC_ROUNDTRIP
360
CB
  0
DICTIONARY
  5
D2
330
36
100
AcDbDictionary
280
     1
281
     1
  3
ACAD_XREC_ROUNDTRIP
360
D3
  0
DICTIONARY
  5
DA
330
3A
100
AcDbDictionary
280
     1
281
     1
  3
ACAD_XREC_ROUNDTRIP
360
DB
  0
DICTIONARY
  5
CE
330
34
100
AcDbDictionary
280
     1
281
     1
  3
ACAD_XREC_ROUNDTRIP
360
CF
  0
DICTIONARY
  5
D0
330
35
100
AcDbDictionary
280
     1
281
     1
  3
ACAD_XREC_ROUNDTRIP
360
D1
  0
DICTIONARY
  5
D8
330
39
100
AcDbDictionary
280
     1
281
     1
  3
ACAD_XREC_ROUNDTRIP
360
D9
  0
DICTIONARY
  5
BC
330
2B
100
AcDbDictionary
280
     1
281
     1
  3
ACAD_XREC_ROUNDTRIP
360
BD
  0
DICTIONARY
  5
BE
330
2C
100
AcDbDictionary
280
     1
281
     1
  3
ACAD_XREC_ROUNDTRIP
360
BF
  0
DICTIONARY
  5
C0
330
2D
100
AcDbDictionary
280
     1
281
     1
  3
ACAD_XREC_ROUNDTRIP
360
C1
  0
DICTIONARY
  5
C2
330
2E
100
AcDbDictionary
280
     1
281
     1
  3
ACAD_XREC_ROUNDTRIP
360
C3
  0
DICTIONARY
  5
D6
330
38
100
AcDbDictionary
280
     1
281
     1
  3
ACAD_XREC_ROUNDTRIP
360
D7
  0
DICTIONARY
  5
CC
330
33
100
AcDbDictionary
280
     1
281
     1
  3
ACAD_XREC_ROUNDTRIP
360
CD
  0
DICTIONARY
  5
D4
330
37
100
AcDbDictionary
280
     1
281
     1
  3
ACAD_XREC_ROUNDTRIP
360
D5
  0
XRECORD
  5
C5
102
{ACAD_REACTORS
330
C4
102
}
330
C4
100
AcDbXrecord
280
     1
102
RTVSPropertyOp0
 70
     1
102
RTVSPropertyOp1
 70
     1
102
RTVSPropertyOp2
 70
     1
102
RTVSPropertyOp3
 70
     1
102
RTVSPropertyOp4
 70
     1
102
RTVSPropertyOp5
 70
     1
102
RTVSPropertyOp6
 70
     1
102
RTVSPropertyOp7
 70
     1
102
RTVSPropertyOp8
 70
     1
102
RTVSPropertyOp9
 70
     1
102
RTVSPropertyOp10
 70
     1
102
RTVSPropertyOp11
 70
     1
102
RTVSPropertyOp12
 70
     1
102
RTVSPropertyOp13
 70
     1
102
RTVSPropertyOp14
 70
     1
102
RTVSPropertyOp15
 70
     1
102
RTVSPropertyOp16
 70
     1
102
RTVSPropertyOp17
 70
     1
102
RTVSPropertyOp18
 70
     1
102
RTVSPropertyOp19
 70
     1
102
RTVSPropertyOp20
 70
     1
102
RTVSPropertyOp21
 70
     1
102
RTVSPropertyOp22
 70
     1
102
RTVSPropertyOp23
 70
     1
102
RTVSPropertyOp24
 70
     1
102
RTVSPropertyOp25
 70
     1
102
RTVSPropertyOp26
 70
     1
102
RTVSPropertyOp27
 70
     1
102
RTVSPropertyOp28
 70
     1
102
RTVSPropertyOp29
 70
     1
102
RTVSPropertyOp30
 70
     1
102
RTVSPropertyOp31
 70
     1
102
RTVSPropertyOp32
 70
     1
  0
XRECORD
  5
C9
102
{ACAD_REACTORS
330
C8
102
}
330
C8
100
AcDbXrecord
280
     1
102
RTVSPropertyOp0
 70
     1
102
RTVSPropertyOp1
 70
     1
102
RTVSPropertyOp2
 70
     1
102
RTVSPropertyOp3
 70
     1
102
RTVSPropertyOp4
 70
     1
102
RTVSPropertyOp5
 70
     1
102
RTVSPropertyOp6
 70
     1
102
RTVSPropertyOp7
 70
     1
102
RTVSPropertyOp8
 70
     1
102
RTVSPropertyOp9
 70
     1
102
RTVSPropertyOp10
 70
     1
102
RTVSPropertyOp11
 70
     1
102
RTVSPropertyOp12
 70
     1
102
RTVSPropertyOp13
 70
     1
102
RTVSPropertyOp14
 70
     1
102
RTVSPropertyOp15
 70
     1
102
RTVSPropertyOp16
 70
     1
102
RTVSPropertyOp17
 70
     1
102
RTVSPropertyOp18
 70
     1
102
RTVSPropertyOp19
 70
     1
102
RTVSPropertyOp20
 70
     1
102
RTVSPropertyOp21
 70
     1
102
RTVSPropertyOp22
 70
     1
102
RTVSPropertyOp23
 70
     1
102
RTVSPropertyOp24
 70
     1
102
RTVSPropertyOp25
 70
     1
102
RTVSPropertyOp26
 70
     1
102
RTVSPropertyOp27
 70
     1
102
RTVSPropertyOp28
 70
     1
102
RTVSPropertyOp29
 70
     1
102
RTVSPropertyOp30
 70
     1
102
RTVSPropertyOp31
 70
     1
102
RTVSPropertyOp32
 70
     1
  0
XRECORD
  5
C7
102
{ACAD_REACTORS
330
C6
102
}
330
C6
100
AcDbXrecord
280
     1
102
RTVSPropertyOp0
 70
     1
102
RTVSPropertyOp1
 70
     1
102
RTVSPropertyOp2
 70
     1
102
RTVSPropertyOp3
 70
     1
102
RTVSPropertyOp4
 70
     1
102
RTVSPropertyOp5
 70
     1
102
RTVSPropertyOp6
 70
     1
102
RTVSPropertyOp7
 70
     1
102
RTVSPropertyOp8
 70
     1
102
RTVSPropertyOp9
 70
     1
102
RTVSPropertyOp10
 70
     1
102
RTVSPropertyOp11
 70
     1
102
RTVSPropertyOp12
 70
     1
102
RTVSPropertyOp13
 70
     1
102
RTVSPropertyOp14
 70
     1
102
RTVSPropertyOp15
 70
     1
102
RTVSPropertyOp16
 70
     1
102
RTVSPropertyOp17
 70
     1
102
RTVSPropertyOp18
 70
     1
102
RTVSPropertyOp19
 70
     1
102
RTVSPropertyOp20
 70
     1
102
RTVSPropertyOp21
 70
     1
102
RTVSPropertyOp22
 70
     1
102
RTVSPropertyOp23
 70
     1
102
RTVSPropertyOp24
 70
     1
102
RTVSPropertyOp25
 70
     1
102
RTVSPropertyOp26
 70
     1
102
RTVSPropertyOp27
 70
     1
102
RTVSPropertyOp28
 70
     1
102
RTVSPropertyOp29
 70
     1
102
RTVSPropertyOp30
 70
     1
102
RTVSPropertyOp31
 70
     1
102
RTVSPropertyOp32
 70
     1
  0
XRECORD
  5
CB
102
{ACAD_REACTORS
330
CA
102
}
330
CA
100
AcDbXrecord
280
     1
102
RTVSPropertyOp0
 70
     1
102
RTVSPropertyOp1
 70
     1
102
RTVSPropertyOp2
 70
     1
102
RTVSPropertyOp3
 70
     1
102
RTVSPropertyOp4
 70
     1
102
RTVSPropertyOp5
 70
     1
102
RTVSPropertyOp6
 70
     1
102
RTVSPropertyOp7
 70
     1
102
RTVSPropertyOp8
 70
     1
102
RTVSPropertyOp9
 70
     1
102
RTVSPropertyOp10
 70
     1
102
RTVSPropertyOp11
 70
     1
102
RTVSPropertyOp12
 70
     1
102
RTVSPropertyOp13
 70
     1
102
RTVSPropertyOp14
 70
     1
102
RTVSPropertyOp15
 70
     1
102
RTVSPropertyOp16
 70
     1
102
RTVSPropertyOp17
 70
     1
102
RTVSPropertyOp18
 70
     1
102
RTVSPropertyOp19
 70
     1
102
RTVSPropertyOp20
 70
     1
102
RTVSPropertyOp21
 70
     1
102
RTVSPropertyOp22
 70
     1
102
RTVSPropertyOp23
 70
     1
102
RTVSPropertyOp24
 70
     1
102
RTVSPropertyOp25
 70
     1
102
RTVSPropertyOp26
 70
     1
102
RTVSPropertyOp27
 70
     1
102
RTVSPropertyOp28
 70
     1
102
RTVSPropertyOp29
 70
     1
102
RTVSPropertyOp30
 70
     1
102
RTVSPropertyOp31
 70
     1
102
RTVSPropertyOp32
 70
     1
  0
XRECORD
  5
D3
102
{ACAD_REACTORS
330
D2
102
}
330
D2
100
AcDbXrecord
280
     1
102
RTVSPropertyOp0
 70
     1
102
RTVSPropertyOp1
 70
     1
102
RTVSPropertyOp2
 70
     1
102
RTVSPropertyOp3
 70
     1
102
RTVSPropertyOp4
 70
     1
102
RTVSPropertyOp5
 70
     1
102
RTVSPropertyOp6
 70
     1
102
RTVSPropertyOp7
 70
     1
102
RTVSPropertyOp8
 70
     1
102
RTVSPropertyOp9
 70
     1
102
RTVSPropertyOp10
 70
     1
102
RTVSPropertyOp11
 70
     1
102
RTVSPropertyOp12
 70
     1
102
RTVSPropertyOp13
 70
     1
102
RTVSPropertyOp14
 70
     1
102
RTVSPropertyOp15
 70
     1
102
RTVSPropertyOp16
 70
     1
102
RTVSPropertyOp17
 70
     1
102
RTVSPropertyOp18
 70
     1
102
RTVSPropertyOp19
 70
     1
102
RTVSPropertyOp20
 70
     1
102
RTVSPropertyOp21
 70
     1
102
RTVSPropertyOp22
 70
     1
102
RTVSPropertyOp23
 70
     1
102
RTVSPropertyOp24
 70
     1
102
RTVSPropertyOp25
 70
     1
102
RTVSPropertyOp26
 70
     1
102
RTVSPropertyOp27
 70
     1
102
RTVSPropertyOp28
 70
     1
102
RTVSPropertyOp29
 70
     1
102
RTVSPropertyOp30
 70
     1
102
RTVSPropertyOp31
 70
     1
102
RTVSPropertyOp32
 70
     1
  0
XRECORD
  5
DB
102
{ACAD_REACTORS
330
DA
102
}
330
DA
100
AcDbXrecord
280
     1
102
RTVSPropertyOp0
 70
     1
102
RTVSPropertyOp1
 70
     1
102
RTVSPropertyOp2
 70
     1
102
RTVSPropertyOp3
 70
     1
102
RTVSPropertyOp4
 70
     1
102
RTVSPropertyOp5
 70
     1
102
RTVSPropertyOp6
 70
     1
102
RTVSPropertyOp7
 70
     1
102
RTVSPropertyOp8
 70
     1
102
RTVSPropertyOp9
 70
     1
102
RTVSPropertyOp10
 70
     1
102
RTVSPropertyOp11
 70
     1
102
RTVSPropertyOp12
 70
     1
102
RTVSPropertyOp13
 70
     1
102
RTVSPropertyOp14
 70
     1
102
RTVSPropertyOp15
 70
     1
102
RTVSPropertyOp16
 70
     1
102
RTVSPropertyOp17
 70
     1
102
RTVSPropertyOp18
 70
     1
102
RTVSPropertyOp19
 70
     1
102
RTVSPropertyOp20
 70
     1
102
RTVSPropertyOp21
 70
     1
102
RTVSPropertyOp22
 70
     1
102
RTVSPropertyOp23
 70
     1
102
RTVSPropertyOp24
 70
     1
102
RTVSPropertyOp25
 70
     1
102
RTVSPropertyOp26
 70
     1
102
RTVSPropertyOp27
 70
     1
102
RTVSPropertyOp28
 70
     1
102
RTVSPropertyOp29
 70
     1
102
RTVSPropertyOp30
 70
     1
102
RTVSPropertyOp31
 70
     1
102
RTVSPropertyOp32
 70
     1
  0
XRECORD
  5
CF
102
{ACAD_REACTORS
330
CE
102
}
330
CE
100
AcDbXrecord
280
     1
102
RTVSPropertyOp0
 70
     1
102
RTVSPropertyOp1
 70
     1
102
RTVSPropertyOp2
 70
     1
102
RTVSPropertyOp3
 70
     1
102
RTVSPropertyOp4
 70
     1
102
RTVSPropertyOp5
 70
     1
102
RTVSPropertyOp6
 70
     1
102
RTVSPropertyOp7
 70
     1
102
RTVSPropertyOp8
 70
     1
102
RTVSPropertyOp9
 70
     1
102
RTVSPropertyOp10
 70
     1
102
RTVSPropertyOp11
 70
     1
102
RTVSPropertyOp12
 70
     1
102
RTVSPropertyOp13
 70
     1
102
RTVSPropertyOp14
 70
     1
102
RTVSPropertyOp15
 70
     1
102
RTVSPropertyOp16
 70
     1
102
RTVSPropertyOp17
 70
     1
102
RTVSPropertyOp18
 70
     1
102
RTVSPropertyOp19
 70
     1
102
RTVSPropertyOp20
 70
     1
102
RTVSPropertyOp21
 70
     1
102
RTVSPropertyOp22
 70
     1
102
RTVSPropertyOp23
 70
     1
102
RTVSPropertyOp24
 70
     1
102
RTVSPropertyOp25
 70
     1
102
RTVSPropertyOp26
 70
     1
102
RTVSPropertyOp27
 70
     1
102
RTVSPropertyOp28
 70
     1
102
RTVSPropertyOp29
 70
     1
102
RTVSPropertyOp30
 70
     1
102
RTVSPropertyOp31
 70
     1
102
RTVSPropertyOp32
 70
     1
  0
XRECORD
  5
D1
102
{ACAD_REACTORS
330
D0
102
}
330
D0
100
AcDbXrecord
280
     1
102
RTVSPropertyOp0
 70
     1
102
RTVSPropertyOp1
 70
     1
102
RTVSPropertyOp2
 70
     1
102
RTVSPropertyOp3
 70
     1
102
RTVSPropertyOp4
 70
     1
102
RTVSPropertyOp5
 70
     1
102
RTVSPropertyOp6
 70
     1
102
RTVSPropertyOp7
 70
     1
102
RTVSPropertyOp8
 70
     1
102
RTVSPropertyOp9
 70
     1
102
RTVSPropertyOp10
 70
     1
102
RTVSPropertyOp11
 70
     1
102
RTVSPropertyOp12
 70
     1
102
RTVSPropertyOp13
 70
     1
102
RTVSPropertyOp14
 70
     1
102
RTVSPropertyOp15
 70
     1
102
RTVSPropertyOp16
 70
     1
102
RTVSPropertyOp17
 70
     1
102
RTVSPropertyOp18
 70
     1
102
RTVSPropertyOp19
 70
     1
102
RTVSPropertyOp20
 70
     1
102
RTVSPropertyOp21
 70
     1
102
RTVSPropertyOp22
 70
     1
102
RTVSPropertyOp23
 70
     1
102
RTVSPropertyOp24
 70
     1
102
RTVSPropertyOp25
 70
     1
102
RTVSPropertyOp26
 70
     1
102
RTVSPropertyOp27
 70
     1
102
RTVSPropertyOp28
 70
     1
102
RTVSPropertyOp29
 70
     1
102
RTVSPropertyOp30
 70
     1
102
RTVSPropertyOp31
 70
     1
102
RTVSPropertyOp32
 70
     1
  0
XRECORD
  5
D9
102
{ACAD_REACTORS
330
D8
102
}
330
D8
100
AcDbXrecord
280
     1
102
RTVSPropertyOp0
 70
     1
102
RTVSPropertyOp1
 70
     1
102
RTVSPropertyOp2
 70
     1
102
RTVSPropertyOp3
 70
     1
102
RTVSPropertyOp4
 70
     1
102
RTVSPropertyOp5
 70
     1
102
RTVSPropertyOp6
 70
     1
102
RTVSPropertyOp7
 70
     1
102
RTVSPropertyOp8
 70
     1
102
RTVSPropertyOp9
 70
     1
102
RTVSPropertyOp10
 70
     1
102
RTVSPropertyOp11
 70
     1
102
RTVSPropertyOp12
 70
     1
102
RTVSPropertyOp13
 70
     1
102
RTVSPropertyOp14
 70
     1
102
RTVSPropertyOp15
 70
     1
102
RTVSPropertyOp16
 70
     1
102
RTVSPropertyOp17
 70
     1
102
RTVSPropertyOp18
 70
     1
102
RTVSPropertyOp19
 70
     1
102
RTVSPropertyOp20
 70
     1
102
RTVSPropertyOp21
 70
     1
102
RTVSPropertyOp22
 70
     1
102
RTVSPropertyOp23
 70
     1
102
RTVSPropertyOp24
 70
     1
102
RTVSPropertyOp25
 70
     1
102
RTVSPropertyOp26
 70
     1
102
RTVSPropertyOp27
 70
     1
102
RTVSPropertyOp28
 70
     1
102
RTVSPropertyOp29
 70
     1
102
RTVSPropertyOp30
 70
     1
102
RTVSPropertyOp31
 70
     1
102
RTVSPropertyOp32
 70
     1
  0
XRECORD
  5
BD
102
{ACAD_REACTORS
330
BC
102
}
330
BC
100
AcDbXrecord
280
     1
102
RTVSPropertyOp0
 70
     1
102
RTVSPropertyOp1
 70
     1
102
RTVSPropertyOp2
 70
     1
102
RTVSPropertyOp3
 70
     1
102
RTVSPropertyOp4
 70
     1
102
RTVSPropertyOp5
 70
     1
102
RTVSPropertyOp6
 70
     1
102
RTVSPropertyOp7
 70
     1
102
RTVSPropertyOp8
 70
     1
102
RTVSPropertyOp9
 70
     1
102
RTVSPropertyOp10
 70
     1
102
RTVSPropertyOp11
 70
     1
102
RTVSPropertyOp12
 70
     1
102
RTVSPropertyOp13
 70
     1
102
RTVSPropertyOp14
 70
     1
102
RTVSPropertyOp15
 70
     1
102
RTVSPropertyOp16
 70
     1
102
RTVSPropertyOp17
 70
     1
102
RTVSPropertyOp18
 70
     1
102
RTVSPropertyOp19
 70
     1
102
RTVSPropertyOp20
 70
     1
102
RTVSPropertyOp21
 70
     1
102
RTVSPropertyOp22
 70
     1
102
RTVSPropertyOp23
 70
     1
102
RTVSPropertyOp24
 70
     1
102
RTVSPropertyOp25
 70
     1
102
RTVSPropertyOp26
 70
     1
102
RTVSPropertyOp27
 70
     1
102
RTVSPropertyOp28
 70
     1
102
RTVSPropertyOp29
 70
     1
102
RTVSPropertyOp30
 70
     1
102
RTVSPropertyOp31
 70
     1
102
RTVSPropertyOp32
 70
     1
  0
XRECORD
  5
BF
102
{ACAD_REACTORS
330
BE
102
}
330
BE
100
AcDbXrecord
280
     1
102
RTVSPropertyOp0
 70
     1
102
RTVSPropertyOp1
 70
     1
102
RTVSPropertyOp2
 70
     1
102
RTVSPropertyOp3
 70
     1
102
RTVSPropertyOp4
 70
     1
102
RTVSPropertyOp5
 70
     1
102
RTVSPropertyOp6
 70
     1
102
RTVSPropertyOp7
 70
     1
102
RTVSPropertyOp8
 70
     1
102
RTVSPropertyOp9
 70
     1
102
RTVSPropertyOp10
 70
     1
102
RTVSPropertyOp11
 70
     1
102
RTVSPropertyOp12
 70
     1
102
RTVSPropertyOp13
 70
     1
102
RTVSPropertyOp14
 70
     1
102
RTVSPropertyOp15
 70
     1
102
RTVSPropertyOp16
 70
     1
102
RTVSPropertyOp17
 70
     1
102
RTVSPropertyOp18
 70
     1
102
RTVSPropertyOp19
 70
     1
102
RTVSPropertyOp20
 70
     1
102
RTVSPropertyOp21
 70
     1
102
RTVSPropertyOp22
 70
     1
102
RTVSPropertyOp23
 70
     1
102
RTVSPropertyOp24
 70
     1
102
RTVSPropertyOp25
 70
     1
102
RTVSPropertyOp26
 70
     1
102
RTVSPropertyOp27
 70
     1
102
RTVSPropertyOp28
 70
     1
102
RTVSPropertyOp29
 70
     1
102
RTVSPropertyOp30
 70
     1
102
RTVSPropertyOp31
 70
     1
102
RTVSPropertyOp32
 70
     1
  0
XRECORD
  5
C1
102
{ACAD_REACTORS
330
C0
102
}
330
C0
100
AcDbXrecord
280
     1
102
RTVSPropertyOp0
 70
     1
102
RTVSPropertyOp1
 70
     1
102
RTVSPropertyOp2
 70
     1
102
RTVSPropertyOp3
 70
     1
102
RTVSPropertyOp4
 70
     1
102
RTVSPropertyOp5
 70
     1
102
RTVSPropertyOp6
 70
     1
102
RTVSPropertyOp7
 70
     1
102
RTVSPropertyOp8
 70
     1
102
RTVSPropertyOp9
 70
     1
102
RTVSPropertyOp10
 70
     1
102
RTVSPropertyOp11
 70
     1
102
RTVSPropertyOp12
 70
     1
102
RTVSPropertyOp13
 70
     1
102
RTVSPropertyOp14
 70
     1
102
RTVSPropertyOp15
 70
     1
102
RTVSPropertyOp16
 70
     1
102
RTVSPropertyOp17
 70
     1
102
RTVSPropertyOp18
 70
     1
102
RTVSPropertyOp19
 70
     1
102
RTVSPropertyOp20
 70
     1
102
RTVSPropertyOp21
 70
     1
102
RTVSPropertyOp22
 70
     1
102
RTVSPropertyOp23
 70
     1
102
RTVSPropertyOp24
 70
     1
102
RTVSPropertyOp25
 70
     1
102
RTVSPropertyOp26
 70
     1
102
RTVSPropertyOp27
 70
     1
102
RTVSPropertyOp28
 70
     1
102
RTVSPropertyOp29
 70
     1
102
RTVSPropertyOp30
 70
     1
102
RTVSPropertyOp31
 70
     1
102
RTVSPropertyOp32
 70
     1
  0
XRECORD
  5
C3
102
{ACAD_REACTORS
330
C2
102
}
330
C2
100
AcDbXrecord
280
     1
102
RTVSPropertyOp0
 70
     1
102
RTVSPropertyOp1
 70
     1
102
RTVSPropertyOp2
 70
     1
102
RTVSPropertyOp3
 70
     1
102
RTVSPropertyOp4
 70
     1
102
RTVSPropertyOp5
 70
     1
102
RTVSPropertyOp6
 70
     1
102
RTVSPropertyOp7
 70
     1
102
RTVSPropertyOp8
 70
     1
102
RTVSPropertyOp9
 70
     1
102
RTVSPropertyOp10
 70
     1
102
RTVSPropertyOp11
 70
     1
102
RTVSPropertyOp12
 70
     1
102
RTVSPropertyOp13
 70
     1
102
RTVSPropertyOp14
 70
     1
102
RTVSPropertyOp15
 70
     1
102
RTVSPropertyOp16
 70
     1
102
RTVSPropertyOp17
 70
     1
102
RTVSPropertyOp18
 70
     1
102
RTVSPropertyOp19
 70
     1
102
RTVSPropertyOp20
 70
     1
102
RTVSPropertyOp21
 70
     1
102
RTVSPropertyOp22
 70
     1
102
RTVSPropertyOp23
 70
     1
102
RTVSPropertyOp24
 70
     1
102
RTVSPropertyOp25
 70
     1
102
RTVSPropertyOp26
 70
     1
102
RTVSPropertyOp27
 70
     1
102
RTVSPropertyOp28
 70
     1
102
RTVSPropertyOp29
 70
     1
102
RTVSPropertyOp30
 70
     1
102
RTVSPropertyOp31
 70
     1
102
RTVSPropertyOp32
 70
     1
  0
XRECORD
  5
D7
102
{ACAD_REACTORS
330
D6
102
}
330
D6
100
AcDbXrecord
280
     1
102
RTVSPropertyOp0
 70
     1
102
RTVSPropertyOp1
 70
     1
102
RTVSPropertyOp2
 70
     1
102
RTVSPropertyOp3
 70
     1
102
RTVSPropertyOp4
 70
     1
102
RTVSPropertyOp5
 70
     1
102
RTVSPropertyOp6
 70
     1
102
RTVSPropertyOp7
 70
     1
102
RTVSPropertyOp8
 70
     1
102
RTVSPropertyOp9
 70
     1
102
RTVSPropertyOp10
 70
     1
102
RTVSPropertyOp11
 70
     1
102
RTVSPropertyOp12
 70
     1
102
RTVSPropertyOp13
 70
     1
102
RTVSPropertyOp14
 70
     1
102
RTVSPropertyOp15
 70
     1
102
RTVSPropertyOp16
 70
     1
102
RTVSPropertyOp17
 70
     1
102
RTVSPropertyOp18
 70
     1
102
RTVSPropertyOp19
 70
     1
102
RTVSPropertyOp20
 70
     1
102
RTVSPropertyOp21
 70
     1
102
RTVSPropertyOp22
 70
     1
102
RTVSPropertyOp23
 70
     1
102
RTVSPropertyOp24
 70
     1
102
RTVSPropertyOp25
 70
     1
102
RTVSPropertyOp26
 70
     1
102
RTVSPropertyOp27
 70
     1
102
RTVSPropertyOp28
 70
     1
102
RTVSPropertyOp29
 70
     1
102
RTVSPropertyOp30
 70
     1
102
RTVSPropertyOp31
 70
     1
102
RTVSPropertyOp32
 70
     1
  0
XRECORD
  5
CD
102
{ACAD_REACTORS
330
CC
102
}
330
CC
100
AcDbXrecord
280
     1
102
RTVSPropertyOp0
 70
     1
102
RTVSPropertyOp1
 70
     1
102
RTVSPropertyOp2
 70
     1
102
RTVSPropertyOp3
 70
     1
102
RTVSPropertyOp4
 70
     1
102
RTVSPropertyOp5
 70
     1
102
RTVSPropertyOp6
 70
     1
102
RTVSPropertyOp7
 70
     1
102
RTVSPropertyOp8
 70
     1
102
RTVSPropertyOp9
 70
     1
102
RTVSPropertyOp10
 70
     1
102
RTVSPropertyOp11
 70
     1
102
RTVSPropertyOp12
 70
     1
102
RTVSPropertyOp13
 70
     1
102
RTVSPropertyOp14
 70
     1
102
RTVSPropertyOp15
 70
     1
102
RTVSPropertyOp16
 70
     1
102
RTVSPropertyOp17
 70
     1
102
RTVSPropertyOp18
 70
     1
102
RTVSPropertyOp19
 70
     1
102
RTVSPropertyOp20
 70
     1
102
RTVSPropertyOp21
 70
     1
102
RTVSPropertyOp22
 70
     1
102
RTVSPropertyOp23
 70
     1
102
RTVSPropertyOp24
 70
     1
102
RTVSPropertyOp25
 70
     1
102
RTVSPropertyOp26
 70
     1
102
RTVSPropertyOp27
 70
     1
102
RTVSPropertyOp28
 70
     1
102
RTVSPropertyOp29
 70
     1
102
RTVSPropertyOp30
 70
     1
102
RTVSPropertyOp31
 70
     1
102
RTVSPropertyOp32
 70
     1
  0
XRECORD
  5
D5
102
{ACAD_REACTORS
330
D4
102
}
330
D4
100
AcDbXrecord
280
     1
102
RTVSPropertyOp0
 70
     1
102
RTVSPropertyOp1
 70
     1
102
RTVSPropertyOp2
 70
     1
102
RTVSPropertyOp3
 70
     1
102
RTVSPropertyOp4
 70
     1
102
RTVSPropertyOp5
 70
     1
102
RTVSPropertyOp6
 70
     1
102
RTVSPropertyOp7
 70
     1
102
RTVSPropertyOp8
 70
     1
102
RTVSPropertyOp9
 70
     1
102
RTVSPropertyOp10
 70
     1
102
RTVSPropertyOp11
 70
     1
102
RTVSPropertyOp12
 70
     1
102
RTVSPropertyOp13
 70
     1
102
RTVSPropertyOp14
 70
     1
102
RTVSPropertyOp15
 70
     1
102
RTVSPropertyOp16
 70
     1
102
RTVSPropertyOp17
 70
     1
102
RTVSPropertyOp18
 70
     1
102
RTVSPropertyOp19
 70
     1
102
RTVSPropertyOp20
 70
     1
102
RTVSPropertyOp21
 70
     1
102
RTVSPropertyOp22
 70
     1
102
RTVSPropertyOp23
 70
     1
102
RTVSPropertyOp24
 70
     1
102
RTVSPropertyOp25
 70
     1
102
RTVSPropertyOp26
 70
     1
102
RTVSPropertyOp27
 70
     1
102
RTVSPropertyOp28
 70
     1
102
RTVSPropertyOp29
 70
     1
102
RTVSPropertyOp30
 70
     1
102
RTVSPropertyOp31
 70
     1
102
RTVSPropertyOp32
 70
     1
  0
ENDSEC
  0
EOF
