  0
SECTION
  2
HEADER
  9
$ACADVER
  1
AC1018
  9
$ACADMAINTVER
 70
   104
  9
$DWGCODEPAGE
  3
ANSI_1252
  9
$LASTSAVEDBY
  1
Administrator
  9
$CUSTOMPROPERTYTAG
  1
AmdtFileType
  9
$CUSTOMPROPERTY
  1
84
  9
$INSBASE
 10
0.0
 20
0.0
 30
0.0
  9
$EXTMIN
 10
-900.0060309296696
 20
-450.0069784536369
 30
0.0
  9
$EXTMAX
 10
999.9939690703309
 20
449.993021546363
 30
0.0
  9
$LIMMIN
 10
0.0
 20
0.0
  9
$LIMMAX
 10
420.0
 20
297.0
  9
$ORTHOMODE
 70
     0
  9
$REGENMODE
 70
     1
  9
$FILLMODE
 70
     1
  9
$QTEXTMODE
 70
     0
  9
$MIRRTEXT
 70
     1
  9
$LTSCALE
 40
1.0
  9
$ATTMODE
 70
     1
  9
$TEXTSIZE
 40
2.5
  9
$TRACEWID
 40
1.0
  9
$TEXTSTYLE
  7
STANDARD
  9
$CLAYER
  8
0
  9
$CELTYPE
  6
ByLayer
  9
$CECOLOR
 62
   256
  9
$CELTSCALE
 40
1.0
  9
$DISPSILH
 70
     0
  9
$DIMSCALE
 40
1.0
  9
$DIMASZ
 40
3.5
  9
$DIMEXO
 40
1.0
  9
$DIMDLI
 40
10.0
  9
$DIMRND
 40
0.0
  9
$DIMDLE
 40
0.0
  9
$DIMEXE
 40
1.0
  9
$DIMTP
 40
0.1
  9
$DIMTM
 40
0.1
  9
$DIMTXT
 40
3.5
  9
$DIMCEN
 40
0.0
  9
$DIMTSZ
 40
0.0
  9
$DIMTOL
 70
     0
  9
$DIMLIM
 70
     0
  9
$DIMTIH
 70
     0
  9
$DIMTOH
 70
     0
  9
$DIMSE1
 70
     0
  9
$DIMSE2
 70
     0
  9
$DIMTAD
 70
     1
  9
$DIMZIN
 70
     8
  9
$DIMBLK
  1

  9
$DIMASO
 70
     1
  9
$DIMSHO
 70
     1
  9
$DIMPOST
  1

  9
$DIMAPOST
  1
"
  9
$DIMALT
 70
     0
  9
$DIMALTD
 70
     2
  9
$DIMALTF
 40
0.0393701
  9
$DIMLFAC
 40
1.0
  9
$DIMTOFL
 70
     1
  9
$DIMTVP
 40
0.0
  9
$DIMTIX
 70
     0
  9
$DIMSOXD
 70
     0
  9
$DIMSAH
 70
     0
  9
$DIMBLK1
  1

  9
$DIMBLK2
  1

  9
$DIMSTYLE
  2
AM_DIN
  9
$DIMCLRD
 70
   256
  9
$DIMCLRE
 70
   256
  9
$DIMCLRT
 70
   140
  9
$DIMTFAC
 40
0.71
  9
$DIMGAP
 40
1.5
  9
$DIMJUST
 70
     0
  9
$DIMSD1
 70
     0
  9
$DIMSD2
 70
     0
  9
$DIMTOLJ
 70
     0
  9
$DIMTZIN
 70
     8
  9
$DIMALTZ
 70
     0
  9
$DIMALTTZ
 70
     0
  9
$DIMUPT
 70
     0
  9
$DIMDEC
 70
     2
  9
$DIMTDEC
 70
     3
  9
$DIMALTU
 70
     2
  9
$DIMALTTD
 70
     4
  9
$DIMTXSTY
  7
STANDARD
  9
$DIMAUNIT
 70
     0
  9
$DIMADEC
 70
     0
  9
$DIMALTRND
 40
0.0
  9
$DIMAZIN
 70
     2
  9
$DIMDSEP
 70
    46
  9
$DIMATFIT
 70
     3
  9
$DIMFRAC
 70
     0
  9
$DIMLDRBLK
  1

  9
$DIMLUNIT
 70
     2
  9
$DIMLWD
 70
    -1
  9
$DIMLWE
 70
    -1
  9
$DIMTMOVE
 70
     0
  9
$LUNITS
 70
     2
  9
$LUPREC
 70
     2
  9
$SKETCHINC
 40
1.0
  9
$FILLETRAD
 40
0.0
  9
$AUNITS
 70
     0
  9
$AUPREC
 70
     0
  9
$MENU
  1
.
  9
$ELEVATION
 40
0.0
  9
$PELEVATION
 40
0.0
  9
$THICKNESS
 40
0.0
  9
$LIMCHECK
 70
     0
  9
$CHAMFERA
 40
2.5
  9
$CHAMFERB
 40
2.5
  9
$CHAMFERC
 40
20.0
  9
$CHAMFERD
 40
0.0
  9
$SKPOLY
 70
     0
  9
$TDCREATE
 40
2453918.262673241
  9
$TDUCREATE
 40
2453918.179339908
  9
$TDUPDATE
 40
2457163.745490764
  9
$TDUUPDATE
 40
2457163.662157431
  9
$TDINDWG
 40
0.3529226389
  9
$TDUSRTIMER
 40
0.3529184838
  9
$USRTIMER
 70
     1
  9
$ANGBASE
 50
0.0
  9
$ANGDIR
 70
     0
  9
$PDMODE
 70
     0
  9
$PDSIZE
 40
0.0
  9
$PLINEWID
 40
0.0
  9
$SPLFRAME
 70
     0
  9
$SPLINETYPE
 70
     6
  9
$SPLINESEGS
 70
     8
  9
$HANDSEED
  5
334F
  9
$SURFTAB1
 70
     6
  9
$SURFTAB2
 70
     6
  9
$SURFTYPE
 70
     6
  9
$SURFU
 70
     6
  9
$SURFV
 70
     6
  9
$UCSBASE
  2

  9
$UCSNAME
  2

  9
$UCSORG
 10
0.0
 20
0.0
 30
0.0
  9
$UCSXDIR
 10
1.0
 20
0.0
 30
0.0
  9
$UCSYDIR
 10
0.0
 20
1.0
 30
0.0
  9
$UCSORTHOREF
  2

  9
$UCSORTHOVIEW
 70
     0
  9
$UCSORGTOP
 10
0.0
 20
0.0
 30
0.0
  9
$UCSORGBOTTOM
 10
0.0
 20
0.0
 30
0.0
  9
$UCSORGLEFT
 10
0.0
 20
0.0
 30
0.0
  9
$UCSORGRIGHT
 10
0.0
 20
0.0
 30
0.0
  9
$UCSORGFRONT
 10
0.0
 20
0.0
 30
0.0
  9
$UCSORGBACK
 10
0.0
 20
0.0
 30
0.0
  9
$PUCSBASE
  2

  9
$PUCSNAME
  2

  9
$PUCSORG
 10
0.0
 20
0.0
 30
0.0
  9
$PUCSXDIR
 10
1.0
 20
0.0
 30
0.0
  9
$PUCSYDIR
 10
0.0
 20
1.0
 30
0.0
  9
$PUCSORTHOREF
  2

  9
$PUCSORTHOVIEW
 70
     0
  9
$PUCSORGTOP
 10
0.0
 20
0.0
 30
0.0
  9
$PUCSORGBOTTOM
 10
0.0
 20
0.0
 30
0.0
  9
$PUCSORGLEFT
 10
0.0
 20
0.0
 30
0.0
  9
$PUCSORGRIGHT
 10
0.0
 20
0.0
 30
0.0
  9
$PUCSORGFRONT
 10
0.0
 20
0.0
 30
0.0
  9
$PUCSORGBACK
 10
0.0
 20
0.0
 30
0.0
  9
$USERI1
 70
     0
  9
$USERI2
 70
     0
  9
$USERI3
 70
     0
  9
$USERI4
 70
     0
  9
$USERI5
 70
     0
  9
$USERR1
 40
0.0
  9
$USERR2
 40
0.0
  9
$USERR3
 40
0.0
  9
$USERR4
 40
0.0
  9
$USERR5
 40
0.0
  9
$WORLDVIEW
 70
     1
  9
$SHADEDGE
 70
     3
  9
$SHADEDIF
 70
    70
  9
$TILEMODE
 70
     1
  9
$MAXACTVP
 70
    64
  9
$PINSBASE
 10
0.0
 20
0.0
 30
0.0
  9
$PLIMCHECK
 70
     0
  9
$PEXTMIN
 10
1.000000000000000E+20
 20
1.000000000000000E+20
 30
1.000000000000000E+20
  9
$PEXTMAX
 10
-1.000000000000000E+20
 20
-1.000000000000000E+20
 30
-1.000000000000000E+20
  9
$PLIMMIN
 10
0.0
 20
0.0
  9
$PLIMMAX
 10
420.0
 20
297.0
  9
$UNITMODE
 70
     0
  9
$VISRETAIN
 70
     1
  9
$PLINEGEN
 70
     0
  9
$PSLTSCALE
 70
     1
  9
$TREEDEPTH
 70
  3020
  9
$CMLSTYLE
  2
Standard
  9
$CMLJUST
 70
     0
  9
$CMLSCALE
 40
20.0
  9
$PROXYGRAPHICS
 70
     1
  9
$MEASUREMENT
 70
     1
  9
$CELWEIGHT
370
    -1
  9
$ENDCAPS
280
     0
  9
$JOINSTYLE
280
     0
  9
$LWDISPLAY
290
     0
  9
$INSUNITS
 70
     4
  9
$HYPERLINKBASE
  1

  9
$STYLESHEET
  1

  9
$XEDIT
290
     1
  9
$CEPSNTYPE
380
     0
  9
$PSTYLEMODE
290
     1
  9
$FINGERPRINTGUID
  2
{E66C8CC1-E66B-408F-9010-06FD783B68A0}
  9
$VERSIONGUID
  2
{E53E9E0F-D714-4950-A261-48C0DE5C53C7}
  9
$EXTNAMES
290
     1
  9
$PSVPSCALE
 40
0.0
  9
$OLESTARTUP
290
     0
  9
$SORTENTS
280
   127
  9
$INDEXCTL
280
     0
  9
$HIDETEXT
280
     1
  9
$XCLIPFRAME
290
     0
  9
$HALOGAP
280
     0
  9
$OBSCOLOR
 70
   257
  9
$OBSLTYPE
280
     0
  9
$INTERSECTIONDISPLAY
280
     0
  9
$INTERSECTIONCOLOR
 70
   257
  9
$DIMASSOC
280
     2
  9
$PROJECTNAME
  1

  0
ENDSEC
  0
SECTION
  2
CLASSES
  0
CLASS
  1
ACDBDICTIONARYWDFLT
  2
AcDbDictionaryWithDefault
  3
ObjectDBX Classes
 90
        0
 91
        1
280
     0
281
     0
  0
CLASS
  1
ACME_DOCUMENT
  2
AcMeDbDoc
  3
AcMeServices
 90
     1024
 91
        2
280
     0
281
     0
  0
CLASS
  1
ACMESCOPE
  2
AcMeScope
  3
AcMeServices
 90
     1024
 91
        1
280
     0
281
     0
  0
CLASS
  1
ACMECOMMANDHISTORY
  2
AcMeCommandHistory
  3
AcMeServices
 90
     1024
 91
        1
280
     0
281
     0
  0
CLASS
  1
ACIMSYSVARMAN
  2
AcImSysVarManager
  3
AcMeServices
 90
     1024
 91
        4
280
     0
281
     0
  0
CLASS
  1
ACIMREALSYSVAR
  2
AcImRealSysVar
  3
AcMeServices
 90
     1024
 91
        1
280
     0
281
     0
  0
CLASS
  1
ACIMINTSYSVAR
  2
AcImIntSysVar
  3
AcMeServices
 90
     1024
 91
       27
280
     0
281
     0
  0
CLASS
  1
ACMEDRAWINGMAN
  2
AcMeDrawingMan
  3
AcMeServices
 90
     1024
 91
        0
280
     0
281
     0
  0
CLASS
  1
ACMEVIEW
  2
AcMeView
  3
AcMeServices
 90
     1024
 91
        0
280
     0
281
     0
  0
CLASS
  1
ACDBENTITYCACHE
  2
AcMeEntityCache
  3
AcMeServices
 90
     1024
 91
        1
280
     0
281
     0
  0
CLASS
  1
GSMANAGER
  2
AcMeGSManager
  3
AcMeServices
 90
     1024
 91
        0
280
     0
281
     0
  0
CLASS
  1
AMDTINTERNALREACTOR
  2
AmdtInternalReactor
  3
AcMeServices
 90
     1024
 91
        1
280
     0
281
     0
  0
CLASS
  1
ACMESTATEMGR
  2
AcMeStateMgr
  3
AcMeServices
 90
     1024
 91
        1
280
     0
281
     0
  0
CLASS
  1
ACGREFMASTER
  2
AcGrefMaster
  3
AcAttribServices
 90
     1024
 91
        1
280
     0
281
     0
  0
CLASS
  1
ACME_DATABASE
  2
AcMeDbDatabase
  3
AcMeServices
 90
     1024
 91
        1
280
     0
281
     0
  0
CLASS
  1
ACRFINSADJUSTERMGR
  2
AcRfInsAdjusterMgr
  3
AcMeServices
 90
     1024
 91
        1
280
     0
281
     0
  0
CLASS
  1
ACGREFACADMASTER
  2
AcGrefacadMaster
  3
AcGrefServices
 90
     1024
 91
        1
280
     0
281
     0
  0
CLASS
  1
AMIMASTER
  2
AmiMaster
  3
AmiServices
 90
     1024
 91
        1
280
     0
281
     0
  0
CLASS
  1
AMGSETTINGSOBJ
  2
AmgSettingsObj
  3
"AcadM|Product Description: AutoCAD Mechanical|Company: Autodesk, Inc."
 90
     1024
 91
        2
280
     0
281
     0
  0
CLASS
  1
ACMDATADICTIONARY
  2
AcmDataDictionary
  3
"AcmSymBB|Product Description: AutoCAD Mechanical|Company: Autodesk, Inc."
 90
     1024
 91
        1
280
     0
281
     0
  0
CLASS
  1
ACMDATAENTRYBLOCK
  2
AcmDataEntryBlock
  3
AcmSymBB|Product Description: AutoCAD Mechanical|Company: Autodesk, Inc.
 90
     1024
 91
        0
280
     0
281
     0
  0
CLASS
  1
ACIMSTRSYSVAR
  2
AcImStrSysVar
  3
AcMeServices
 90
     1024
 91
        5
280
     0
281
     0
  0
CLASS
  1
ACMSTANDARDDIN
  2
AcmStandardDIN
  3
"Amdt_StdImp|Product Description: AutoCAD Mechanical|Company: Autodesk, Inc."
 90
     1024
 91
        1
280
     0
281
     0
  0
CLASS
  1
AMGOBJPROPCFG
  2
AmgObjPropCfg
  3
"AmgLay|Product Description: AutoCAD Mechanical|Company: Autodesk, Inc."
 90
     1025
 91
        1
280
     0
281
     0
  0
CLASS
  1
AMDTEDGESTANDARDDIN
  2
AmdtEdgeStdDIN
  3
"Amdt_StdImp|Product Description: AutoCAD Mechanical|Company: Autodesk, Inc."
 90
     1024
 91
        0
280
     0
281
     0
  0
CLASS
  1
ACMSURFSTANDARDDIN
  2
AcmSurfTextStdDIN
  3
"Amdt_StdImp|Product Description: AutoCAD Mechanical|Company: Autodesk, Inc."
 90
     1024
 91
        0
280
     0
281
     0
  0
CLASS
  1
ACMFCFSTANDARDDIN
  2
AcmFCFStdDIN
  3
"Amdt_StdImp|Product Description: AutoCAD Mechanical|Company: Autodesk, Inc."
 90
     1024
 91
        1
280
     0
281
     0
  0
CLASS
  1
ACMWELDSTANDARDDIN
  2
AcmWeldingStdDIN
  3
"Amdt_StdImp|Product Description: AutoCAD Mechanical|Company: Autodesk, Inc."
 90
     1024
 91
        1
280
     0
281
     0
  0
CLASS
  1
ACMIDSTANDARDDIN
  2
AcmIdStdDIN
  3
"Amdt_StdImp|Product Description: AutoCAD Mechanical|Company: Autodesk, Inc."
 90
     1024
 91
        1
280
     0
281
     0
  0
CLASS
  1
ACMDATUMSTANDARDDIN
  2
AcmDatumStdDIN
  3
"Amdt_StdImp|Product Description: AutoCAD Mechanical|Company: Autodesk, Inc."
 90
     1024
 91
        1
280
     0
281
     0
  0
CLASS
  1
ACMBOMSTANDARDDIN
  2
AcmBOMStdDIN
  3
"Amdt_StdImp|Product Description: AutoCAD Mechanical|Company: Autodesk, Inc."
 90
     1024
 91
        1
280
     0
281
     0
  0
CLASS
  1
ACMDETAILSTANDARDDIN
  2
AmdtDetailSymStdDIN
  3
"Amdt_StdImp|Product Description: AutoCAD Mechanical|Company: Autodesk, Inc."
 90
     1024
 91
        1
280
     0
281
     0
  0
CLASS
  1
ACMSECTIONSTANDARDDIN
  2
AmdtSectionSymStdDIN
  3
"Amdt_StdImp|Product Description: AutoCAD Mechanical|Company: Autodesk, Inc."
 90
     1024
 91
        1
280
     0
281
     0
  0
CLASS
  1
ACMCENTERLINESTANDARDDIN
  2
AmdtCenterLineStdDIN
  3
"Amdt_StdImp|Product Description: AutoCAD Mechanical|Company: Autodesk, Inc."
 90
     1024
 91
        1
280
     0
281
     0
  0
CLASS
  1
ACMNOTESTANDARDDIN
  2
AmdtNoteStdDIN
  3
"Amdt_StdImp|Product Description: AutoCAD Mechanical|Company: Autodesk, Inc."
 90
     1024
 91
        1
280
     0
281
     0
  0
CLASS
  1
ACAMGLAYSTD
  2
AcAmgLayStd
  3
"AmgLay|Product Description: AutoCAD Mechanical|Company: Autodesk, Inc."
 90
     1024
 91
        1
280
     0
281
     0
  0
CLASS
  1
ACAMGDIMSTD
  2
AcAmgDimStd
  3
"AmgDim|Product Description: AutoCAD Mechanical|Company: Autodesk, Inc."
 90
     1024
 91
        1
280
     0
281
     0
  0
CLASS
  1
ACAMGHOLECHARTSTDDIN
  2
AcAmgHoleChartStdDIN
  3
AmgDim|Product Description: AutoCAD Mechanical|Company: Autodesk, Inc.
 90
     1024
 91
        1
280
     0
281
     0
  0
CLASS
  1
ACAMGTITLESTD
  2
AcAmgTitleStd
  3
"AmgTitle|Product Description: AutoCAD Mechanical|Company: Autodesk, Inc."
 90
     4095
 91
        1
280
     0
281
     0
  0
CLASS
  1
LAYER_INDEX
  2
AcDbLayerIndex
  3
ObjectDBX Classes
 90
        0
 91
        0
280
     0
281
     0
  0
CLASS
  1
IDBUFFER
  2
AcDbIdBuffer
  3
ObjectDBX Classes
 90
        0
 91
        0
280
     0
281
     0
  0
CLASS
  1
DICTIONARYVAR
  2
AcDbDictionaryVar
  3
ObjectDBX Classes
 90
        0
 91
       10
280
     0
281
     0
  0
CLASS
  1
ACAMGFILTERDAT
  2
AcAmgFilterDat
  3
"AcadM|Product Description: AutoCAD Mechanical|Company: Autodesk, Inc."
 90
     1024
 91
        0
280
     0
281
     0
  0
CLASS
  1
ACMSTANDARDANSI
  2
AcmStandardANSI
  3
"Amdt_StdImp|Product Description: AutoCAD Mechanical|Company: Autodesk, Inc."
 90
     1024
 91
        0
280
     0
281
     0
  0
CLASS
  1
ACMSURFSTANDARDANSI
  2
AcmSurfTextStdANSI
  3
"Amdt_StdImp|Product Description: AutoCAD Mechanical|Company: Autodesk, Inc."
 90
     1024
 91
        0
280
     0
281
     0
  0
CLASS
  1
ACMFCFSTANDARDANSI
  2
AcmFCFStdANSI
  3
"Amdt_StdImp|Product Description: AutoCAD Mechanical|Company: Autodesk, Inc."
 90
     1024
 91
        0
280
     0
281
     0
  0
CLASS
  1
ACMWELDSTANDARDANSI
  2
AcmWeldingStdANSI
  3
"Amdt_StdImp|Product Description: AutoCAD Mechanical|Company: Autodesk, Inc."
 90
     1024
 91
        0
280
     0
281
     0
  0
CLASS
  1
ACMIDSTANDARDANSI
  2
AcmIdStdANSI
  3
"Amdt_StdImp|Product Description: AutoCAD Mechanical|Company: Autodesk, Inc."
 90
     1024
 91
        0
280
     0
281
     0
  0
CLASS
  1
ACMDATUMSTANDARDANSI
  2
AcmDatumStdANSI
  3
"Amdt_StdImp|Product Description: AutoCAD Mechanical|Company: Autodesk, Inc."
 90
     1024
 91
        0
280
     0
281
     0
  0
CLASS
  1
ACMBOMSTANDARDANSI
  2
AcmBOMStdANSI
  3
"Amdt_StdImp|Product Description: AutoCAD Mechanical|Company: Autodesk, Inc."
 90
     1024
 91
        0
280
     0
281
     0
  0
CLASS
  1
ACMDETAILSTANDARDANSI
  2
AmdtDetailSymStdANSI
  3
"Amdt_StdImp|Product Description: AutoCAD Mechanical|Company: Autodesk, Inc."
 90
     1024
 91
        0
280
     0
281
     0
  0
CLASS
  1
ACMSECTIONSTANDARDANSI
  2
AmdtSectionSymStdANSI
  3
"Amdt_StdImp|Product Description: AutoCAD Mechanical|Company: Autodesk, Inc."
 90
     1024
 91
        0
280
     0
281
     0
  0
CLASS
  1
ACMCENTERLINESTANDARDANSI
  2
AmdtCenterLineStdANSI
  3
"Amdt_StdImp|Product Description: AutoCAD Mechanical|Company: Autodesk, Inc."
 90
     1024
 91
        0
280
     0
281
     0
  0
CLASS
  1
ACMNOTESTANDARDANSI
  2
AmdtNoteStdANSI
  3
"Amdt_StdImp|Product Description: AutoCAD Mechanical|Company: Autodesk, Inc."
 90
     1024
 91
        0
280
     0
281
     0
  0
CLASS
  1
ACAMGHOLECHARTSTDANSI
  2
AcAmgHoleChartStdANSI
  3
AmgDim|Product Description: AutoCAD Mechanical|Company: Autodesk, Inc.
 90
     1024
 91
        0
280
     0
281
     0
  0
CLASS
  1
AMDTFORMULAUPDATEDISPATCHER
  2
AmdtFormulaUpdateDispatcher
  3
AcMeServices
 90
     1024
 91
        0
280
     0
281
     0
  0
CLASS
  1
DIMASSOC
  2
AcDbDimAssoc
  3
"AcDbDimAssoc|Product Desc:     AcDim ARX App For Dimension|Company:          Autodesk, Inc.|WEB Address:      www.autodesk.com"
 90
        0
 91
        0
280
     0
281
     0
  0
CLASS
  1
MATERIAL
  2
AcDbMaterial
  3
ObjectDBX Classes
 90
     1153
 91
        3
280
     0
281
     0
  0
CLASS
  1
VISUALSTYLE
  2
AcDbVisualStyle
  3
ObjectDBX Classes
 90
     4095
 91
       26
280
     0
281
     0
  0
CLASS
  1
TABLESTYLE
  2
AcDbTableStyle
  3
ObjectDBX Classes
 90
     4095
 91
        1
280
     0
281
     0
  0
CLASS
  1
SCALE
  2
AcDbScale
  3
ObjectDBX Classes
 90
     1153
 91
       17
280
     0
281
     0
  0
CLASS
  1
MLEADERSTYLE
  2
AcDbMLeaderStyle
  3
ACDB_MLEADERSTYLE_CLASS
 90
     4095
 91
        1
280
     0
281
     0
  0
CLASS
  1
AM_DRAWING_MGR
  2
AcDmDwgMgr
  3
AcMechDwgViewMgmt
 90
     1024
 91
        1
280
     0
281
     0
  0
CLASS
  1
AM_DWG_DOCUMENT
  2
AcDmDwgDocument
  3
AcMechDwgViewMgmt
 90
     1024
 91
        1
280
     0
281
     0
  0
CLASS
  1
AM_DWG_SHEET
  2
AcDmSheet
  3
AcMechDwgViewMgmt
 90
     1024
 91
        2
280
     0
281
     0
  0
CLASS
  1
AM_VIEWDIMPARMAP
  2
AcDmViewDimParMap
  3
AcMechDwgViewMgmt
 90
     1024
 91
        2
280
     0
281
     0
  0
CLASS
  1
AM_DWGMGR_NAME
  2
AcDmDwgMgrName
  3
AcMechDwgViewMgmt
 90
     1024
 91
        1
280
     0
281
     0
  0
CLASS
  1
AMDTMENUSTATEMGR
  2
AmdtMenuStateMgr
  3
McadcomServices
 90
     1024
 91
        1
280
     0
281
     0
  0
CLASS
  1
AMDTMCOMMENUSTATE
  2
AmdtMcomMenuState
  3
McadcomServices
 90
     1024
 91
        1
280
     0
281
     0
  0
CLASS
  1
MAPIAMMOUDLE
  2
MApiAmModule
  3
MApiAmServices
 90
     1024
 91
        1
280
     0
281
     0
  0
CLASS
  1
AMDTADMENUSTATE
  2
AmdtAdMenuState
  3
DesignerServices
 90
     1024
 91
        0
280
     0
281
     0
  0
CLASS
  1
ADAPPL
  2
AcAdAppl
  3
DesignerAssemblies
 90
     1024
 91
        0
280
     0
281
     0
  0
CLASS
  1
DEPMGR
  2
AcAdDepMgr
  3
DesignerAssemblies
 90
     1024
 91
        0
280
     0
281
     0
  0
CLASS
  1
PARAMMGR
  2
AcAdParamMgr
  3
DesignerAssemblies
 90
     1024
 91
        0
280
     0
281
     0
  0
CLASS
  1
PARAMSCOPE
  2
AcAdParamScope
  3
DesignerAssemblies
 90
     1024
 91
        0
280
     0
281
     0
  0
CLASS
  1
NAMEDAPPL
  2
AcAdNamedAppl
  3
DesignerAssemblies
 90
     1024
 91
        0
280
     0
281
     0
  0
CLASS
  1
AMDTDMMENUSTATE
  2
AmdtDmMenuState
  3
AcMechDwgViewMgmt
 90
     1024
 91
        1
280
     0
281
     0
  0
CLASS
  1
AMDTAMMENUSTATE
  2
AmdtAmMenuState
  3
DesignerAssemblies
 90
     1024
 91
        1
280
     0
281
     0
  0
CLASS
  1
ACAMPROJECT
  2
AcAmProject
  3
DesignerAssemblies
 90
     1024
 91
        1
280
     0
281
     0
  0
CLASS
  1
ACAMGRCOMPDEF
  2
AcAmGrCompDef
  3
DesignerAssemblies
 90
     1024
 91
        1
280
     0
281
     0
  0
CLASS
  1
ACCMCONTEXT
  2
AcCmContext
  3
DesignerAssemblies
 90
     1024
 91
        0
280
     0
281
     0
  0
CLASS
  1
ACAMCOMPDEF
  2
AcAmCompDef
  3
DesignerAssemblies
 90
     1024
 91
        1
280
     0
281
     0
  0
CLASS
  1
ACAMCOMPDEFMGR
  2
AcAmCompDefMgr
  3
DesignerAssemblies
 90
     1024
 91
        1
280
     0
281
     0
  0
CLASS
  1
AMCONTEXTMGR
  2
AcAmContextMgr
  3
DesignerAssemblies
 90
     1024
 91
        1
280
     0
281
     0
  0
CLASS
  1
ACAMCONTEXTMODELER
  2
AcAmContextModeler
  3
DesignerAssemblies
 90
     1024
 91
        1
280
     0
281
     0
  0
CLASS
  1
ACRFATTGENMGR
  2
AcRfAttGeneralMgr
  3
AcAttribServices
 90
     1024
 91
        0
280
     0
281
     0
  0
CLASS
  1
ACRFOBJATTMGR
  2
AcRfObjAttGroupMgr
  3
AcAttribServices
 90
     1024
 91
        0
280
     0
281
     0
  0
CLASS
  1
ACRFMCADAPIATTHOLDER
  2
AcRfMCADAPIAttHolder
  3
AcAttribServices
 90
     1024
 91
        0
280
     0
281
     0
  0
CLASS
  1
AMDTSYSATTR
  2
AmdtSystemAttribute
  3
AcAttribServices
 90
     1024
 91
        0
280
     0
281
     0
  0
CLASS
  1
ACMTHREADLINESTANDARDDIN
  2
AmdtThreadLineStdDIN
  3
"Amdt_StdImp|Product Description: AutoCAD Mechanical|Company: Autodesk, Inc."
 90
     1024
 91
        1
280
     0
281
     0
  0
CLASS
  1
ACMTAPERSTANDARDDIN
  2
AcmTaperStdDIN
  3
"Amdt_StdImp|Product Description: AutoCAD Mechanical|Company: Autodesk, Inc."
 90
     1024
 91
        1
280
     0
281
     0
  0
CLASS
  1
ACMANOOTATIONVIEWSTANDARDDIN
  2
AmdtAnViewStdDIN
  3
"Amdt_StdImp|Product Description: AutoCAD Mechanical|Company: Autodesk, Inc."
 90
     1024
 91
        1
280
     0
281
     0
  0
CLASS
  1
ACMTHREADLINESTANDARDANSI
  2
AmdtThreadLineStdANSI
  3
"Amdt_StdImp|Product Description: AutoCAD Mechanical|Company: Autodesk, Inc."
 90
     1024
 91
        0
280
     0
281
     0
  0
CLASS
  1
ACMTAPERSTANDARDANSI
  2
AcmTaperStdANSI
  3
"Amdt_StdImp|Product Description: AutoCAD Mechanical|Company: Autodesk, Inc."
 90
     1024
 91
        0
280
     0
281
     0
  0
CLASS
  1
ACMANOOTATIONVIEWSTANDARDANSI
  2
AmdtAnViewStdANSI
  3
"Amdt_StdImp|Product Description: AutoCAD Mechanical|Company: Autodesk, Inc."
 90
     1024
 91
        0
280
     0
281
     0
  0
CLASS
  1
CATALOGSTATE
  2
AcAmCatalogState
  3
DesignerAssemblies
 90
     1024
 91
        0
280
     0
281
     0
  0
CLASS
  1
ACAMGRCOMPDEFSET
  2
AcAmGrCompDefSet
  3
DesignerAssemblies
 90
     1024
 91
        1
280
     0
281
     0
  0
CLASS
  1
AMDTBROWSERDBTAB
  2
AmdtBrowserDbTab
  3
McadcomServices
 90
     1024
 91
        1
280
     0
281
     0
  0
CLASS
  1
CBROWSERAPPOBJECT
  2
CBrowserAppObject
  3
McadcomServices
 90
     1024
 91
        2
280
     0
281
     0
  0
CLASS
  1
DM_PLACEHOLDER
  2
AcDmSelsetPlaceholder
  3
AcMechDwgViewMgmt
 90
     1024
 91
        1
280
     0
281
     0
  0
CLASS
  1
CELLSTYLEMAP
  2
AcDbCellStyleMap
  3
ObjectDBX Classes
 90
     1152
 91
        3
280
     0
281
     0
  0
CLASS
  1
AMDTEDGESTANDARDDIN13715
  2
AmdtEdgeStdDIN13715
  3
"Amdt_StdImp|Product Description: AutoCAD Mechanical|Company: Autodesk, Inc."
 90
     1024
 91
        1
280
     0
281
     0
  0
CLASS
  1
ACMSURFSTANDARDDIN2002
  2
AcmSurfTextStdDIN2002
  3
"Amdt_StdImp|Product Description: AutoCAD Mechanical|Company: Autodesk, Inc."
 90
     1024
 91
        1
280
     0
281
     0
  0
CLASS
  1
AMDTNOTETEMPLATEDB
  2
AmdtNoteTemplateDB
  3
AcmSymBB|Product Description: AutoCAD Mechanical|Company: Autodesk, Inc.
 90
     1024
 91
        6
280
     0
281
     0
  0
CLASS
  1
CAMSSTRUCTBTNSTATE
  2
StructBtnState
  3
DesignerAssemblies
 90
     1024
 91
        0
280
     0
281
     0
  0
CLASS
  1
SORTENTSTABLE
  2
AcDbSortentsTable
  3
ObjectDBX Classes
 90
        0
 91
        2
280
     0
281
     0
  0
CLASS
  1
IMAGEDEF
  2
AcDbRasterImageDef
  3
ISM
 90
        0
 91
        1
280
     0
281
     0
  0
CLASS
  1
RASTERVARIABLES
  2
AcDbRasterVariables
  3
ISM
 90
        0
 91
        1
280
     0
281
     0
  0
CLASS
  1
IMAGEDEF_REACTOR
  2
AcDbRasterImageDefReactor
  3
ISM
 90
        1
 91
        0
280
     0
281
     0
  0
CLASS
  1
IMAGE
  2
AcDbRasterImage
  3
ISM
 90
     2175
 91
        0
280
     0
281
     1
  0
CLASS
  1
AEC_REFEDIT_STATUS_TRACKER
  2
AecDbRefEditStatusTracker
  3
AecArchBase60|Product Desc: Autodesk Architectural Desktop 2007 |Company: Autodesk,Inc. |WEB Address: www.autodesk.com
 90
      129
 91
        0
280
     0
281
     0
  0
CLASS
  1
NPOCOLLECTION
  2
AcDbImpNonPersistentObjectsCollection
  3
ObjectDBX Classes
 90
     1153
 91
        0
280
     0
281
     0
  0
ENDSEC
  0
SECTION
  2
TABLES
  0
TABLE
  2
VPORT
  5
8
102
{ACAD_XDICTIONARY
360
25A6
102
}
330
0
100
AcDbSymbolTable
 70
     1
  0
VPORT
  5
24F3
330
8
100
AcDbSymbolTableRecord
100
AcDbViewportTableRecord
  2
*Active
 70
     0
 10
0.0
 20
0.0
 11
1.0
 21
1.0
 12
248.2446167528828
 22
-35.58593427637243
 13
0.0
 23
0.0
 14
2.5
 24
2.5
 15
10.0
 25
10.0
 16
0.0
 26
0.0
 36
1.0
 17
0.0
 27
0.0
 37
0.0
 40
1283.345989619618
 41
2.261311172668513
 42
50.0
 43
0.0
 44
0.0
 50
0.0
 51
0.0
 71
     0
 72
   100
 73
     1
 74
     3
 75
     0
 76
     0
 77
     0
 78
     0
281
     0
 65
     1
110
0.0
120
0.0
130
0.0
111
1.0
121
0.0
131
0.0
112
0.0
122
1.0
132
0.0
 79
     0
146
0.0
  0
ENDTAB
  0
TABLE
  2
LTYPE
  5
5
330
0
100
AcDbSymbolTable
 70
    24
  0
LTYPE
  5
14
330
5
100
AcDbSymbolTableRecord
100
AcDbLinetypeTableRecord
  2
ByBlock
 70
     0
  3

 72
    65
 73
     0
 40
0.0
  0
LTYPE
  5
15
330
5
100
AcDbSymbolTableRecord
100
AcDbLinetypeTableRecord
  2
ByLayer
 70
     0
  3

 72
    65
 73
     0
 40
0.0
  0
LTYPE
  5
16
330
5
100
AcDbSymbolTableRecord
100
AcDbLinetypeTableRecord
  2
Continuous
 70
     0
  3
Solid line
 72
    65
 73
     0
 40
0.0
  0
LTYPE
  5
50
330
5
100
AcDbSymbolTableRecord
100
AcDbLinetypeTableRecord
  2
Amconstr
 70
     0
  3
_______________________
 72
    65
 73
     2
 40
9999.0
 49
9999.0
 74
     0
 49
0.0
 74
     0
  0
LTYPE
  5
55
330
5
100
AcDbSymbolTableRecord
100
AcDbLinetypeTableRecord
  2
Amzigzag
 70
     0
  3
/\/-/\/-/\/-/\/-/\/-/\/
 72
    65
 73
     2
 40
11.0001
 49
0.0001
 74
     4
 75
   135
340
54
 46
0.04
 50
0.0
 44
0.0
 45
0.0
 49
-11.0
 74
     0
  0
LTYPE
  5
56
330
5
100
AcDbSymbolTableRecord
100
AcDbLinetypeTableRecord
  2
AM_DIN_F_W050
 70
     0
  3
__ __ __ __ __ __ __ __ __ __ __ __ __ __ __
 72
    65
 73
     2
 40
6.25
 49
4.75
 74
     0
 49
-1.5
 74
     0
  0
LTYPE
  5
57
330
5
100
AcDbSymbolTableRecord
100
AcDbLinetypeTableRecord
  2
AM_DIN_G_W050
 70
     0
  3
____ . ____ . ____ . ____ . ____ . ____ . ____
 72
    65
 73
     4
 40
13.75
 49
9.75
 74
     0
 49
-1.5
 74
     0
 49
1.0
 74
     0
 49
-1.5
 74
     0
  0
LTYPE
  5
58
330
5
100
AcDbSymbolTableRecord
100
AcDbLinetypeTableRecord
  2
AM_DIN_K_W050
 70
     0
  3
_____ . . _____ . . _____ . . ____ .. ____
 72
    65
 73
     6
 40
16.25
 49
9.75
 74
     0
 49
-1.5
 74
     0
 49
1.0
 74
     0
 49
-1.5
 74
     0
 49
1.0
 74
     0
 49
-1.5
 74
     0
  0
LTYPE
  5
59
330
5
100
AcDbSymbolTableRecord
100
AcDbLinetypeTableRecord
  2
AM_DIN_G_W050x2
 70
     0
  3
__ . __ . __ . __ . __ . __
 72
    65
 73
     4
 40
6.875
 49
4.75
 74
     0
 49
-0.875
 74
     0
 49
0.375
 74
     0
 49
-0.875
 74
     0
  0
LTYPE
  5
5A
330
5
100
AcDbSymbolTableRecord
100
AcDbLinetypeTableRecord
  2
AM_DIN_F_W050x2
 70
     0
  3
 _ _ _ _ _ _ _ _ _ _ _ _
 72
    65
 73
     2
 40
3.125
 49
2.25
 74
     0
 49
-0.875
 74
     0
  0
LTYPE
  5
68
330
5
100
AcDbSymbolTableRecord
100
AcDbLinetypeTableRecord
  2
ACDINWELD
 70
     0
  3
_ _ _ _ _
 72
    65
 73
     2
 40
2.0
 49
2.0
 74
     0
 49
-1.0
 74
     0
  0
LTYPE
  5
69
330
5
100
AcDbSymbolTableRecord
100
AcDbLinetypeTableRecord
  2
ACDINTGB
 70
     0
  3
__ . . __ . .
 72
    65
 73
     6
 40
9.0
 49
4.0
 74
     0
 49
-1.0
 74
     0
 49
1.0
 74
     0
 49
-1.0
 74
     0
 49
1.0
 74
     0
 49
-1.0
 74
     0
  0
LTYPE
  5
6A
330
5
100
AcDbSymbolTableRecord
100
AcDbLinetypeTableRecord
  2
ACDINTGL
 70
     0
  3
_ _ _ _ _
 72
    65
 73
     2
 40
3.0
 49
2.0
 74
     0
 49
-1.0
 74
     0
  0
LTYPE
  5
6C
330
5
100
AcDbSymbolTableRecord
100
AcDbLinetypeTableRecord
  2
CENTER
 70
     0
  3
__ . __
 72
    65
 73
     4
 40
7.0
 49
4.0
 74
     0
 49
-1.0
 74
     0
 49
1.0
 74
     0
 49
-1.0
 74
     0
  0
LTYPE
  5
33D
330
5
100
AcDbSymbolTableRecord
100
AcDbLinetypeTableRecord
  2
PHANTOM2
 70
     0
  3
Phantom (.5x) ___ _ _ ___ _ _ ___ _ _ ___ _ _
 72
    65
 73
     6
 40
1.25
 49
0.625
 74
     0
 49
-0.125
 74
     0
 49
0.125
 74
     0
 49
-0.125
 74
     0
 49
0.125
 74
     0
 49
-0.125
 74
     0
  0
LTYPE
  5
341
330
5
100
AcDbSymbolTableRecord
100
AcDbLinetypeTableRecord
  2
ACANSTGB
 70
     0
  3
__ . . __ . .
 72
    65
 73
     6
 40
0.35433070866
 49
0.15748031496
 74
     0
 49
-0.03937007874
 74
     0
 49
0.03937007874
 74
     0
 49
-0.03937007874
 74
     0
 49
0.03937007874
 74
     0
 49
-0.03937007874
 74
     0
  0
LTYPE
  5
342
330
5
100
AcDbSymbolTableRecord
100
AcDbLinetypeTableRecord
  2
ACANSTGL
 70
     0
  3
_ _ _ _ _
 72
    65
 73
     2
 40
0.11811023622
 49
0.07874015748
 74
     0
 49
-0.03937007874
 74
     0
  0
LTYPE
  5
2564
330
5
100
AcDbSymbolTableRecord
100
AcDbLinetypeTableRecord
  2
HIDDEN
 70
     0
  3
Verdeckt
 72
    65
 73
     2
 40
9.525
 49
6.349999999999999
 74
     0
 49
-3.174999999999999
 74
     0
  0
LTYPE
  5
2627
330
5
100
AcDbSymbolTableRecord
100
AcDbLinetypeTableRecord
  2
AM_ISO02W050
 70
     0
  3
__ __ __ __ __ __ __ __ __ __ __ __ __ __ __
 72
    65
 73
     2
 40
7.5
 49
6.0
 74
     0
 49
-1.5
 74
     0
  0
LTYPE
  5
2628
330
5
100
AcDbSymbolTableRecord
100
AcDbLinetypeTableRecord
  2
AM_ISO08W050
 70
     0
  3
____ . ____ . ____ . ____ . ____ . ____ . ____
 72
    65
 73
     4
 40
18.0
 49
12.0
 74
     0
 49
-1.5
 74
     0
 49
3.0
 74
     0
 49
-1.5
 74
     0
  0
LTYPE
  5
2629
330
5
100
AcDbSymbolTableRecord
100
AcDbLinetypeTableRecord
  2
AM_ISO09W050
 70
     0
  3
_____ . . _____ . . _____ . . ____ .. ____
 72
    65
 73
     6
 40
22.5
 49
12.0
 74
     0
 49
-1.5
 74
     0
 49
3.0
 74
     0
 49
-1.5
 74
     0
 49
3.0
 74
     0
 49
-1.5
 74
     0
  0
LTYPE
  5
262A
330
5
100
AcDbSymbolTableRecord
100
AcDbLinetypeTableRecord
  2
AM_ISO08W050x2
 70
     0
  3
__ . __ . __ . __ . __ . __
 72
    65
 73
     4
 40
9.0
 49
6.0
 74
     0
 49
-0.75
 74
     0
 49
1.5
 74
     0
 49
-0.75
 74
     0
  0
LTYPE
  5
262B
330
5
100
AcDbSymbolTableRecord
100
AcDbLinetypeTableRecord
  2
AM_ISO02W050x2
 70
     0
  3
 _ _ _ _ _ _ _ _ _ _ _ _
 72
    65
 73
     2
 40
3.75
 49
3.0
 74
     0
 49
-0.75
 74
     0
  0
LTYPE
  5
2AC0
330
5
100
AcDbSymbolTableRecord
100
AcDbLinetypeTableRecord
  2
CENTER2
 70
     0
  3
Center (.5x) ___ _ ___ _ ___ _ ___ _ ___ _ ___
 72
    65
 73
     4
 40
1.125
 49
0.75
 74
     0
 49
-0.125
 74
     0
 49
0.125
 74
     0
 49
-0.125
 74
     0
  0
LTYPE
  5
2AC1
330
5
100
AcDbSymbolTableRecord
100
AcDbLinetypeTableRecord
  2
HIDDEN2
 70
     0
  3
Hidden (.5x) _ _ _ _ _ _ _ _ _ _ _ _ _ _ _ _ _
 72
    65
 73
     2
 40
0.1875
 49
0.125
 74
     0
 49
-0.0625
 74
     0
  0
LTYPE
  5
2AC2
330
5
100
AcDbSymbolTableRecord
100
AcDbLinetypeTableRecord
  2
Amzigzag2
 70
     0
  3
/\/-/\/-/\/-/\/-/\/-/\/
 72
    65
 73
     2
 40
0.4401
 49
0.0001
 74
     4
 75
   136
340
2AC3
 46
0.0016
 50
0.0
 44
0.0
 45
0.0
 49
-0.4400000000000001
 74
     0
  0
ENDTAB
  0
TABLE
  2
LAYER
  5
2
102
{ACAD_XDICTIONARY
360
2692
102
}
330
0
100
AcDbSymbolTable
 70
     1
  0
LAYER
  5
10
102
{ACAD_XDICTIONARY
360
25A1
102
}
330
2
100
AcDbSymbolTableRecord
100
AcDbLayerTableRecord
  2
0
 70
     0
 62
     7
  6
Continuous
370
    -3
390
F
  0
ENDTAB
  0
TABLE
  2
STYLE
  5
3
330
0
100
AcDbSymbolTable
 70
     7
  0
STYLE
  5
11
330
3
100
AcDbSymbolTableRecord
100
AcDbTextStyleTableRecord
  2
STANDARD
 70
     0
 40
0.0
 41
1.0
 50
0.0
 71
     0
 42
2.5
  3
ISOCP.SHX
  4

  0
STYLE
  5
54
330
3
100
AcDbSymbolTableRecord
100
AcDbTextStyleTableRecord
  2

 70
     1
 40
0.0
 41
1.0
 50
0.0
 71
     0
 42
2.5
  3
ltypeshp.shx
  4

  0
STYLE
  5
5B
330
3
100
AcDbSymbolTableRecord
100
AcDbTextStyleTableRecord
  2
ACDINTS
 70
     0
 40
1.0
 41
1.0
 50
0.0
 71
     0
 42
2.5
  3
isocp.shx
  4

  0
STYLE
  5
67
330
3
100
AcDbSymbolTableRecord
100
AcDbTextStyleTableRecord
  2
ACDINGDT
 70
     0
 40
0.0
 41
1.0
 50
0.0
 71
     0
 42
2.5
  3
amgdt.shx
  4

  0
STYLE
  5
343
330
3
100
AcDbSymbolTableRecord
100
AcDbTextStyleTableRecord
  2
ACANSTS
 70
     0
 40
1.0
 41
1.0
 50
0.0
 71
     0
 42
0.2
  3
romans.shx
  4

  0
STYLE
  5
344
330
3
100
AcDbSymbolTableRecord
100
AcDbTextStyleTableRecord
  2
ACANSGDT
 70
     0
 40
0.0
 41
1.0
 50
0.0
 71
     0
 42
0.2
  3
amgdtans.shx
  4

  0
STYLE
  5
2AC3
330
3
100
AcDbSymbolTableRecord
100
AcDbTextStyleTableRecord
  2

 70
     1
 40
0.0
 41
1.0
 50
0.0
 71
     0
 42
0.2
  3
genltshp.shx
  4

  0
ENDTAB
  0
TABLE
  2
VIEW
  5
6
330
0
100
AcDbSymbolTable
 70
     1
  0
ENDTAB
  0
TABLE
  2
UCS
  5
7
330
0
100
AcDbSymbolTable
 70
     0
  0
ENDTAB
  0
TABLE
  2
APPID
  5
9
330
0
100
AcDbSymbolTable
 70
    23
  0
APPID
  5
12
330
9
100
AcDbSymbolTableRecord
100
AcDbRegAppTableRecord
  2
ACAD
 70
     0
  0
APPID
  5
2C
330
9
100
AcDbSymbolTableRecord
100
AcDbRegAppTableRecord
  2
MCAD_NO_VIS
 70
     0
  0
APPID
  5
2D
330
9
100
AcDbSymbolTableRecord
100
AcDbRegAppTableRecord
  2
ACAD_TEMP_GRAPHIC
 70
     0
  0
APPID
  5
3E
330
9
100
AcDbSymbolTableRecord
100
AcDbRegAppTableRecord
  2
ACATTRIBSERVICES
 70
     0
  0
APPID
  5
428
330
9
100
AcDbSymbolTableRecord
100
AcDbRegAppTableRecord
  2
DCO15
 70
     0
  0
APPID
  5
217D
330
9
100
AcDbSymbolTableRecord
100
AcDbRegAppTableRecord
  2
GENIUS_GENREC_14
 70
     0
  0
APPID
  5
217E
330
9
100
AcDbSymbolTableRecord
100
AcDbRegAppTableRecord
  2
GENIUS_GENODEF_13
 70
     0
  0
APPID
  5
217F
330
9
100
AcDbSymbolTableRecord
100
AcDbRegAppTableRecord
  2
GENIUS_GENOBJ-N-REC_13
 70
     0
  0
APPID
  5
2536
330
9
100
AcDbSymbolTableRecord
100
AcDbRegAppTableRecord
  2
ACAD_MLEADERVER
 70
     0
  0
APPID
  5
2566
330
9
100
AcDbSymbolTableRecord
100
AcDbRegAppTableRecord
  2
AD_DRAW
 70
     0
  0
APPID
  5
2585
330
9
100
AcDbSymbolTableRecord
100
AcDbRegAppTableRecord
  2
DESIGNERASSEMBLIES
 70
     0
  0
APPID
  5
2594
330
9
100
AcDbSymbolTableRecord
100
AcDbRegAppTableRecord
  2
ACADM_DIM_EDIT
 70
     0
  0
APPID
  5
2595
330
9
100
AcDbSymbolTableRecord
100
AcDbRegAppTableRecord
  2
AMDT_DM_ADJ
 70
     0
  0
APPID
  5
263C
330
9
100
AcDbSymbolTableRecord
100
AcDbRegAppTableRecord
  2
ACAD_DSTYLE_DIMJOGGED_JOGANGLE_SYMBOL
 70
     0
  0
APPID
  5
263D
330
9
100
AcDbSymbolTableRecord
100
AcDbRegAppTableRecord
  2
ACAD_DSTYLE_DIM_LINETYPE
 70
     0
  0
APPID
  5
263E
330
9
100
AcDbSymbolTableRecord
100
AcDbRegAppTableRecord
  2
ACAD_DSTYLE_DIM_EXT1_LINETYPE
 70
     0
  0
APPID
  5
263F
330
9
100
AcDbSymbolTableRecord
100
AcDbRegAppTableRecord
  2
ACAD_DSTYLE_DIM_EXT2_LINETYPE
 70
     0
  0
APPID
  5
26B6
330
9
100
AcDbSymbolTableRecord
100
AcDbRegAppTableRecord
  2
ACAD_EXEMPT_FROM_CAD_STANDARDS
 70
     0
  0
APPID
  5
276C
330
9
100
AcDbSymbolTableRecord
100
AcDbRegAppTableRecord
  2
ACAD_DSTYLE_DIMBREAK
 70
     0
  0
APPID
  5
276D
330
9
100
AcDbSymbolTableRecord
100
AcDbRegAppTableRecord
  2
ACAD_DSTYLE_DIMJAG
 70
     0
  0
APPID
  5
2778
330
9
100
AcDbSymbolTableRecord
100
AcDbRegAppTableRecord
  2
ACAD_PSEXT
 70
     0
  0
APPID
  5
2790
330
9
100
AcDbSymbolTableRecord
100
AcDbRegAppTableRecord
  2
GENIUS_GENOBJ-N-FIL_13
 70
     0
  0
APPID
  5
2FB5
330
9
100
AcDbSymbolTableRecord
100
AcDbRegAppTableRecord
  2
ACAD_SPLINE_DATA
 70
     0
  0
ENDTAB
  0
TABLE
  2
DIMSTYLE
  5
A
330
0
100
AcDbSymbolTable
 70
    14
100
AcDbDimStyleTable
 71
     1
340
6F
  0
DIMSTYLE
105
6F
102
{ACAD_REACTORS
330
32A8
102
}
330
A
100
AcDbSymbolTableRecord
100
AcDbDimStyleTableRecord
  2
AM_DIN
 70
     0
  4
"
 41
3.5
 42
1.0
 43
10.0
 44
1.0
 47
0.1
 48
0.1
 73
     0
 74
     0
 77
     1
 78
     8
 79
     2
140
3.5
141
0.0
143
0.0393701
146
0.71
147
1.5
172
     1
176
   256
177
   256
178
   140
271
     2
272
     3
274
     4
283
     0
284
     8
340
11
371
    -1
372
    -1
1001
ACAD_DSTYLE_DIMJOGGED_JOGANGLE_SYMBOL
1070
   384
1040
1.570796326794896
1001
ACAD_DSTYLE_DIM_LINETYPE
1070
   380
1005
14
1001
ACAD_DSTYLE_DIM_EXT1_LINETYPE
1070
   381
1005
14
1001
ACAD_DSTYLE_DIM_EXT2_LINETYPE
1070
   382
1005
14
  0
DIMSTYLE
105
70
330
A
100
AcDbSymbolTableRecord
100
AcDbDimStyleTableRecord
  2
AM_DIN$3
 70
     0
  4
"
 41
3.5
 42
1.0
 43
10.0
 44
1.0
 47
0.1
 48
0.1
 73
     0
 77
     1
 78
     8
 79
     2
140
3.5
141
0.0
143
0.0393701
146
0.71
147
1.5
176
   256
177
   256
178
   140
271
     2
272
     3
274
     4
283
     0
284
     8
288
     1
289
     0
340
11
371
    -1
372
    -1
1001
ACAD_DSTYLE_DIMJOGGED_JOGANGLE_SYMBOL
1070
   384
1040
1.570796326794896
1001
ACAD_DSTYLE_DIM_LINETYPE
1070
   380
1005
14
1001
ACAD_DSTYLE_DIM_EXT1_LINETYPE
1070
   381
1005
14
1001
ACAD_DSTYLE_DIM_EXT2_LINETYPE
1070
   382
1005
14
  0
DIMSTYLE
105
71
330
A
100
AcDbSymbolTableRecord
100
AcDbDimStyleTableRecord
  2
AM_DIN$4
 70
     0
  4
"
 41
3.5
 42
1.0
 43
10.0
 44
1.0
 47
0.1
 48
0.1
 73
     0
 74
     0
 77
     1
 78
     8
 79
     2
140
3.5
141
0.0
143
0.0393701
146
0.71
147
1.5
172
     1
176
   256
177
   256
178
   140
271
     2
272
     3
274
     4
283
     0
284
     8
340
11
371
    -1
372
    -1
1001
ACAD_DSTYLE_DIMJOGGED_JOGANGLE_SYMBOL
1070
   384
1040
1.570796326794896
1001
ACAD_DSTYLE_DIM_LINETYPE
1070
   380
1005
14
1001
ACAD_DSTYLE_DIM_EXT1_LINETYPE
1070
   381
1005
14
1001
ACAD_DSTYLE_DIM_EXT2_LINETYPE
1070
   382
1005
14
  0
DIMSTYLE
105
72
330
A
100
AcDbSymbolTableRecord
100
AcDbDimStyleTableRecord
  2
AM_DIN$6
 70
     0
  4
"
 41
3.5
 42
1.0
 43
10.0
 44
1.0
 47
0.1
 48
0.1
 73
     0
 74
     0
 78
     8
 79
     2
140
3.5
141
0.0
143
0.0393701
146
0.71
147
1.5
172
     1
176
   256
177
   256
178
   140
271
     2
272
     3
274
     4
283
     0
284
     8
340
11
371
    -1
372
    -1
1001
ACAD_DSTYLE_DIMJOGGED_JOGANGLE_SYMBOL
1070
   384
1040
1.570796326794896
1001
ACAD_DSTYLE_DIM_LINETYPE
1070
   380
1005
14
1001
ACAD_DSTYLE_DIM_EXT1_LINETYPE
1070
   381
1005
14
1001
ACAD_DSTYLE_DIM_EXT2_LINETYPE
1070
   382
1005
14
  0
DIMSTYLE
105
73
330
A
100
AcDbSymbolTableRecord
100
AcDbDimStyleTableRecord
  2
AM_DIN$7
 70
     0
  4
"
 41
3.5
 42
1.0
 43
10.0
 44
1.0
 47
0.1
 48
0.1
 73
     0
 74
     0
 77
     1
 78
     8
 79
     2
140
3.5
141
0.0
143
0.0393701
146
0.71
147
1.5
172
     1
176
   256
177
   256
178
   140
271
     2
272
     3
274
     4
283
     0
284
     8
340
11
371
    -1
372
    -1
1001
ACAD_DSTYLE_DIMJOGGED_JOGANGLE_SYMBOL
1070
   384
1040
1.570796326794896
1001
ACAD_DSTYLE_DIM_LINETYPE
1070
   380
1005
14
1001
ACAD_DSTYLE_DIM_EXT1_LINETYPE
1070
   381
1005
14
1001
ACAD_DSTYLE_DIM_EXT2_LINETYPE
1070
   382
1005
14
  0
DIMSTYLE
105
74
330
A
100
AcDbSymbolTableRecord
100
AcDbDimStyleTableRecord
  2
AM_DIN$SF
 70
     0
  4
"
 41
3.5
 42
1.0
 43
10.0
 44
1.0
 47
0.1
 48
0.1
 73
     0
 74
     0
 75
     1
 76
     1
 77
     1
 78
     8
 79
     2
140
3.5
141
0.0
143
0.0393701
146
0.71
147
1.5
172
     1
176
   256
177
   256
178
   140
271
     2
272
     3
274
     4
283
     0
284
     8
340
11
371
    -1
372
    -1
1001
ACAD_DSTYLE_DIMJOGGED_JOGANGLE_SYMBOL
1070
   384
1040
1.570796326794896
1001
ACAD_DSTYLE_DIM_LINETYPE
1070
   380
1005
14
1001
ACAD_DSTYLE_DIM_EXT1_LINETYPE
1070
   381
1005
14
1001
ACAD_DSTYLE_DIM_EXT2_LINETYPE
1070
   382
1005
14
  0
DIMSTYLE
105
79
330
A
100
AcDbSymbolTableRecord
100
AcDbDimStyleTableRecord
  2
AM_DIN$SH
 70
     0
  4
"
 41
3.5
 42
1.0
 43
10.0
 44
1.0
 47
0.1
 48
0.1
 73
     0
 74
     0
 75
     1
 76
     1
 77
     1
 78
     8
 79
     2
140
3.5
141
0.0
143
0.0393701
144
2.0
146
0.71
147
1.5
172
     1
173
     1
176
   256
177
   256
178
   140
271
     2
272
     3
274
     4
283
     0
284
     8
340
11
343
75
371
    -1
372
    -1
1001
ACAD_DSTYLE_DIMJOGGED_JOGANGLE_SYMBOL
1070
   384
1040
1.570796326794896
1001
ACAD_DSTYLE_DIM_LINETYPE
1070
   380
1005
14
1001
ACAD_DSTYLE_DIM_EXT1_LINETYPE
1070
   381
1005
14
1001
ACAD_DSTYLE_DIM_EXT2_LINETYPE
1070
   382
1005
14
  0
DIMSTYLE
105
92
330
A
100
AcDbSymbolTableRecord
100
AcDbDimStyleTableRecord
  2
STANDARD
 70
     0
279
     2
340
11
  0
DIMSTYLE
105
345
330
A
100
AcDbSymbolTableRecord
100
AcDbDimStyleTableRecord
  2
AM_ANSI
 70
     0
  4
mm
 41
0.1
 42
0.05
 43
0.5
 44
0.1
 47
0.1
 48
0.1
 78
     7
 79
     2
140
0.12
141
0.0
146
0.71
147
0.06
176
   256
177
   256
178
     2
274
     4
284
     7
340
11
371
    -1
372
    -1
  0
DIMSTYLE
105
346
330
A
100
AcDbSymbolTableRecord
100
AcDbDimStyleTableRecord
  2
AM_ANSI$3
 70
     0
  4
mm
 41
0.1
 42
0.05
 43
0.5
 44
0.1
 47
0.1
 48
0.1
 78
     7
 79
     2
140
0.12
141
0.0
146
0.71
147
0.06
176
   256
177
   256
178
     2
274
     4
284
     7
288
     1
289
     0
340
11
371
    -1
372
    -1
  0
DIMSTYLE
105
347
330
A
100
AcDbSymbolTableRecord
100
AcDbDimStyleTableRecord
  2
AM_ANSI$4
 70
     0
  4
mm
 41
0.1
 42
0.05
 43
0.5
 44
0.1
 47
0.1
 48
0.1
 78
     7
 79
     2
140
0.12
141
0.0
146
0.71
147
0.06
176
   256
177
   256
178
     2
274
     4
284
     7
288
     1
289
     0
340
11
371
    -1
372
    -1
  0
DIMSTYLE
105
348
330
A
100
AcDbSymbolTableRecord
100
AcDbDimStyleTableRecord
  2
AM_ANSI$7
 70
     0
  4
mm
 41
0.1
 42
0.05
 43
0.5
 44
0.1
 47
0.1
 48
0.1
 78
     7
 79
     2
140
0.24
141
0.0
146
0.71
147
0.06
176
   256
177
   256
178
     2
274
     4
284
     7
340
11
371
    -1
372
    -1
  0
DIMSTYLE
105
349
330
A
100
AcDbSymbolTableRecord
100
AcDbDimStyleTableRecord
  2
AM_ANSI$SF
 70
     0
  4
mm
 41
0.1
 42
0.05
 43
0.5
 44
0.1
 47
0.1
 48
0.1
 75
     1
 76
     1
 78
     7
 79
     2
140
0.12
141
0.0
146
0.71
147
0.06
176
   256
177
   256
178
     2
274
     4
284
     7
340
11
371
    -1
372
    -1
  0
DIMSTYLE
105
34A
330
A
100
AcDbSymbolTableRecord
100
AcDbDimStyleTableRecord
  2
AM_ANSI$SH
 70
     0
  4
mm
 41
0.1
 42
0.05
 43
0.5
 44
0.1
 47
0.1
 48
0.1
 75
     1
 76
     1
 78
     7
 79
     2
140
0.12
141
0.0
146
0.71
147
0.06
173
     1
176
   256
177
   256
178
     2
274
     4
284
     7
340
11
343
75
371
    -1
372
    -1
  0
ENDTAB
  0
TABLE
  2
BLOCK_RECORD
  5
1
330
0
100
AcDbSymbolTable
 70
     5
  0
BLOCK_RECORD
  5
1F
102
{ACAD_XDICTIONARY
360
81
102
}
330
1
100
AcDbSymbolTableRecord
100
AcDbBlockTableRecord
  2
*Model_Space
340
22
  0
BLOCK_RECORD
  5
1B
330
1
100
AcDbSymbolTableRecord
100
AcDbBlockTableRecord
  2
*Paper_Space
340
1E
  0
BLOCK_RECORD
  5
23
330
1
100
AcDbSymbolTableRecord
100
AcDbBlockTableRecord
  2
*Paper_Space0
340
26
  0
BLOCK_RECORD
  5
75
330
1
100
AcDbSymbolTableRecord
100
AcDbBlockTableRecord
  2
GENAXEH
340
0
  0
BLOCK_RECORD
  5
2D3A
102
{ACAD_XDICTIONARY
360
2D4B
102
}
330
1
100
AcDbSymbolTableRecord
100
AcDbBlockTableRecord
  2
A$C0DDA5B2D
340
0
1001
ACAD
1000
DesignCenter Data
1002
{
1070
     1
1070
     1
1002
}
  0
BLOCK_RECORD
  5
2EAE
330
1
100
AcDbSymbolTableRecord
100
AcDbBlockTableRecord
  2
block 2
340
0
  0
ENDTAB
  0
ENDSEC
  0
SECTION
  2
BLOCKS
  0
BLOCK
  5
20
330
1F
100
AcDbEntity
  8
0
100
AcDbBlockBegin
  2
*Model_Space
 70
     0
 10
0.0
 20
0.0
 30
0.0
  3
*Model_Space
  1

  0
ENDBLK
  5
21
330
1F
100
AcDbEntity
  8
0
100
AcDbBlockEnd
  0
BLOCK
  5
1C
330
1B
100
AcDbEntity
 67
     1
  8
0
100
AcDbBlockBegin
  2
*Paper_Space
 70
     0
 10
0.0
 20
0.0
 30
0.0
  3
*Paper_Space
  1

  0
ENDBLK
  5
1D
330
1B
100
AcDbEntity
 67
     1
  8
0
100
AcDbBlockEnd
  0
BLOCK
  5
24
330
23
100
AcDbEntity
 67
     1
  8
0
100
AcDbBlockBegin
  2
*Paper_Space0
 70
     0
 10
0.0
 20
0.0
 30
0.0
  3
*Paper_Space0
  1

  0
ENDBLK
  5
25
330
23
100
AcDbEntity
 67
     1
  8
0
100
AcDbBlockEnd
  0
BLOCK
  5
77
330
75
100
AcDbEntity
  8
0
100
AcDbBlockBegin
  2
GENAXEH
 70
     0
 10
0.0
 20
0.0
 30
0.0
  3
GENAXEH
  1

  0
LINE
  5
76
330
75
100
AcDbEntity
  8
0
100
AcDbLine
 10
-1.0
 20
0.0
 30
0.0
 11
1.0
 21
0.0
 31
0.0
  0
ENDBLK
  5
78
330
75
100
AcDbEntity
  8
0
100
AcDbBlockEnd
  0
BLOCK
  5
2D4D
330
2D3A
100
AcDbEntity
  8
0
100
AcDbBlockBegin
  2
A$C0DDA5B2D
 70
     0
 10
0.0
 20
0.0
 30
0.0
  3
A$C0DDA5B2D
  1

  0
ARC
  5
2D3B
330
2D3A
100
AcDbEntity
  8
0
100
AcDbCircle
 10
371.9560413717081
 20
441.769213813816
 30
0.0
 40
372.1416132631498
100
AcDbArc
 50
122.800666033735
 51
181.8095010798335
  0
ARC
  5
2D3C
330
2D3A
100
AcDbEntity
  8
0
100
AcDbCircle
 10
492.6865152490538
 20
196.9629242519171
 30
0.0
 40
644.0709062183211
100
AcDbArc
 50
95.71221305909846
 51
120.0298781986577
  0
ARC
  5
2D3D
330
2D3A
100
AcDbEntity
  8
0
100
AcDbCircle
 10
911.8303669504943
 20
-7457.147902384426
 30
0.0
 40
8317.167746986923
100
AcDbArc
 50
89.87483724633786
 51
92.07125076235923
  0
ARC
  5
2D3E
330
2D3A
100
AcDbEntity
  8
0
100
AcDbCircle
 10
691.8091882697211
 20
-1028.267690200482
 30
0.0
 40
1884.577050834111
100
AcDbArc
 50
92.45058229909458
 51
98.02903860067884
  0
ARC
  5
2D3F
330
2D3A
100
AcDbEntity
  8
0
100
AcDbCircle
 10
1488.042405318075
 20
441.769213813816
 30
0.0
 40
372.1416132631498
100
AcDbArc
 50
358.1904989201665
 51
57.19933396626498
  0
ARC
  5
2D40
330
2D3A
100
AcDbEntity
  8
0
100
AcDbCircle
 10
1367.311931440729
 20
196.9629242519171
 30
0.0
 40
644.0709062183211
100
AcDbArc
 50
59.97012180134229
 51
84.28778694090153
  0
ARC
  5
2D41
330
2D3A
100
AcDbEntity
  8
0
100
AcDbCircle
 10
948.1680797392883
 20
-7457.147902384426
 30
0.0
 40
8317.167746986923
100
AcDbArc
 50
87.92874923764076
 51
90.12516275366213
  0
ARC
  5
2D42
330
2D3A
100
AcDbEntity
  8
0
100
AcDbCircle
 10
1168.189258420062
 20
-1028.267690200482
 30
0.0
 40
1884.577050834111
100
AcDbArc
 50
81.97096139932117
 51
87.54941770090541
  0
ARC
  5
2D43
330
2D3A
100
AcDbEntity
  8
0
100
AcDbCircle
 10
371.9560413717081
 20
418.2307854694027
 30
0.0
 40
372.1416132631498
100
AcDbArc
 50
178.1904989201664
 51
237.199333966265
  0
ARC
  5
2D44
330
2D3A
100
AcDbEntity
  8
0
100
AcDbCircle
 10
492.6865152490538
 20
663.0370750313016
 30
0.0
 40
644.0709062183211
100
AcDbArc
 50
239.9701218013423
 51
264.2877869409015
  0
ARC
  5
2D45
330
2D3A
100
AcDbEntity
  8
0
100
AcDbCircle
 10
911.8303669504943
 20
8317.147901667645
 30
0.0
 40
8317.167746986923
100
AcDbArc
 50
267.9287492376408
 51
270.1251627536621
  0
ARC
  5
2D46
330
2D3A
100
AcDbEntity
  8
0
100
AcDbCircle
 10
691.8091882697211
 20
1888.267689483701
 30
0.0
 40
1884.577050834111
100
AcDbArc
 50
261.9709613993212
 51
267.5494177009054
  0
ARC
  5
2D47
330
2D3A
100
AcDbEntity
  8
0
100
AcDbCircle
 10
1488.042405318075
 20
418.2307854694028
 30
0.0
 40
372.1416132631498
100
AcDbArc
 50
302.800666033735
 51
1.809501079833543
  0
ARC
  5
2D48
330
2D3A
100
AcDbEntity
  8
0
100
AcDbCircle
 10
1367.311931440729
 20
663.0370750313016
 30
0.0
 40
644.0709062183211
100
AcDbArc
 50
275.7122130590984
 51
300.0298781986577
  0
ARC
  5
2D49
330
2D3A
100
AcDbEntity
  8
0
100
AcDbCircle
 10
948.1680797392883
 20
8317.147901667645
 30
0.0
 40
8317.167746986923
100
AcDbArc
 50
269.8748372463379
 51
272.0712507623592
  0
ARC
  5
2D4A
330
2D3A
100
AcDbEntity
  8
0
100
AcDbCircle
 10
1168.189258420062
 20
1888.267689483701
 30
0.0
 40
1884.577050834111
100
AcDbArc
 50
272.4505822990946
 51
278.0290386006788
  0
ENDBLK
  5
2D4E
330
2D3A
100
AcDbEntity
  8
0
100
AcDbBlockEnd
  0
BLOCK
  5
2EAF
330
2EAE
100
AcDbEntity
  8
0
100
AcDbBlockBegin
  2
block 2
 70
     0
 10
0.0
 20
0.0
 30
0.0
  3
block 2
  1

  0
SPLINE
  5
2EB0
330
2EAE
100
AcDbEntity
  8
0
 62
   250
420
  1842203
370
     9
100
AcDbSpline
210
0.0
220
0.0
230
1.0
 70
    11
 71
     3
 72
    20
 73
    16
 74
     0
 42
0.0000000001
 43
0.0000000001
 40
0.0
 40
0.0
 40
0.0
 40
0.0
 40
1.0
 40
1.0
 40
1.0
 40
2.0
 40
2.0
 40
2.0
 40
3.0
 40
3.0
 40
3.0
 40
4.0
 40
4.0
 40
4.0
 40
5.0
 40
5.0
 40
5.0
 40
5.0
 10
140.113411423305
 20
156.716015585821
 30
0.0
 10
139.8488280900378
 20
171.7697048181687
 30
0.0
 10
127.385850662598
 20
183.7586371068381
 30
0.0
 10
112.2715277497099
 20
183.4940537735709
 30
0.0
 10
97.15169268404542
 20
183.2349825930801
 30
0.0
 10
85.11315102038839
 20
170.8161023878515
 30
0.0
 10
85.37773435365556
 20
155.7624131555038
 30
0.0
 10
85.64782983969916
 20
140.7087239231561
 30
0.0
 10
98.11080726713896
 20
128.7197916344867
 30
0.0
 10
113.2196180272506
 20
128.9843749677539
 30
0.0
 10
128.3339409401387
 20
129.2489583010211
 30
0.0
 10
140.3724826037958
 20
141.6623263534733
 30
0.0
 10
140.113411423305
 20
156.716015585821
 30
0.0
 10
140.113411423305
 20
156.716015585821
 30
0.0
 10
140.113411423305
 20
156.716015585821
 30
0.0
 10
140.113411423305
 20
156.716015585821
 30
0.0
  0
POLYLINE
  5
2EB1
330
2EAE
100
AcDbEntity
  8
0
 62
   250
420
  1842203
370
     9
100
AcDb2dPolyline
 66
     1
 10
0.0
 20
0.0
 30
0.0
  0
VERTEX
  5
2EB2
330
2EB1
100
AcDbEntity
  8
0
 62
   250
420
  1842203
370
     9
100
AcDbVertex
100
AcDb2dVertex
 10
176.3778645392389
 20
156.1978732248394
 30
0.0
  0
VERTEX
  5
2EB3
330
2EB1
100
AcDbEntity
  8
0
 62
   250
420
  1842203
370
     9
100
AcDbVertex
100
AcDb2dVertex
 10
46.66037325222379
 20
156.1978732248394
 30
0.0
  0
SEQEND
  5
2EB4
330
2EB1
100
AcDbEntity
  8
0
370
     9
  0
POLYLINE
  5
2EB5
330
2EAE
100
AcDbEntity
  8
0
 62
   250
420
  1842203
370
     9
100
AcDb2dPolyline
 66
     1
 10
0.0
 20
0.0
 30
0.0
  0
VERTEX
  5
2EB6
330
2EB5
100
AcDbEntity
  8
0
 62
   250
420
  1842203
370
     9
100
AcDbVertex
100
AcDb2dVertex
 10
112.7455728884803
 20
91.54583331044689
 30
0.0
  0
VERTEX
  5
2EB7
330
2EB5
100
AcDbEntity
  8
0
 62
   250
420
  1842203
370
     9
100
AcDbVertex
100
AcDb2dVertex
 10
112.7455728884803
 20
220.7286457781512
 30
0.0
  0
SEQEND
  5
2EB8
330
2EB5
100
AcDbEntity
  8
0
370
     9
  0
SPLINE
  5
2EB9
330
2EAE
100
AcDbEntity
  8
0
 62
   250
420
  1842203
370
     9
100
AcDbSpline
210
0.0
220
0.0
230
1.0
 70
    11
 71
     3
 72
    20
 73
    16
 74
     0
 42
0.0000000001
 43
0.0000000001
 40
0.0
 40
0.0
 40
0.0
 40
0.0
 40
1.0
 40
1.0
 40
1.0
 40
2.0
 40
2.0
 40
2.0
 40
3.0
 40
3.0
 40
3.0
 40
4.0
 40
4.0
 40
4.0
 40
5.0
 40
5.0
 40
5.0
 40
5.0
 10
65.50642359473451
 20
156.633333294175
 30
0.0
 10
65.50642359473451
 20
182.6176214821234
 30
0.0
 10
86.6565537977803
 20
203.6740450879704
 30
0.0
 10
112.7455728884803
 20
203.6740450879704
 30
0.0
 10
138.8401041319566
 20
203.6740450879704
 30
0.0
 10
159.984722182226
 20
182.6176214821234
 30
0.0
 10
159.984722182226
 20
156.633333294175
 30
0.0
 10
159.984722182226
 20
130.6490451062266
 30
0.0
 10
138.8401041319566
 20
109.5871093476032
 30
0.0
 10
112.7455728884803
 20
109.5871093476032
 30
0.0
 10
86.6565537977803
 20
109.5871093476032
 30
0.0
 10
65.50642359473451
 20
130.6490451062266
 30
0.0
 10
65.50642359473451
 20
156.633333294175
 30
0.0
 10
65.50642359473451
 20
156.633333294175
 30
0.0
 10
65.50642359473451
 20
156.633333294175
 30
0.0
 10
65.50642359473451
 20
156.633333294175
 30
0.0
  0
SPLINE
  5
2EBA
330
2EAE
100
AcDbEntity
  8
0
 62
   250
420
  1842203
370
     9
100
AcDbSpline
210
0.0
220
0.0
230
1.0
 70
    11
 71
     3
 72
    20
 73
    16
 74
     0
 42
0.0000000001
 43
0.0000000001
 40
0.0
 40
0.0
 40
0.0
 40
0.0
 40
1.0
 40
1.0
 40
1.0
 40
2.0
 40
2.0
 40
2.0
 40
3.0
 40
3.0
 40
3.0
 40
4.0
 40
4.0
 40
4.0
 40
5.0
 40
5.0
 40
5.0
 40
5.0
 10
-281.3347655546663
 20
307.3245658953911
 30
0.0
 10
-281.3347655546663
 20
325.360329779771
 30
0.0
 10
-266.6559027111138
 20
339.9840710955595
 30
0.0
 10
-248.5429686878643
 20
339.9840710955595
 30
0.0
 10
-230.4300346646147
 20
339.9840710955595
 30
0.0
 10
-215.7511718210622
 20
325.360329779771
 30
0.0
 10
-215.7511718210622
 20
307.3245658953911
 30
0.0
 10
-215.7511718210622
 20
289.2888020110112
 30
0.0
 10
-230.4300346646147
 20
274.6650606952226
 30
0.0
 10
-248.5429686878643
 20
274.6650606952226
 30
0.0
 10
-266.6559027111138
 20
274.6650606952226
 30
0.0
 10
-281.3347655546663
 20
289.2888020110112
 30
0.0
 10
-281.3347655546663
 20
307.3245658953911
 30
0.0
 10
-281.3347655546663
 20
307.3245658953911
 30
0.0
 10
-281.3347655546663
 20
307.3245658953911
 30
0.0
 10
-281.3347655546663
 20
307.3245658953911
 30
0.0
  0
SPLINE
  5
2EBB
330
2EAE
100
AcDbEntity
  8
0
 62
   250
420
  1842203
370
     9
100
AcDbSpline
210
0.0
220
0.0
230
1.0
 70
    11
 71
     3
 72
    20
 73
    16
 74
     0
 42
0.0000000001
 43
0.0000000001
 40
0.0
 40
0.0
 40
0.0
 40
0.0
 40
1.0
 40
1.0
 40
1.0
 40
2.0
 40
2.0
 40
2.0
 40
3.0
 40
3.0
 40
3.0
 40
4.0
 40
4.0
 40
4.0
 40
5.0
 40
5.0
 40
5.0
 40
5.0
 10
-290.7770832606391
 20
307.3300780481675
 30
0.0
 10
-290.7770832606391
 20
330.558289847916
 30
0.0
 10
-271.8703992375879
 20
349.3822915793211
 30
0.0
 10
-248.5484808406407
 20
349.3822915793211
 30
0.0
 10
-225.2320745964698
 20
349.3822915793211
 30
0.0
 10
-206.3253905734187
 20
330.558289847916
 30
0.0
 10
-206.3253905734187
 20
307.3300780481675
 30
0.0
 10
-206.3253905734187
 20
284.1073784011954
 30
0.0
 10
-225.2320745964698
 20
265.2778645170139
 30
0.0
 10
-248.5484808406407
 20
265.2778645170139
 30
0.0
 10
-271.8703992375879
 20
265.2778645170139
 30
0.0
 10
-290.7770832606391
 20
284.1073784011954
 30
0.0
 10
-290.7770832606391
 20
307.3300780481675
 30
0.0
 10
-290.7770832606391
 20
307.3300780481675
 30
0.0
 10
-290.7770832606391
 20
307.3300780481675
 30
0.0
 10
-290.7770832606391
 20
307.3300780481675
 30
0.0
  0
SPLINE
  5
2EBC
330
2EAE
100
AcDbEntity
  8
0
 62
   250
420
  1842203
370
     9
100
AcDbSpline
210
0.0
220
0.0
230
1.0
 70
    11
 71
     3
 72
    20
 73
    16
 74
     0
 42
0.0000000001
 43
0.0000000001
 40
0.0
 40
0.0
 40
0.0
 40
0.0
 40
1.0
 40
1.0
 40
1.0
 40
2.0
 40
2.0
 40
2.0
 40
3.0
 40
3.0
 40
3.0
 40
4.0
 40
4.0
 40
4.0
 40
5.0
 40
5.0
 40
5.0
 40
5.0
 10
-281.2300346519147
 20
3.715190971293424
 30
0.0
 10
-281.2300346519147
 20
21.75095485567338
 30
0.0
 10
-266.5511718083622
 20
36.36918401868548
 30
0.0
 10
-248.4437499378891
 20
36.36918401868548
 30
0.0
 10
-230.3308159146395
 20
36.36918401868548
 30
0.0
 10
-215.6464409183106
 20
21.75095485567338
 30
0.0
 10
-215.6464409183106
 20
3.715190971293424
 30
0.0
 10
-215.6464409183106
 20
-14.32057291308652
 30
0.0
 10
-230.3308159146395
 20
-28.94431422887504
 30
0.0
 10
-248.4437499378891
 20
-28.94431422887504
 30
0.0
 10
-266.5511718083622
 20
-28.94431422887504
 30
0.0
 10
-281.2300346519147
 20
-14.32057291308652
 30
0.0
 10
-281.2300346519147
 20
3.715190971293424
 30
0.0
 10
-281.2300346519147
 20
3.715190971293424
 30
0.0
 10
-281.2300346519147
 20
3.715190971293424
 30
0.0
 10
-281.2300346519147
 20
3.715190971293424
 30
0.0
  0
SPLINE
  5
2EBD
330
2EAE
100
AcDbEntity
  8
0
 62
   250
420
  1842203
370
     9
100
AcDbSpline
210
0.0
220
0.0
230
1.0
 70
    11
 71
     3
 72
    20
 73
    16
 74
     0
 42
0.0000000001
 43
0.0000000001
 40
0.0
 40
0.0
 40
0.0
 40
0.0
 40
1.0
 40
1.0
 40
1.0
 40
2.0
 40
2.0
 40
2.0
 40
3.0
 40
3.0
 40
3.0
 40
4.0
 40
4.0
 40
4.0
 40
5.0
 40
5.0
 40
5.0
 40
5.0
 10
-290.6778645106639
 20
3.720703124069824
 30
0.0
 10
-290.6778645106639
 20
26.94340277104193
 30
0.0
 10
-271.7711804876127
 20
45.77291665522344
 30
0.0
 10
-248.4492620906655
 20
45.77291665522344
 30
0.0
 10
-225.1273436937182
 20
45.77291665522344
 30
0.0
 10
-206.220659670667
 20
26.94340277104193
 30
0.0
 10
-206.220659670667
 20
3.720703124069824
 30
0.0
 10
-206.220659670667
 20
-19.50199652290228
 30
0.0
 10
-225.1273436937182
 20
-38.33151040708379
 30
0.0
 10
-248.4492620906655
 20
-38.33151040708379
 30
0.0
 10
-271.7711804876127
 20
-38.33151040708379
 30
0.0
 10
-290.6778645106639
 20
-19.50199652290228
 30
0.0
 10
-290.6778645106639
 20
3.720703124069824
 30
0.0
 10
-290.6778645106639
 20
3.720703124069824
 30
0.0
 10
-290.6778645106639
 20
3.720703124069824
 30
0.0
 10
-290.6778645106639
 20
3.720703124069824
 30
0.0
  0
SPLINE
  5
2EBE
330
2EAE
100
AcDbEntity
  8
0
 62
   250
420
  1842203
370
     9
100
AcDbSpline
210
0.0
220
0.0
230
1.0
 70
    11
 71
     3
 72
    20
 73
    16
 74
     0
 42
0.0000000001
 43
0.0000000001
 40
0.0
 40
0.0
 40
0.0
 40
0.0
 40
1.0
 40
1.0
 40
1.0
 40
2.0
 40
2.0
 40
2.0
 40
3.0
 40
3.0
 40
3.0
 40
4.0
 40
4.0
 40
4.0
 40
5.0
 40
5.0
 40
5.0
 40
5.0
 10
449.0861109988395
 20
307.7490016591739
 30
0.0
 10
449.0861109988395
 20
325.7847655435538
 30
0.0
 10
463.7704859951685
 20
340.4085068593423
 30
0.0
 10
481.8779078656416
 20
340.4085068593423
 30
0.0
 10
499.9963540416676
 20
340.4085068593423
 30
0.0
 10
514.6697047324437
 20
325.7847655435538
 30
0.0
 10
514.6697047324437
 20
307.7490016591739
 30
0.0
 10
514.6697047324437
 20
289.7132377747939
 30
0.0
 10
499.9963540416676
 20
275.0950086117818
 30
0.0
 10
481.8779078656416
 20
275.0950086117818
 30
0.0
 10
463.7704859951685
 20
275.0950086117818
 30
0.0
 10
449.0861109988395
 20
289.7132377747939
 30
0.0
 10
449.0861109988395
 20
307.7490016591739
 30
0.0
 10
449.0861109988395
 20
307.7490016591739
 30
0.0
 10
449.0861109988395
 20
307.7490016591739
 30
0.0
 10
449.0861109988395
 20
307.7490016591739
 30
0.0
  0
SPLINE
  5
2EBF
330
2EAE
100
AcDbEntity
  8
0
 62
   250
420
  1842203
370
     9
100
AcDbSpline
210
0.0
220
0.0
230
1.0
 70
    11
 71
     3
 72
    20
 73
    16
 74
     0
 42
0.0000000001
 43
0.0000000001
 40
0.0
 40
0.0
 40
0.0
 40
0.0
 40
1.0
 40
1.0
 40
1.0
 40
2.0
 40
2.0
 40
2.0
 40
3.0
 40
3.0
 40
3.0
 40
4.0
 40
4.0
 40
4.0
 40
5.0
 40
5.0
 40
5.0
 40
5.0
 10
439.6493054456432
 20
307.7545138119503
 30
0.0
 10
439.6493054456432
 20
330.9827256116987
 30
0.0
 10
458.5504773159179
 20
349.8067273431039
 30
0.0
 10
481.8723957128653
 20
349.8067273431039
 30
0.0
 10
505.1943141098125
 20
349.8067273431039
 30
0.0
 10
524.0954859800872
 20
330.9827256116987
 30
0.0
 10
524.0954859800872
 20
307.7545138119503
 30
0.0
 10
524.0954859800872
 20
284.5318141649782
 30
0.0
 10
505.1943141098125
 20
265.7023002807966
 30
0.0
 10
481.8723957128653
 20
265.7023002807966
 30
0.0
 10
458.5504773159179
 20
265.7023002807966
 30
0.0
 10
439.6493054456432
 20
284.5318141649782
 30
0.0
 10
439.6493054456432
 20
307.7545138119503
 30
0.0
 10
439.6493054456432
 20
307.7545138119503
 30
0.0
 10
439.6493054456432
 20
307.7545138119503
 30
0.0
 10
439.6493054456432
 20
307.7545138119503
 30
0.0
  0
SPLINE
  5
2EC0
330
2EAE
100
AcDbEntity
  8
0
 62
   250
420
  1842203
370
     9
100
AcDbSpline
210
0.0
220
0.0
230
1.0
 70
    11
 71
     3
 72
    20
 73
    16
 74
     0
 42
0.0000000001
 43
0.0000000001
 40
0.0
 40
0.0
 40
0.0
 40
0.0
 40
1.0
 40
1.0
 40
1.0
 40
2.0
 40
2.0
 40
2.0
 40
3.0
 40
3.0
 40
3.0
 40
4.0
 40
4.0
 40
4.0
 40
5.0
 40
5.0
 40
5.0
 40
5.0
 10
449.1081596099451
 20
3.80338541571582
 30
0.0
 10
449.1081596099451
 20
21.83914930009577
 30
0.0
 10
463.7925346062741
 20
36.45737846310788
 30
0.0
 10
481.8999564767472
 20
36.45737846310788
 30
0.0
 10
500.0128904999967
 20
36.45737846310788
 30
0.0
 10
514.6917533435493
 20
21.83914930009577
 30
0.0
 10
514.6917533435493
 20
3.80338541571582
 30
0.0
 10
514.6917533435493
 20
-14.23237846866413
 30
0.0
 10
500.0128904999967
 20
-28.85060763167624
 30
0.0
 10
481.8999564767472
 20
-28.85060763167624
 30
0.0
 10
463.7925346062741
 20
-28.85060763167624
 30
0.0
 10
449.1081596099451
 20
-14.23237846866413
 30
0.0
 10
449.1081596099451
 20
3.80338541571582
 30
0.0
 10
449.1081596099451
 20
3.80338541571582
 30
0.0
 10
449.1081596099451
 20
3.80338541571582
 30
0.0
 10
449.1081596099451
 20
3.80338541571582
 30
0.0
  0
SPLINE
  5
2EC1
330
2EAE
100
AcDbEntity
  8
0
 62
   250
420
  1842203
370
     9
100
AcDbSpline
210
0.0
220
0.0
230
1.0
 70
    11
 71
     3
 72
    20
 73
    16
 74
     0
 42
0.0000000001
 43
0.0000000001
 40
0.0
 40
0.0
 40
0.0
 40
0.0
 40
1.0
 40
1.0
 40
1.0
 40
2.0
 40
2.0
 40
2.0
 40
3.0
 40
3.0
 40
3.0
 40
4.0
 40
4.0
 40
4.0
 40
5.0
 40
5.0
 40
5.0
 40
5.0
 10
439.660329751196
 20
3.80889756849222
 30
0.0
 10
439.660329751196
 20
27.03159721546433
 30
0.0
 10
458.5670137742471
 20
45.86111109964583
 30
0.0
 10
481.8944443239708
 20
45.86111109964583
 30
0.0
 10
505.2108505681418
 20
45.86111109964583
 30
0.0
 10
524.1175345911929
 20
27.03159721546433
 30
0.0
 10
524.1175345911929
 20
3.80889756849222
 30
0.0
 10
524.1175345911929
 20
-19.41380207847988
 30
0.0
 10
505.2108505681418
 20
-38.24331596266139
 30
0.0
 10
481.8944443239708
 20
-38.24331596266139
 30
0.0
 10
458.5670137742471
 20
-38.24331596266139
 30
0.0
 10
439.660329751196
 20
-19.41380207847988
 30
0.0
 10
439.660329751196
 20
3.80889756849222
 30
0.0
 10
439.660329751196
 20
3.80889756849222
 30
0.0
 10
439.660329751196
 20
3.80889756849222
 30
0.0
 10
439.660329751196
 20
3.80889756849222
 30
0.0
  0
SPLINE
  5
2EC2
330
2EAE
100
AcDbEntity
  8
0
 62
   250
420
  1842203
370
     9
100
AcDbSpline
210
0.0
220
0.0
230
1.0
 70
     8
 71
     3
 72
     8
 73
     4
 74
     0
 42
0.0000000001
 43
0.0000000001
 40
0.0
 40
0.0
 40
0.0
 40
0.0
 40
1.0
 40
1.0
 40
1.0
 40
1.0
 10
-764.469444253327
 20
156.1978732248394
 30
0.0
 10
-764.469444253327
 20
302.3526040910785
 30
0.0
 10
-678.4853730942676
 20
480.3289929354733
 30
0.0
 10
-403.7872394823865
 20
511.9467012609022
 30
0.0
  0
SPLINE
  5
2EC3
330
2EAE
100
AcDbEntity
  8
0
 62
   250
420
  1842203
370
     9
100
AcDbSpline
210
0.0
220
0.0
230
1.0
 70
     8
 71
     3
 72
     8
 73
     4
 74
     0
 42
0.0000000001
 43
0.0000000001
 40
0.0
 40
0.0
 40
0.0
 40
0.0
 40
1.0
 40
1.0
 40
1.0
 40
1.0
 10
-676.7214842058197
 20
155.889192669361
 30
0.0
 10
-676.7214842058197
 20
302.0494356883765
 30
0.0
 10
-641.2177081730288
 20
421.9663193389528
 30
0.0
 10
-430.2455728091053
 20
488.2334200168306
 30
0.0
  0
SPLINE
  5
2EC4
330
2EAE
100
AcDbEntity
  8
0
 62
   250
420
  1842203
370
     9
100
AcDbSpline
210
0.0
220
0.0
230
1.0
 70
     8
 71
     3
 72
     8
 73
     4
 74
     0
 42
0.0000000001
 43
0.0000000001
 40
0.0
 40
0.0
 40
0.0
 40
0.0
 40
1.0
 40
1.0
 40
1.0
 40
1.0
 10
-764.4749564061035
 20
155.889192669361
 30
0.0
 10
-764.4749564061035
 20
9.73446180312194
 30
0.0
 10
-678.4908852470439
 20
-168.2419270412728
 30
0.0
 10
-403.7982637879393
 20
-199.8596353667018
 30
0.0
  0
SPLINE
  5
2EC5
330
2EAE
100
AcDbEntity
  8
0
 62
   250
420
  1842203
370
     9
100
AcDbSpline
210
0.0
220
0.0
230
1.0
 70
     8
 71
     3
 72
     8
 73
     4
 74
     0
 42
0.0000000001
 43
0.0000000001
 40
0.0
 40
0.0
 40
0.0
 40
0.0
 40
1.0
 40
1.0
 40
1.0
 40
1.0
 10
-676.726996358596
 20
156.1978732248394
 30
0.0
 10
-676.726996358596
 20
10.03763020582392
 30
0.0
 10
-641.2232203258053
 20
-109.8792534447524
 30
0.0
 10
-430.2510849618816
 20
-176.1463541226301
 30
0.0
  0
SPLINE
  5
2EC6
330
2EAE
100
AcDbEntity
  8
0
 62
   250
420
  1842203
370
     9
100
AcDbSpline
210
0.0
220
0.0
230
1.0
 70
    11
 71
     3
 72
    20
 73
    16
 74
     0
 42
0.0000000001
 43
0.0000000001
 40
0.0
 40
0.0
 40
0.0
 40
0.0
 40
1.0
 40
1.0
 40
1.0
 40
2.0
 40
2.0
 40
2.0
 40
3.0
 40
3.0
 40
3.0
 40
4.0
 40
4.0
 40
4.0
 40
5.0
 40
5.0
 40
5.0
 40
5.0
 10
40.62456596206608
 20
-201.7447916162305
 30
0.0
 10
40.62456596206608
 20
-201.2431857135781
 30
0.0
 10
73.30611977334014
 20
-200.8407985609009
 30
0.0
 10
113.6164930271514
 20
-200.8407985609009
 30
0.0
 10
153.9323784337391
 20
-200.8407985609009
 30
0.0
 10
186.6139322450132
 20
-201.2431857135781
 30
0.0
 10
186.6139322450132
 20
-201.7447916162305
 30
0.0
 10
186.6139322450132
 20
-202.2408853661064
 30
0.0
 10
153.9323784337391
 20
-202.6432725187837
 30
0.0
 10
113.6164930271514
 20
-202.6432725187837
 30
0.0
 10
73.30611977334014
 20
-202.6432725187837
 30
0.0
 10
40.62456596206608
 20
-202.2408853661064
 30
0.0
 10
40.62456596206608
 20
-201.7447916162305
 30
0.0
 10
40.62456596206608
 20
-201.7447916162305
 30
0.0
 10
40.62456596206608
 20
-201.7447916162305
 30
0.0
 10
40.62456596206608
 20
-201.7447916162305
 30
0.0
  0
SPLINE
  5
2EC7
330
2EAE
100
AcDbEntity
  8
0
 62
   250
420
  1842203
370
     9
100
AcDbSpline
210
0.0
220
0.0
230
1.0
 70
     8
 71
     3
 72
    11
 73
     7
 74
     0
 42
0.0000000001
 43
0.0000000001
 40
0.0
 40
0.0
 40
0.0
 40
0.0
 40
1.0
 40
1.0
 40
1.0
 40
2.0
 40
2.0
 40
2.0
 40
2.0
 10
112.6904513607163
 20
600.5600692943044
 30
0.0
 10
-305.5055554791792
 20
600.5600692943044
 30
0.0
 10
-592.5068140879845
 20
600.5600692943044
 30
0.0
 10
-754.7956161307455
 20
439.3296005846121
 30
0.0
 10
-824.5298609049786
 20
370.0528644908201
 30
0.0
 10
-864.2173608950567
 20
273.4248263205327
 30
0.0
 10
-864.2173608950567
 20
156.1978732248394
 30
0.0
  0
SPLINE
  5
2EC8
330
2EAE
100
AcDbEntity
  8
0
 62
   250
420
  1842203
370
     9
100
AcDbSpline
210
0.0
220
0.0
230
1.0
 70
     8
 71
     3
 72
    11
 73
     7
 74
     0
 42
0.0000000001
 43
0.0000000001
 40
0.0
 40
0.0
 40
0.0
 40
0.0
 40
1.0
 40
1.0
 40
1.0
 40
2.0
 40
2.0
 40
2.0
 40
2.0
 10
112.6904513607163
 20
588.4608939501069
 30
0.0
 10
-264.8809895171131
 20
588.4608939501069
 30
0.0
 10
-582.8991317987197
 20
594.3974824902896
 30
0.0
 10
-742.5476126615854
 20
430.0967446841425
 30
0.0
 10
-808.6658852145003
 20
362.0602429650405
 30
0.0
 10
-848.5352862461995
 20
273.3752169455451
 30
0.0
 10
-848.5352862461995
 20
156.1482638498518
 30
0.0
  0
SPLINE
  5
2EC9
330
2EAE
100
AcDbEntity
  8
0
 62
   250
420
  1842203
370
     9
100
AcDbSpline
210
0.0
220
0.0
230
1.0
 70
     8
 71
     3
 72
    11
 73
     7
 74
     0
 42
0.0000000001
 43
0.0000000001
 40
0.0
 40
0.0
 40
0.0
 40
0.0
 40
1.0
 40
1.0
 40
1.0
 40
2.0
 40
2.0
 40
2.0
 40
2.0
 10
112.6904513607163
 20
541.4367186146408
 30
0.0
 10
-67.79396699694039
 20
541.4367186146408
 30
0.0
 10
-461.8963540511925
 20
558.7614147908652
 30
0.0
 10
-641.3610241452153
 20
450.4310762762811
 30
0.0
 10
-753.009678631192
 20
383.0339842792415
 30
0.0
 10
-798.3416230643036
 20
276.3462672920245
 30
0.0
 10
-798.3416230643036
 20
156.1482638498518
 30
0.0
  0
SPLINE
  5
2ECA
330
2EAE
100
AcDbEntity
  8
0
 62
   250
420
  1842203
370
     9
100
AcDbSpline
210
0.0
220
0.0
230
1.0
 70
     8
 71
     3
 72
    14
 73
    10
 74
     0
 42
0.0000000001
 43
0.0000000001
 40
0.0
 40
0.0
 40
0.0
 40
0.0
 40
1.0
 40
1.0
 40
1.0
 40
2.0
 40
2.0
 40
2.0
 40
3.0
 40
3.0
 40
3.0
 40
3.0
 10
112.6904513607163
 20
444.9850693331982
 30
0.0
 10
49.08572047383969
 20
444.9850693331982
 30
0.0
 10
-116.3339843459165
 20
442.9676214170359
 30
0.0
 10
-236.6422308436172
 20
436.1821613492877
 30
0.0
 10
-384.5057290705403
 20
427.8477863513713
 30
0.0
 10
-539.7720484761681
 20
410.1427516335753
 30
0.0
 10
-619.2683158174052
 20
353.8581596337577
 30
0.0
 10
-689.8900171886387
 20
303.8519096462593
 30
0.0
 10
-715.2459199600774
 20
237.4855902184064
 30
0.0
 10
-715.2459199600774
 20
155.9222655860194
 30
0.0
  0
SPLINE
  5
2ECB
330
2EAE
100
AcDbEntity
  8
0
 62
   250
420
  1842203
370
     9
100
AcDbSpline
210
0.0
220
0.0
230
1.0
 70
     8
 71
     3
 72
    14
 73
    10
 74
     0
 42
0.0000000001
 43
0.0000000001
 40
0.0
 40
0.0
 40
0.0
 40
0.0
 40
1.0
 40
1.0
 40
1.0
 40
2.0
 40
2.0
 40
2.0
 40
3.0
 40
3.0
 40
3.0
 40
3.0
 10
112.8778645551139
 20
415.7045137849627
 30
0.0
 10
46.4453992939442
 20
415.9801214237827
 30
0.0
 10
-105.1939235848126
 20
416.9282117013235
 30
0.0
 10
-210.6524305028925
 20
410.9805988555882
 30
0.0
 10
-358.5214408825919
 20
402.6407117048954
 30
0.0
 10
-517.1060762596123
 20
393.8212672626558
 30
0.0
 10
-601.1167967247208
 20
334.2238714442218
 30
0.0
 10
-665.6585935835853
 20
288.4344183306692
 30
0.0
 10
-688.4789060778802
 20
232.2214843169446
 30
0.0
 10
-688.4789060778802
 20
155.9222655860194
 30
0.0
  0
SPLINE
  5
2ECC
330
2EAE
100
AcDbEntity
  8
0
 62
   250
420
  1842203
370
     9
100
AcDbSpline
210
0.0
220
0.0
230
1.0
 70
     8
 71
     3
 72
    11
 73
     7
 74
     0
 42
0.0000000001
 43
0.0000000001
 40
0.0
 40
0.0
 40
0.0
 40
0.0
 40
1.0
 40
1.0
 40
1.0
 40
2.0
 40
2.0
 40
2.0
 40
2.0
 10
112.6794270551635
 20
-285.0609808315125
 30
0.0
 10
-305.5055554791792
 20
-285.0609808315125
 30
0.0
 10
-592.5068140879845
 20
-285.0609808315125
 30
0.0
 10
-754.7901039779691
 20
-124.7345051771497
 30
0.0
 10
-824.5243487522023
 20
-55.84361977770576
 30
0.0
 10
-864.2063365895038
 20
40.2442274204945
 30
0.0
 10
-864.2063365895038
 20
156.8152343357962
 30
0.0
  0
SPLINE
  5
2ECD
330
2EAE
100
AcDbEntity
  8
0
 62
   250
420
  1842203
370
     9
100
AcDbSpline
210
0.0
220
0.0
230
1.0
 70
     8
 71
     3
 72
    11
 73
     7
 74
     0
 42
0.0000000001
 43
0.0000000001
 40
0.0
 40
0.0
 40
0.0
 40
0.0
 40
1.0
 40
1.0
 40
1.0
 40
2.0
 40
2.0
 40
2.0
 40
2.0
 10
112.6794270551635
 20
-273.0224391678555
 30
0.0
 10
-264.8809895171131
 20
-273.0224391678555
 30
0.0
 10
-582.8936196459433
 20
-278.931466944156
 30
0.0
 10
-742.5476126615854
 20
-115.5567708044441
 30
0.0
 10
-808.6603730617238
 20
-47.90060762691374
 30
0.0
 10
-848.5297740934232
 20
40.29383679548209
 30
0.0
 10
-848.5297740934232
 20
156.8648437107838
 30
0.0
  0
SPLINE
  5
2ECE
330
2EAE
100
AcDbEntity
  8
0
 62
   250
420
  1842203
370
     9
100
AcDbSpline
210
0.0
220
0.0
230
1.0
 70
     8
 71
     3
 72
    11
 73
     7
 74
     0
 42
0.0000000001
 43
0.0000000001
 40
0.0
 40
0.0
 40
0.0
 40
0.0
 40
1.0
 40
1.0
 40
1.0
 40
2.0
 40
2.0
 40
2.0
 40
2.0
 10
112.6794270551635
 20
-226.2683593184329
 30
0.0
 10
-67.80499130249321
 20
-226.2683593184329
 30
0.0
 10
-461.8908418984162
 20
-243.4993488974585
 30
0.0
 10
-641.3610241452153
 20
-135.769835035502
 30
0.0
 10
-753.0041664784156
 20
-68.75308158003395
 30
0.0
 10
-798.3361109115271
 20
37.33932290733184
 30
0.0
 10
-798.3361109115271
 20
156.8648437107838
 30
0.0
  0
SPLINE
  5
2ECF
330
2EAE
100
AcDbEntity
  8
0
 62
   250
420
  1842203
370
     9
100
AcDbSpline
210
0.0
220
0.0
230
1.0
 70
     8
 71
     3
 72
    14
 73
    10
 74
     0
 42
0.0000000001
 43
0.0000000001
 40
0.0
 40
0.0
 40
0.0
 40
0.0
 40
1.0
 40
1.0
 40
1.0
 40
2.0
 40
2.0
 40
2.0
 40
3.0
 40
3.0
 40
3.0
 40
3.0
 10
112.6794270551635
 20
-131.9719617725625
 30
0.0
 10
49.08020832106328
 20
-131.9719617725625
 30
0.0
 10
-116.3394964986929
 20
-129.9545138564002
 30
0.0
 10
-236.6477429963936
 20
-123.1690537886522
 30
0.0
 10
-384.516753376093
 20
-114.8291666379593
 30
0.0
 10
-539.7830727817209
 20
-97.13515622571621
 30
0.0
 10
-619.2793401229579
 20
-40.84505207312207
 30
0.0
 10
-689.8955293414149
 20
9.161197914376367
 30
0.0
 10
-715.2514321128538
 20
75.52200518945284
 30
0.0
 10
-715.2514321128538
 20
157.0908419746162
 30
0.0
  0
SPLINE
  5
2ED0
330
2EAE
100
AcDbEntity
  8
0
 62
   250
420
  1842203
370
     9
100
AcDbSpline
210
0.0
220
0.0
230
1.0
 70
     8
 71
     3
 72
    14
 73
    10
 74
     0
 42
0.0000000001
 43
0.0000000001
 40
0.0
 40
0.0
 40
0.0
 40
0.0
 40
1.0
 40
1.0
 40
1.0
 40
2.0
 40
2.0
 40
2.0
 40
3.0
 40
3.0
 40
3.0
 40
3.0
 10
112.8668402495611
 20
-102.7410155993147
 30
0.0
 10
46.43988714116781
 20
-103.0221353909111
 30
0.0
 10
-105.199435737589
 20
-103.9151041406879
 30
0.0
 10
-210.6634548084453
 20
-97.96749129495259
 30
0.0
 10
-358.5324651881447
 20
-89.62760414425977
 30
0.0
 10
-517.1171005651651
 20
-80.80815970202019
 30
0.0
 10
-601.1223088774971
 20
-21.2107638835862
 30
0.0
 10
-665.6641057363617
 20
24.57868922996644
 30
0.0
 10
-688.4899303834331
 20
80.79162324369098
 30
0.0
 10
-688.4899303834331
 20
157.0908419746162
 30
0.0
  0
SPLINE
  5
2ED1
330
2EAE
100
AcDbEntity
  8
0
 62
   250
420
  1842203
370
     9
100
AcDbSpline
210
0.0
220
0.0
230
1.0
 70
     8
 71
     3
 72
    11
 73
     7
 74
     0
 42
0.0000000001
 43
0.0000000001
 40
0.0
 40
0.0
 40
0.0
 40
0.0
 40
1.0
 40
1.0
 40
1.0
 40
2.0
 40
2.0
 40
2.0
 40
2.0
 10
113.087326360617
 20
599.8765623500308
 30
0.0
 10
478.2894964082053
 20
598.9725692947013
 30
0.0
 10
732.8462237751217
 20
587.4025606170382
 30
0.0
 10
881.8397133212068
 20
438.9437498902641
 30
0.0
 10
951.2763018455144
 20
369.7662325464473
 30
0.0
 10
990.7874129467476
 20
273.2704860427935
 30
0.0
 10
990.7874129467476
 20
156.2033853776158
 30
0.0
  0
SPLINE
  5
2ED2
330
2EAE
100
AcDbEntity
  8
0
 62
   250
420
  1842203
370
     9
100
AcDbSpline
210
0.0
220
0.0
230
1.0
 70
     8
 71
     3
 72
    11
 73
     7
 74
     0
 42
0.0000000001
 43
0.0000000001
 40
0.0
 40
0.0
 40
0.0
 40
0.0
 40
1.0
 40
1.0
 40
1.0
 40
2.0
 40
2.0
 40
2.0
 40
2.0
 10
112.7896701106914
 20
587.8876300613614
 30
0.0
 10
446.8261283605157
 20
587.6450953391999
 30
0.0
 10
724.2197046800562
 20
579.8233505494886
 30
0.0
 10
869.6468313798105
 20
429.7274304481237
 30
0.0
 10
935.4729598355762
 20
361.7846353262205
 30
0.0
 10
975.1659719784308
 20
273.2208766678059
 30
0.0
 10
975.1659719784308
 20
156.1537760026282
 30
0.0
  0
SPLINE
  5
2ED3
330
2EAE
100
AcDbEntity
  8
0
 62
   250
420
  1842203
370
     9
100
AcDbSpline
210
0.0
220
0.0
230
1.0
 70
     8
 71
     3
 72
    11
 73
     7
 74
     0
 42
0.0000000001
 43
0.0000000001
 40
0.0
 40
0.0
 40
0.0
 40
0.0
 40
1.0
 40
1.0
 40
1.0
 40
2.0
 40
2.0
 40
2.0
 40
2.0
 10
112.6904513607163
 20
540.9020397953301
 30
0.0
 10
311.5523870748897
 20
542.5667099338028
 30
0.0
 10
617.3666231095473
 20
541.7674477812248
 30
0.0
 10
768.895702932776
 20
450.0342012763804
 30
0.0
 10
880.064800127206
 20
382.7308158765395
 30
0.0
 10
925.2038192131434
 20
276.186414861509
 30
0.0
 10
925.2038192131434
 20
156.1537760026282
 30
0.0
  0
SPLINE
  5
2ED4
330
2EAE
100
AcDbEntity
  8
0
 62
   250
420
  1842203
370
     9
100
AcDbSpline
210
0.0
220
0.0
230
1.0
 70
     8
 71
     3
 72
    14
 73
    10
 74
     0
 42
0.0000000001
 43
0.0000000001
 40
0.0
 40
0.0
 40
0.0
 40
0.0
 40
1.0
 40
1.0
 40
1.0
 40
2.0
 40
2.0
 40
2.0
 40
3.0
 40
3.0
 40
3.0
 40
3.0
 10
112.6904513607163
 20
444.9850693331982
 30
0.0
 10
188.9896700916414
 20
443.8605901668126
 30
0.0
 10
287.1721353448736
 20
440.6414929453951
 30
0.0
 10
366.1447481723527
 20
436.1876735020642
 30
0.0
 10
514.0137585520522
 20
427.8477863513713
 30
0.0
 10
669.2800779576799
 20
410.1537759391282
 30
0.0
 10
748.776345298917
 20
353.8636717865341
 30
0.0
 10
819.392534517374
 20
303.862933951812
 30
0.0
 10
844.748437288813
 20
237.4966145239592
 30
0.0
 10
844.748437288813
 20
155.9332898915722
 30
0.0
  0
SPLINE
  5
2ED5
330
2EAE
100
AcDbEntity
  8
0
 62
   250
420
  1842203
370
     9
100
AcDbSpline
210
0.0
220
0.0
230
1.0
 70
     8
 71
     3
 72
    14
 73
    10
 74
     0
 42
0.0000000001
 43
0.0000000001
 40
0.0
 40
0.0
 40
0.0
 40
0.0
 40
1.0
 40
1.0
 40
1.0
 40
2.0
 40
2.0
 40
2.0
 40
3.0
 40
3.0
 40
3.0
 40
3.0
 10
112.8778645551139
 20
415.7045137849627
 30
0.0
 10
184.1830728706209
 20
415.6714408683043
 30
0.0
 10
271.8263020153768
 20
414.8391057990679
 30
0.0
 10
340.1604599844043
 20
410.9861110083646
 30
0.0
 10
488.0349825168801
 20
402.6462238576717
 30
0.0
 10
646.6196178939006
 20
393.8267794154322
 30
0.0
 10
730.6303383590091
 20
334.2293835969982
 30
0.0
 10
795.1611109123208
 20
288.445442636222
 30
0.0
 10
817.9924477121685
 20
232.226996469721
 30
0.0
 10
817.9924477121685
 20
155.9332898915722
 30
0.0
  0
SPLINE
  5
2ED6
330
2EAE
100
AcDbEntity
  8
0
 62
   250
420
  1842203
370
     9
100
AcDbSpline
210
0.0
220
0.0
230
1.0
 70
     8
 71
     3
 72
    11
 73
     7
 74
     0
 42
0.0000000001
 43
0.0000000001
 40
0.0
 40
0.0
 40
0.0
 40
0.0
 40
1.0
 40
1.0
 40
1.0
 40
2.0
 40
2.0
 40
2.0
 40
2.0
 10
113.0818142078406
 20
-285.1326388176058
 30
0.0
 10
478.283984255429
 20
-284.2286457622762
 30
0.0
 10
732.8462237751217
 20
-272.7082464596007
 30
0.0
 10
881.8452254739831
 20
-124.8502603854541
 30
0.0
 10
951.2763018455144
 20
-55.94835068045735
 30
0.0
 10
990.7984372523005
 20
40.1615451288485
 30
0.0
 10
990.7984372523005
 20
156.7546006552558
 30
0.0
  0
SPLINE
  5
2ED7
330
2EAE
100
AcDbEntity
  8
0
 62
   250
420
  1842203
370
     9
100
AcDbSpline
210
0.0
220
0.0
230
1.0
 70
     8
 71
     3
 72
    11
 73
     7
 74
     0
 42
0.0000000001
 43
0.0000000001
 40
0.0
 40
0.0
 40
0.0
 40
0.0
 40
1.0
 40
1.0
 40
1.0
 40
2.0
 40
2.0
 40
2.0
 40
2.0
 10
112.784157957915
 20
-273.1878037511475
 30
0.0
 10
446.8261283605157
 20
-272.9452690289859
 30
0.0
 10
724.2197046800562
 20
-265.1621093087095
 30
0.0
 10
869.652343532587
 20
-115.6670138599721
 30
0.0
 10
935.4784719883527
 20
-47.99982637688893
 30
0.0
 10
975.1825084367599
 20
40.2111545038361
 30
0.0
 10
975.1825084367599
 20
156.8042100302434
 30
0.0
  0
SPLINE
  5
2ED8
330
2EAE
100
AcDbEntity
  8
0
 62
   250
420
  1842203
370
     9
100
AcDbSpline
210
0.0
220
0.0
230
1.0
 70
     8
 71
     3
 72
    11
 73
     7
 74
     0
 42
0.0000000001
 43
0.0000000001
 40
0.0
 40
0.0
 40
0.0
 40
0.0
 40
1.0
 40
1.0
 40
1.0
 40
2.0
 40
2.0
 40
2.0
 40
2.0
 10
112.6794270551635
 20
-226.3951388322901
 30
0.0
 10
311.5523870748897
 20
-228.04878466521
 30
0.0
 10
617.3666231095473
 20
-227.2550346654085
 30
0.0
 10
768.9012150855525
 20
-135.8911023965828
 30
0.0
 10
880.0703122799824
 20
-68.85781248278554
 30
0.0
 10
925.2038192131434
 20
37.25664061568584
 30
0.0
 10
925.2038192131434
 20
156.8042100302434
 30
0.0
  0
SPLINE
  5
2ED9
330
2EAE
100
AcDbEntity
  8
0
 62
   250
420
  1842203
370
     9
100
AcDbSpline
210
0.0
220
0.0
230
1.0
 70
     8
 71
     3
 72
    14
 73
    10
 74
     0
 42
0.0000000001
 43
0.0000000001
 40
0.0
 40
0.0
 40
0.0
 40
0.0
 40
1.0
 40
1.0
 40
1.0
 40
2.0
 40
2.0
 40
2.0
 40
3.0
 40
3.0
 40
3.0
 40
3.0
 10
112.6794270551635
 20
-132.0270833003265
 30
0.0
 10
188.9841579388651
 20
-130.902604133941
 30
0.0
 10
287.1611110393209
 20
-127.6835069125235
 30
0.0
 10
366.1392360195764
 20
-123.2296874691926
 30
0.0
 10
514.0082463992757
 20
-114.8898003184998
 30
0.0
 10
669.2745658049036
 20
-97.19578990625661
 30
0.0
 10
748.7708331461406
 20
-40.90568575366247
 30
0.0
 10
819.3870223645978
 20
9.09505208105957
 30
0.0
 10
844.7429251360365
 20
75.46137150891244
 30
0.0
 10
844.7429251360365
 20
157.0302082940758
 30
0.0
  0
SPLINE
  5
2EDA
330
2EAE
100
AcDbEntity
  8
0
 62
   250
420
  1842203
370
     9
100
AcDbSpline
210
0.0
220
0.0
230
1.0
 70
     8
 71
     3
 72
    14
 73
    10
 74
     0
 42
0.0000000001
 43
0.0000000001
 40
0.0
 40
0.0
 40
0.0
 40
0.0
 40
1.0
 40
1.0
 40
1.0
 40
2.0
 40
2.0
 40
2.0
 40
3.0
 40
3.0
 40
3.0
 40
3.0
 10
112.8668402495611
 20
-102.7410155993147
 30
0.0
 10
184.1720485650681
 20
-102.7134548354327
 30
0.0
 10
271.815277709824
 20
-101.8811197661964
 30
0.0
 10
340.154947831628
 20
-98.02812497549297
 30
0.0
 10
488.0239582113273
 20
-89.68823782480017
 30
0.0
 10
646.6085935883478
 20
-80.86879338256059
 30
0.0
 10
730.6248262062326
 20
-21.2713975641266
 30
0.0
 10
795.1555987595444
 20
24.51254339664965
 30
0.0
 10
817.9814234066158
 20
80.73098956315059
 30
0.0
 10
817.9814234066158
 20
157.0302082940758
 30
0.0
  0
SPLINE
  5
2EDB
330
2EAE
100
AcDbEntity
  8
0
 62
   250
420
  1842203
370
     9
100
AcDbSpline
210
0.0
220
0.0
230
1.0
 70
     8
 71
     3
 72
    11
 73
     7
 74
     0
 42
0.0000000001
 43
0.0000000001
 40
0.0
 40
0.0
 40
0.0
 40
0.0
 40
1.0
 40
1.0
 40
1.0
 40
2.0
 40
2.0
 40
2.0
 40
2.0
 10
113.2196180272506
 20
408.4284721201151
 30
0.0
 10
-178.4724825942708
 20
408.4284721201151
 30
0.0
 10
-328.2983072095921
 20
408.4284721201151
 30
0.0
 10
-421.3930554502073
 20
316.9598089485378
 30
0.0
 10
-461.3947481485402
 20
277.6581596528077
 30
0.0
 10
-484.1599391150711
 20
222.8398002915123
 30
0.0
 10
-484.1599391150711
 20
156.3356770442494
 30
0.0
  0
SPLINE
  5
2EDC
330
2EAE
100
AcDbEntity
  8
0
 62
   250
420
  1842203
370
     9
100
AcDbSpline
210
0.0
220
0.0
230
1.0
 70
     8
 71
     3
 72
    11
 73
     7
 74
     0
 42
0.0000000001
 43
0.0000000001
 40
0.0
 40
0.0
 40
0.0
 40
0.0
 40
1.0
 40
1.0
 40
1.0
 40
2.0
 40
2.0
 40
2.0
 40
2.0
 10
113.2141058744742
 20
-95.88940969824987
 30
0.0
 10
-178.4779947470472
 20
-95.88940969824987
 30
0.0
 10
-328.3038193623685
 20
-95.88940969824987
 30
0.0
 10
-421.3985676029836
 20
-4.426258679448991
 30
0.0
 10
-461.405772454093
 20
34.87539061628115
 30
0.0
 10
-484.1709634206239
 20
89.69374997757658
 30
0.0
 10
-484.1709634206239
 20
156.1978732248394
 30
0.0
  0
SPLINE
  5
2EDD
330
2EAE
100
AcDbEntity
  8
0
 62
   250
420
  1842203
370
     9
100
AcDbSpline
210
0.0
220
0.0
230
1.0
 70
     8
 71
     3
 72
    11
 73
     7
 74
     0
 42
0.0000000001
 43
0.0000000001
 40
0.0
 40
0.0
 40
0.0
 40
0.0
 40
1.0
 40
1.0
 40
1.0
 40
2.0
 40
2.0
 40
2.0
 40
2.0
 10
113.2196180272506
 20
408.4339842728915
 30
0.0
 10
393.479513790519
 20
408.3953992034567
 30
0.0
 10
539.4688800734662
 20
406.592925245574
 30
0.0
 10
630.6950085228818
 20
316.9708332540906
 30
0.0
 10
670.6911890684383
 20
277.6691839583605
 30
0.0
 10
693.4563800349692
 20
222.8508245970651
 30
0.0
 10
693.4563800349692
 20
156.3467013498022
 30
0.0
  0
SPLINE
  5
2EDE
330
2EAE
100
AcDbEntity
  8
0
 62
   250
420
  1842203
370
     9
100
AcDbSpline
210
0.0
220
0.0
230
1.0
 70
     8
 71
     3
 72
    11
 73
     7
 74
     0
 42
0.0000000001
 43
0.0000000001
 40
0.0
 40
0.0
 40
0.0
 40
0.0
 40
1.0
 40
1.0
 40
1.0
 40
2.0
 40
2.0
 40
2.0
 40
2.0
 10
113.2141058744742
 20
-95.88389754547348
 30
0.0
 10
393.4629773321899
 20
-95.84531247603868
 30
0.0
 10
539.4743922262425
 20
-94.04283851815597
 30
0.0
 10
630.7005206756582
 20
-4.415234373896191
 30
0.0
 10
670.6967012212147
 20
34.88641492183396
 30
0.0
 10
693.4618921877456
 20
89.69926213035297
 30
0.0
 10
693.4618921877456
 20
156.2033853776158
 30
0.0
  0
ENDBLK
  5
2EDF
330
2EAE
100
AcDbEntity
  8
0
100
AcDbBlockEnd
  0
ENDSEC
  0
SECTION
  2
ENTITIES
  0
CIRCLE
  5
2DC1
330
1F
100
AcDbEntity
  8
0
100
AcDbCircle
 10
-0.0060309296695742
 20
-0.0069784536371939
 30
0.0
 40
26.0
  0
CIRCLE
  5
2DC4
330
1F
100
AcDbEntity
  8
0
100
AcDbCircle
 10
-0.0060309296695742
 20
-0.0069784536371939
 30
0.0
 40
37.5
  0
LINE
  5
2DC5
330
1F
100
AcDbEntity
  8
0
  6
AM_DIN_G_W050
 62
     4
 48
2.0
100
AcDbLine
 10
-0.0060309296695742
 20
53.82121980795176
 30
0.0
 11
-0.0060309296695742
 21
-53.83517671522614
 31
0.0
  0
LINE
  5
2DC6
330
1F
100
AcDbEntity
  8
0
  6
AM_DIN_G_W050
 62
     4
 48
2.0
100
AcDbLine
 10
-53.83422919125852
 20
-0.0069784536371939
 30
0.0
 11
53.82216733191938
 21
-0.0069784536371939
 31
0.0
  0
ARC
  5
2DCF
330
1F
100
AcDbEntity
  8
0
100
AcDbCircle
 10
438.5928864966346
 20
11.45153164955957
 30
0.0
 40
334.0994083357178
100
AcDbArc
 50
358.0487456335029
 51
78.27208834047798
  0
ARC
  5
2DF0
330
1F
100
AcDbEntity
  8
0
100
AcDbCircle
 10
496.6341457865306
 20
-0.0069784536371959
 30
0.0
 40
357.6856918744473
100
AcDbArc
 50
324.0491267950953
 51
35.95087320490403
  0
ARC
  5
2DF1
330
1F
100
AcDbEntity
  8
0
100
AcDbCircle
 10
503.3677178125446
 20
-1.063336689755447
 30
0.0
 40
352.8876652416609
100
AcDbArc
 50
36.73159642437191
 51
78.60879382910296
  0
ARC
  5
2F5B
330
1F
100
AcDbEntity
  8
0
100
AcDbCircle
 10
438.5928864966346
 20
-11.46548855683396
 30
0.0
 40
334.0994083357178
100
AcDbArc
 50
281.727911659522
 51
1.951254366497157
  0
SPLINE
  5
2FD3
330
1F
100
AcDbEntity
  8
0
  6
AM_DIN_F_W050
 62
     6
 48
4.0
100
AcDbSpline
210
0.0
220
0.0
230
1.0
 70
     8
 71
     3
 72
    11
 73
     7
 74
     0
 42
0.0000000001
 43
0.0000000001
 40
58.56736755853074
 40
58.56736755853074
 40
58.56736755853074
 40
58.56736755853074
 40
132.5173514920811
 40
268.6186495361069
 40
503.3450229103713
 40
920.7474731979329
 40
920.7474731979329
 40
920.7474731979329
 40
920.7474731979329
 10
-743.2139239347439
 20
-64.28699277761253
 30
0.0
 10
-738.7348243083001
 20
-88.87010495386244
 30
0.0
 10
-719.6604526082674
 20
-155.6086661534126
 30
0.0
 10
-592.8314408242183
 20
-254.8939349830687
 30
0.0
 10
-327.7904281709173
 20
-285.8227781714597
 30
0.0
 10
-111.1617033438396
 20
-290.2033142990632
 30
0.0
 10
27.49396907033037
 20
-293.0071261333077
 30
0.0
  0
SPLINE
  5
2FE1
330
1F
100
AcDbEntity
  8
0
100
AcDbSpline
210
0.0
220
0.0
230
1.0
 70
    40
 71
     3
 72
    12
 73
     8
 74
     6
 42
0.0000000001
 43
0.0000000001
 44
0.00001
 40
0.0
 40
0.0
 40
0.0
 40
0.0
 40
53.2858719447903
 40
127.7952239687844
 40
237.0179897350009
 40
380.2178595208848
 40
727.5938359785241
 40
727.5938359785241
 40
727.5938359785241
 40
727.5938359785241
 10
624.3994328572355
 20
0.2984441507320586
 30
0.0
 10
623.4287476429727
 20
18.09247410216341
 30
0.0
 10
621.1007584437266
 20
60.76780172571286
 30
0.0
 10
591.667589481588
 20
136.1069753692637
 30
0.0
 10
507.7220745780311
 20
214.4162314813887
 30
0.0
 10
305.4307859413289
 20
250.2545606106031
 30
0.0
 10
142.7136876012406
 20
250.7275611196838
 30
0.0
 10
27.4939690703303
 20
251.0624920278502
 30
0.0
 11
624.3994328572355
 21
0.2984441507320586
 31
0.0
 11
619.13303093609
 21
53.32343033386599
 31
0.0
 11
591.9721165241225
 21
122.705908434185
 31
0.0
 11
512.6419258069348
 21
197.7814264303762
 31
0.0
 11
374.5255338453863
 21
235.5976263745533
 31
0.0
 11
27.4939690703303
 21
251.0624920278502
 31
0.0
  0
SPLINE
  5
2FE2
330
1F
100
AcDbEntity
  8
0
100
AcDbSpline
210
0.0
220
0.0
230
1.0
 70
    40
 71
     3
 72
    12
 73
     8
 74
     6
 42
0.0000000001
 43
0.0000000001
 44
0.00001
 40
0.0
 40
0.0
 40
0.0
 40
0.0
 40
53.2858719447903
 40
127.7952239687844
 40
237.0179897350009
 40
380.2178595208848
 40
727.5938359785241
 40
727.5938359785241
 40
727.5938359785241
 40
727.5938359785241
 10
-569.4114947165749
 20
0.298444150731918
 30
0.0
 10
-568.4408095023123
 20
18.09247410216326
 30
0.0
 10
-566.1128203030661
 20
60.7678017257127
 30
0.0
 10
-536.6796513409273
 20
136.1069753692637
 30
0.0
 10
-452.7341364373706
 20
214.4162314813885
 30
0.0
 10
-250.4428478006683
 20
250.2545606106031
 30
0.0
 10
-87.72574946058004
 20
250.7275611196838
 30
0.0
 10
27.49396907033025
 20
251.0624920278502
 30
0.0
 11
-569.4114947165749
 21
0.298444150731918
 31
0.0
 11
-564.1450927954293
 21
53.32343033386585
 31
0.0
 11
-536.9841783834618
 21
122.7059084341849
 31
0.0
 11
-457.6539876662742
 21
197.7814264303761
 31
0.0
 11
-319.5375957047257
 21
235.5976263745533
 31
0.0
 11
27.49396907033025
 21
251.0624920278502
 31
0.0
  0
SPLINE
  5
2FE3
330
1F
100
AcDbEntity
  8
0
100
AcDbSpline
210
0.0
220
0.0
230
1.0
 70
    40
 71
     3
 72
    12
 73
     8
 74
     6
 42
0.0000000001
 43
0.0000000001
 44
0.00001
 40
0.0
 40
0.0
 40
0.0
 40
0.0
 40
53.28587194479029
 40
127.7952239687844
 40
237.0179897350009
 40
380.2178595208848
 40
727.5938359785241
 40
727.5938359785241
 40
727.5938359785241
 40
727.5938359785241
 10
624.3994328572355
 20
-0.3124010580063988
 30
0.0
 10
623.4287476429727
 20
-18.10643100943774
 30
0.0
 10
621.1007584437266
 20
-60.78175863298721
 30
0.0
 10
591.6675894815881
 20
-136.1209322765382
 30
0.0
 10
507.722074578031
 20
-214.430188388663
 30
0.0
 10
305.4307859413291
 20
-250.2685175178776
 30
0.0
 10
142.7136876012407
 20
-250.7415180269582
 30
0.0
 10
27.49396907033032
 20
-251.0764489351246
 30
0.0
 11
624.3994328572355
 21
-0.3124010580063988
 31
0.0
 11
619.13303093609
 21
-53.33738724114033
 31
0.0
 11
591.9721165241225
 21
-122.7198653414594
 31
0.0
 11
512.6419258069348
 21
-197.7953833376506
 31
0.0
 11
374.5255338453863
 21
-235.6115832818277
 31
0.0
 11
27.49396907033032
 21
-251.0764489351246
 31
0.0
  0
SPLINE
  5
2FE4
330
1F
100
AcDbEntity
  8
0
100
AcDbSpline
210
0.0
220
0.0
230
1.0
 70
    40
 71
     3
 72
    12
 73
     8
 74
     6
 42
0.0000000001
 43
0.0000000001
 44
0.00001
 40
0.0
 40
0.0
 40
0.0
 40
0.0
 40
53.28587194479029
 40
127.7952239687844
 40
237.0179897350009
 40
380.2178595208848
 40
727.5938359785241
 40
727.5938359785241
 40
727.5938359785241
 40
727.5938359785241
 10
-569.4114947165749
 20
-0.3124010580063556
 30
0.0
 10
-568.4408095023122
 20
-18.1064310094377
 30
0.0
 10
-566.1128203030659
 20
-60.78175863298715
 30
0.0
 10
-536.6796513409275
 20
-136.1209322765381
 30
0.0
 10
-452.7341364373704
 20
-214.430188388663
 30
0.0
 10
-250.4428478006684
 20
-250.2685175178775
 30
0.0
 10
-87.72574946058009
 20
-250.7415180269582
 30
0.0
 10
27.49396907033028
 20
-251.0764489351246
 30
0.0
 11
-569.4114947165749
 21
-0.3124010580063556
 31
0.0
 11
-564.1450927954293
 21
-53.33738724114028
 31
0.0
 11
-536.9841783834618
 21
-122.7198653414593
 31
0.0
 11
-457.6539876662742
 21
-197.7953833376505
 31
0.0
 11
-319.5375957047257
 21
-235.6115832818277
 31
0.0
 11
27.49396907033028
 21
-251.0764489351246
 31
0.0
  0
SPLINE
  5
2FED
330
1F
100
AcDbEntity
  8
0
  6
AM_DIN_F_W050
 62
     6
 48
4.0
100
AcDbSpline
210
0.0
220
0.0
230
1.0
 70
   264
 71
     3
 72
    30
 73
    26
 74
    24
 42
0.0000000001
 43
0.0000000001
 44
0.00001
 12
0.1805655078150956
 22
-0.9615167526065949
 32
0.0
 13
0.9965610334964189
 23
-0.0201518594271269
 33
0.0
 40
63.45522238008732
 40
63.45522238008732
 40
63.45522238008732
 40
63.45522238008732
 40
64.88198634412883
 40
97.32297951619324
 40
120.7549426022206
 40
128.6043472931741
 40
136.4867068039759
 40
144.3690663147776
 40
160.1337853363812
 40
190.6044184007545
 40
221.0750514651278
 40
251.545684529501
 40
268.3325237414893
 40
301.9062021654657
 40
354.5599281091052
 40
407.2136540527447
 40
459.8673799963842
 40
484.6189141239662
 40
500.7777560054528
 40
514.6894230747011
 40
528.6010901439493
 40
556.4244242824457
 40
612.0710925594387
 40
723.3644291134246
 40
920.7474731979329
 40
920.7474731979329
 40
920.7474731979329
 40
920.7474731979329
 10
-717.7620353921736
 20
-64.28699277761251
 30
0.0
 10
-717.6761606056071
 20
-64.74427859542628
 30
0.0
 10
-715.6196403712576
 20
-75.55477737376422
 30
0.0
 10
-711.3986541648287
 20
-91.79961051383154
 30
0.0
 10
-704.8199448203612
 20
-108.7427813489004
 30
0.0
 10
-700.0031938847959
 20
-118.4055331679226
 30
0.0
 10
-696.8524910254671
 20
-124.034262859474
 30
0.0
 10
-692.2184051353798
 20
-131.4381215627667
 30
0.0
 10
-683.2240256180309
 20
-143.8187366487541
 30
0.0
 10
-667.7710539836243
 20
-160.3947666972826
 30
0.0
 10
-645.8991566419182
 20
-178.296641269018
 30
0.0
 10
-625.1728923707921
 20
-191.6920709978946
 30
0.0
 10
-602.6007258473274
 20
-203.994946475598
 30
0.0
 10
-573.0336504053817
 20
-217.3542252783238
 30
0.0
 10
-531.4205340123403
 20
-230.697003491327
 30
0.0
 10
-481.9330902076703
 20
-240.8316756612075
 30
0.0
 10
-439.8003085039296
 20
-246.2095391340665
 30
0.0
 10
-408.9950737311121
 20
-249.1727920454906
 30
0.0
 10
-390.8216279668281
 20
-250.7291101065614
 30
0.0
 10
-376.1969515388983
 20
-251.9120057563162
 30
0.0
 10
-357.7119978193363
 20
-253.3344938017606
 30
0.0
 10
-325.3696974247607
 20
-255.6355122603273
 30
0.0
 10
-260.7321441045744
 20
-259.5375285396435
 30
0.0
 10
-139.9241264309091
 20
-264.6151625035766
 30
0.0
 10
-37.56868272143766
 20
-266.6863574265452
 30
0.0
 10
27.99940074773793
 20
-268.0122358791083
 30
0.0
 11
-717.7620353921736
 21
-64.28699277761251
 31
0.0
 11
-717.5021105398597
 21
-65.65297194063247
 31
0.0
 11
-710.177928505836
 21
-94.02191752961625
 31
0.0
 11
-702.8645440478603
 21
-112.5496752400666
 31
0.0
 11
-699.9663808584324
 21
-118.3646439776048
 31
0.0
 11
-696.7990802625366
 21
-124.0203143813622
 31
0.0
 11
-693.3264169456503
 21
-129.5712562797102
 31
0.0
 11
-685.4786384046024
 21
-140.3863115807373
 31
0.0
 11
-667.1950017001231
 21
-160.0860870410672
 31
0.0
 11
-645.4819629752444
 21
-177.9386044950783
 31
0.0
 11
-621.2765472263351
 21
-193.6547576747309
 31
0.0
 11
-607.2449954791529
 21
-201.3138939611392
 31
0.0
 11
-578.3451256600097
 21
-214.4404859721344
 31
0.0
 11
-531.0609756229994
 21
-229.8568050734347
 31
0.0
 11
-481.6523751923464
 21
-240.2311641138707
 31
0.0
 11
-430.5718600386623
 21
-247.0166217580288
 31
0.0
 11
-406.1322016827806
 21
-249.3957770735723
 31
0.0
 11
-390.0678800690616
 21
-250.7799343986033
 31
0.0
 11
-376.1992423237721
 21
-251.902740405775
 31
0.0
 11
-362.3335395165915
 21
-252.9699034274966
 31
0.0
 11
-334.6125950360187
 21
-254.944744098936
 31
0.0
 11
-279.2052388494572
 21
-258.3095652591229
 31
0.0
 11
-168.4711656622983
 21
-263.1253084886672
 31
0.0
 11
27.99940074773793
 21
-268.0122358791083
 31
0.0
1001
ACAD_SPLINE_DATA
1070
   100
1070
     0
1070
   101
1070
     0
1070
   102
1070
    15
  0
ARC
  5
2FF5
330
1F
100
AcDbEntity
  8
0
100
AcDbCircle
 10
503.3677178125446
 20
1.049379782481054
 30
0.0
 40
352.8876652416609
100
AcDbArc
 50
281.3912061708972
 51
323.2684035756281
  0
ARC
  5
300C
330
1F
100
AcDbEntity
  8
0
  6
AM_DIN_F_W050
 62
     6
 48
4.0
100
AcDbCircle
 10
-332.7464557300049
 20
-4.746071943700104
 30
0.0
 40
414.7633827957316
100
AcDbArc
 50
180.0029545953017
 51
188.2535504445987
  0
ARC
  5
300D
330
1F
100
AcDbEntity
  8
0
  6
AM_DIN_F_W050
 62
     6
 48
4.0
100
AcDbCircle
 10
-331.8976563761307
 20
-4.726241452366492
 30
0.0
 40
390.4363076697256
100
AcDbArc
 50
180.006048775072
 51
188.7746861785963
  0
ELLIPSE
  5
310F
330
1F
100
AcDbEntity
  8
0
100
AcDbEllipse
 10
-0.0060309296695953
 20
354.286747243541
 30
0.0
 11
-30.0
 21
0.0
 31
0.0
210
0.0
220
0.0
230
-1.0
 40
0.1666666666666666
 41
0.0
 42
6.283185307179584
  0
CIRCLE
  5
3164
330
1F
100
AcDbEntity
  8
0
  6
AM_DIN_F_W050
 62
     6
 48
4.0
100
AcDbCircle
 10
364.9939690703303
 20
152.4282629381152
 30
0.0
 40
32.5
  0
CIRCLE
  5
3165
330
1F
100
AcDbEntity
  8
0
  6
AM_DIN_F_W050
 62
     6
 48
4.0
100
AcDbCircle
 10
364.9939690703303
 20
152.4930215463628
 30
0.0
 40
42.5
  0
CIRCLE
  5
3166
330
1F
100
AcDbEntity
  8
0
  6
AM_DIN_F_W050
 62
     6
 48
4.0
100
AcDbCircle
 10
364.9939690703303
 20
-152.4422198453894
 30
0.0
 40
32.5
  0
CIRCLE
  5
3167
330
1F
100
AcDbEntity
  8
0
  6
AM_DIN_F_W050
 62
     6
 48
4.0
100
AcDbCircle
 10
364.9939690703303
 20
-152.5069784536372
 30
0.0
 40
42.5
  0
CIRCLE
  5
3168
330
1F
100
AcDbEntity
  8
0
  6
AM_DIN_F_W050
 62
     6
 48
4.0
100
AcDbCircle
 10
-365.0060309296696
 20
152.4282629381152
 30
0.0
 40
32.5
  0
CIRCLE
  5
3169
330
1F
100
AcDbEntity
  8
0
  6
AM_DIN_F_W050
 62
     6
 48
4.0
100
AcDbCircle
 10
-365.0060309296696
 20
152.4930215463628
 30
0.0
 40
42.5
  0
CIRCLE
  5
316A
330
1F
100
AcDbEntity
  8
0
  6
AM_DIN_F_W050
 62
     6
 48
4.0
100
AcDbCircle
 10
-365.0060309296696
 20
-152.5138594577327
 30
0.0
 40
32.5
  0
CIRCLE
  5
316B
330
1F
100
AcDbEntity
  8
0
  6
AM_DIN_F_W050
 62
     6
 48
4.0
100
AcDbCircle
 10
-365.0060309296696
 20
-152.5786180659802
 30
0.0
 40
42.5
  0
LINE
  5
316C
330
1F
100
AcDbEntity
  8
0
  6
AM_DIN_G_W050
 62
     4
 48
2.0
100
AcDbLine
 10
322.4939690703303
 20
152.4930215463628
 30
0.0
 11
407.4939690703303
 21
152.4930215463628
 31
0.0
  0
LINE
  5
316D
330
1F
100
AcDbEntity
  8
0
  6
AM_DIN_G_W050
 62
     4
 48
2.0
100
AcDbLine
 10
364.9939690703303
 20
109.9930215463628
 30
0.0
 11
364.9939690703303
 21
194.9930215463628
 31
0.0
  0
LINE
  5
316E
330
1F
100
AcDbEntity
  8
0
  6
AM_DIN_G_W050
 62
     4
 48
2.0
100
AcDbLine
 10
-407.5060309296695
 20
152.4930215463628
 30
0.0
 11
-322.5060309296696
 21
152.4930215463628
 31
0.0
  0
LINE
  5
316F
330
1F
100
AcDbEntity
  8
0
  6
AM_DIN_G_W050
 62
     4
 48
2.0
100
AcDbLine
 10
-365.0060309296696
 20
109.9930215463628
 30
0.0
 11
-365.0060309296696
 21
194.9930215463628
 31
0.0
  0
LINE
  5
3170
330
1F
100
AcDbEntity
  8
0
  6
AM_DIN_G_W050
 62
     4
 48
2.0
100
AcDbLine
 10
-407.5060309296695
 20
-152.5138594577327
 30
0.0
 11
-322.5060309296696
 21
-152.5138594577327
 31
0.0
  0
LINE
  5
3171
330
1F
100
AcDbEntity
  8
0
  6
AM_DIN_G_W050
 62
     4
 48
2.0
100
AcDbLine
 10
-365.0060309296696
 20
-195.0138594577327
 30
0.0
 11
-365.0060309296696
 21
-110.0138594577327
 31
0.0
  0
LINE
  5
3172
330
1F
100
AcDbEntity
  8
0
  6
AM_DIN_G_W050
 62
     4
 48
2.0
100
AcDbLine
 10
322.4939690703303
 20
-152.4422198453894
 30
0.0
 11
407.4939690703303
 21
-152.4422198453894
 31
0.0
  0
LINE
  5
3173
330
1F
100
AcDbEntity
  8
0
  6
AM_DIN_G_W050
 62
     4
 48
2.0
100
AcDbLine
 10
364.9939690703303
 20
-194.9422198453894
 30
0.0
 11
364.9939690703303
 21
-109.9422198453894
 31
0.0
  0
SPLINE
  5
3185
330
1F
100
AcDbEntity
  8
0
100
AcDbSpline
210
0.0
220
0.0
230
1.0
 70
   264
 71
     3
 72
    29
 73
    25
 74
    23
 42
0.0000000001
 43
0.0000000001
 44
0.00001
 12
0.0132198694139997
 22
-1.016998751316376
 32
0.0
 13
0.9974829056640198
 23
0.0022950189769069
 33
0.0
 40
96.05634165082257
 40
96.05634165082257
 40
96.05634165082257
 40
96.05634165082257
 40
164.6037958407321
 40
219.6963896016647
 40
245.5998072767606
 40
263.1874291558888
 40
280.7750510350171
 40
315.9502947932736
 40
385.6562548832609
 40
417.577381146644
 40
440.8780786123607
 40
487.479473543794
 40
534.0808684752273
 40
622.4412091904184
 40
660.3473306807982
 40
698.2534521711779
 40
774.0656951519373
 40
821.7530397899245
 40
860.5747819478363
 40
889.3506546039054
 40
918.1265272599743
 40
975.6782725721125
 40
1090.781763196388
 40
1263.049641105379
 40
1263.049641105379
 40
1263.049641105379
 40
1263.049641105379
 10
-885.0072980554328
 20
0.1879886392096081
 30
0.0
 10
-884.7052352577486
 20
-23.04956979980859
 30
0.0
 10
-882.5613844921759
 20
-64.24538201158736
 30
0.0
 10
-874.1528222674915
 20
-111.7518182285001
 30
0.0
 10
-865.3182600106854
 20
-141.8732328303715
 30
0.0
 10
-858.6319871404896
 20
-160.1026926071228
 30
0.0
 10
-849.6952816579591
 20
-180.7567897585009
 30
0.0
 10
-831.0156642095877
 20
-215.813767915271
 30
0.0
 10
-803.9371101687603
 20
-252.2762362441132
 30
0.0
 10
-775.0165786624354
 20
-282.0714933031472
 30
0.0
 10
-749.8758233745916
 20
-304.5757000717425
 30
0.0
 10
-719.0824540232626
 20
-327.545531551783
 30
0.0
 10
-667.4649073566792
 20
-357.9942028329693
 30
0.0
 10
-614.2990549976425
 20
-380.0748236097336
 30
0.0
 10
-561.9550647725342
 20
-395.7110072212766
 30
0.0
 10
-512.9655893504398
 20
-407.4083922153912
 30
0.0
 10
-459.8677463425161
 20
-416.0668483563028
 30
0.0
 10
-405.7600626176523
 20
-421.885197215693
 30
0.0
 10
-367.0847121405534
 20
-424.975750575905
 30
0.0
 10
-334.6437807051119
 20
-427.1039491236654
 30
0.0
 10
-295.8945708977203
 20
-429.2801979181466
 30
0.0
 10
-228.0709113125737
 20
-432.1710599058039
 30
0.0
 10
-112.0340292946455
 20
-434.5174908028489
 30
0.0
 10
-15.85975579640266
 20
-434.2984291727452
 30
0.0
 10
41.41833200667529
 20
-434.166643156441
 30
0.0
 11
-885.0072980554328
 21
0.1879886392096081
 31
0.0
 11
-880.8501758180058
 21
-68.13880096731733
 31
0.0
 11
-871.2604553161613
 21
-120.5698034922665
 31
0.0
 11
-864.2667150487342
 21
-144.3047777144594
 31
0.0
 11
-858.4775562585754
 21
-160.0598650982076
 31
0.0
 11
-851.7799966136198
 21
-175.5502562122945
 31
0.0
 11
-835.746725985088
 21
-205.6966529974911
 31
0.0
 11
-794.8535222534437
 21
-261.0068306474672
 31
0.0
 11
-772.7366582313224
 21
-283.8047865776969
 31
0.0
 11
-755.4937055515338
 21
-299.2406941623356
 31
0.0
 11
-718.6168488619245
 21
-326.8591607874071
 31
0.0
 11
-678.9625531438774
 21
-350.3479134738651
 31
0.0
 11
-598.0840774774714
 21
-384.5104889803252
 31
0.0
 11
-561.874282296169
 21
-395.368046192561
 31
0.0
 11
-525.1387393668095
 21
-404.1870765260632
 31
0.0
 11
-450.4122942606797
 21
-416.7472221902107
 31
0.0
 11
-402.7485955793962
 21
-421.965432212259
 31
0.0
 11
-363.689131472696
 21
-425.1397103016707
 31
0.0
 11
-334.6433500387876
 21
-427.0582539893149
 31
0.0
 11
-305.5812760913677
 21
-428.6924417479698
 31
0.0
 11
-247.4547628837266
 21
-431.2002828154171
 31
0.0
 11
-131.3453577526935
 21
-433.7798395080776
 31
0.0
 11
41.41833200667529
 21
-434.166643156441
 31
0.0
1001
ACAD_SPLINE_DATA
1070
   100
1070
     0
1070
   101
1070
     0
1070
   102
1070
    15
  0
SPLINE
  5
3186
330
1F
100
AcDbEntity
  8
0
100
AcDbSpline
210
0.0
220
0.0
230
1.0
 70
   264
 71
     3
 72
    29
 73
    25
 74
    23
 42
0.0000000001
 43
0.0000000001
 44
0.00001
 12
-0.0132198694140047
 22
-1.016998751316378
 32
0.0
 13
-0.9974829056640219
 23
0.0022950189769075
 33
0.0
 40
96.05634165082257
 40
96.05634165082257
 40
96.05634165082257
 40
96.05634165082257
 40
164.6037958407321
 40
219.6963896017795
 40
245.5998072769158
 40
263.1874291611035
 40
280.7750510452912
 40
315.9502948136666
 40
385.6562549039799
 40
417.5773811533876
 40
440.8780786155708
 40
487.479473539937
 40
534.0808684643032
 40
622.4412091807668
 40
660.3473306681348
 40
698.2534521555029
 40
774.0656951302391
 40
821.753039774075
 40
860.5747819344845
 40
889.35065459351
 40
918.1265272525353
 40
975.6782725705859
 40
1090.781763206687
 40
1263.049641105379
 40
1263.049641105379
 40
1263.049641105379
 40
1263.049641105379
 10
984.9939690703308
 20
-0.2019455464840462
 30
0.0
 10
984.6919062726465
 20
-23.43950398550227
 30
0.0
 10
982.5480555070747
 20
-64.6353161973202
 30
0.0
 10
974.1394932823659
 20
-112.1417524142775
 30
0.0
 10
965.3049310251001
 20
-142.2631670177425
 30
0.0
 10
958.618658153604
 20
-160.4926267974638
 30
0.0
 10
949.6819526681203
 20
-181.1467239546562
 30
0.0
 10
931.0023352138712
 20
-216.2037021152291
 30
0.0
 10
903.9237811826977
 20
-252.6661704420815
 30
0.0
 10
875.0032496566886
 20
-282.4614274954517
 30
0.0
 10
849.8624944375015
 20
-304.965634259701
 30
0.0
 10
819.0691246333976
 20
-327.9354657258882
 30
0.0
 10
767.4515804357406
 20
-358.3841370617937
 30
0.0
 10
714.2857144189743
 20
-380.4647575278062
 30
0.0
 10
661.9417526172282
 20
-396.1009417860316
 30
0.0
 10
612.9521689076358
 20
-407.7983243179905
 30
0.0
 10
559.8550332906461
 20
-416.4567965435097
 30
0.0
 10
505.7454827981965
 20
-422.2751029596421
 30
0.0
 10
467.0747393592143
 20
-425.3657610692743
 30
0.0
 10
434.6214166494599
 20
-427.493677881001
 30
0.0
 10
395.929687995051
 20
-429.6712336063715
 30
0.0
 10
327.4910289074875
 20
-432.5481125489515
 30
0.0
 10
217.4282599495603
 20
-435.0303749305265
 30
0.0
 10
98.69641980632914
 20
-434.2984291727374
 30
0.0
 10
41.41833200667523
 20
-434.166643156441
 30
0.0
 11
984.9939690703308
 21
-0.2019455464840462
 31
0.0
 11
980.8368468329035
 21
-68.52873515301105
 31
0.0
 11
971.2471263310323
 21
-120.9597376780668
 31
0.0
 11
964.2533860635854
 21
-144.6947119002935
 31
0.0
 11
958.4642272716248
 21
-160.4497992885293
 31
0.0
 11
951.7666676243401
 21
-175.940190406964
 31
0.0
 11
935.7333969897238
 21
-206.0865872002916
 31
0.0
 11
894.8401932546078
 21
-261.3967648485323
 31
0.0
 11
872.723329241356
 21
-284.1947207680112
 31
0.0
 11
855.4803765639986
 21
-299.6306283500805
 31
0.0
 11
818.6035198799967
 21
-327.2490949709895
 31
0.0
 11
778.9492241683547
 21
-350.7378476545152
 31
0.0
 11
698.0707485015038
 21
-384.9004231629785
 31
0.0
 11
661.8609533232586
 21
-395.7579803749809
 31
0.0
 11
625.1254103969933
 21
-404.5770107084971
 31
0.0
 11
550.3989652971662
 21
-417.1371563731241
 31
0.0
 11
502.7352666102007
 21
-422.3553663964849
 31
0.0
 11
463.6758025010575
 21
-425.5296444864005
 31
0.0
 11
434.6300210641834
 21
-427.4481881743686
 31
0.0
 11
405.5679471137795
 21
-429.0823759332757
 31
0.0
 11
347.4414339001664
 21
-431.5902170010565
 31
0.0
 11
231.3320287572198
 21
-434.1697736938878
 31
0.0
 11
41.41833200667523
 21
-434.166643156441
 31
0.0
1001
ACAD_SPLINE_DATA
1070
   100
1070
     0
1070
   101
1070
     0
1070
   102
1070
    15
  0
SPLINE
  5
3187
330
1F
100
AcDbEntity
  8
0
100
AcDbSpline
210
0.0
220
0.0
230
1.0
 70
   264
 71
     3
 72
    29
 73
    25
 74
    23
 42
0.0000000001
 43
0.0000000001
 44
0.00001
 12
-0.0132198694140047
 22
1.01699875131638
 32
0.0
 13
-0.9974829056640215
 23
-0.0022950189769065
 33
0.0
 40
96.05634165082257
 40
96.05634165082257
 40
96.05634165082257
 40
96.05634165082257
 40
164.6037958407322
 40
219.6963896016165
 40
245.5998072767384
 40
263.1874291594669
 40
280.7750510421954
 40
315.9502948076523
 40
385.6562548940201
 40
417.5773811516362
 40
440.8780786130241
 40
487.4794735358001
 40
534.0808684585762
 40
622.4412091684939
 40
660.3473306502304
 40
698.2534521319669
 40
774.0656950954399
 40
821.753039756602
 40
860.5747819202928
 40
889.3506545823646
 40
918.1265272444365
 40
975.67827256858
 40
1090.781763216867
 40
1263.049641105379
 40
1263.049641105379
 40
1263.049641105379
 40
1263.049641105379
 10
984.9939690703308
 20
-0.5918797321777346
 30
0.0
 10
984.6919062726465
 20
22.64567870684057
 30
0.0
 10
982.5480555070775
 20
63.84149091860376
 30
0.0
 10
974.1394932823856
 20
111.347927135509
 30
0.0
 10
965.3049310252811
 20
141.469341738477
 30
0.0
 10
958.6186581541584
 20
159.6988015173451
 30
0.0
 10
949.6819526695825
 20
180.3528986728563
 30
0.0
 10
931.0023352171226
 20
215.409876831304
 30
0.0
 10
903.9237811865463
 20
251.8723451584926
 30
0.0
 10
875.0032496601567
 20
281.667602214173
 30
0.0
 10
849.8624944396448
 20
304.1718089769984
 30
0.0
 10
819.0691246367785
 20
327.1416404634639
 30
0.0
 10
767.4515804422362
 20
357.5903116862106
 30
0.0
 10
714.2857144301724
 20
379.6709327725502
 30
0.0
 10
661.9417526344514
 20
395.3071157379045
 30
0.0
 10
612.952168932477
 20
407.0045031939236
 30
0.0
 10
559.8550333157744
 20
415.6629432537952
 30
0.0
 10
505.7454828204481
 20
421.4813345594201
 30
0.0
 10
467.0747393736101
 20
424.5717831723487
 30
0.0
 10
434.6214166607155
 20
426.7002634571193
 30
0.0
 10
395.9296880022177
 20
428.8752053217353
 30
0.0
 10
327.4910289073135
 20
431.7800503556276
 30
0.0
 10
217.4282599477237
 20
433.9906497678578
 30
0.0
 10
98.69641980294439
 20
434.2844722654551
 30
0.0
 10
41.41833200667526
 20
434.1526862491666
 30
0.0
 11
984.9939690703308
 21
-0.5918797321777346
 31
0.0
 11
980.8368468329035
 21
67.73490987434941
 31
0.0
 11
971.2471263310705
 21
120.1659123992538
 31
0.0
 11
964.253386063639
 21
143.9008866214714
 31
0.0
 11
958.4642272722051
 21
159.655974008415
 31
0.0
 11
951.7666676255986
 21
175.1463651255976
 31
0.0
 11
935.7333969927502
 21
205.2927619165846
 31
0.0
 11
894.8401932612094
 21
260.6029395624812
 31
0.0
 11
872.7233292426191
 21
283.4008954881492
 31
0.0
 11
855.4803765659285
 21
298.8368030697913
 31
0.0
 11
818.6035198834009
 21
326.4552696900635
 31
0.0
 11
778.9492241733766
 21
349.9440223732094
 31
0.0
 11
698.0707485131191
 21
384.1065978804507
 31
0.0
 11
661.860953340496
 21
394.9641550916904
 31
0.0
 11
625.1254104199461
 21
403.7831854249407
 31
0.0
 11
550.3989653317895
 21
416.3433310900033
 31
0.0
 11
502.7352666277359
 21
421.5615411162048
 31
0.0
 11
463.6758025153679
 21
424.7358192067143
 31
0.0
 11
434.6300210754384
 21
426.6543628950207
 31
0.0
 11
405.5679471219596
 21
428.2885506541915
 31
0.0
 11
347.441433902192
 21
430.7963917223236
 31
0.0
 11
231.3320287469669
 21
433.3759484153413
 31
0.0
 11
41.41833200667526
 21
434.1526862491666
 31
0.0
1001
ACAD_SPLINE_DATA
1070
   100
1070
     0
1070
   101
1070
     0
1070
   102
1070
    15
  0
SPLINE
  5
3188
330
1F
100
AcDbEntity
  8
0
100
AcDbSpline
210
0.0
220
0.0
230
1.0
 70
   264
 71
     3
 72
    29
 73
    25
 74
    23
 42
0.0000000001
 43
0.0000000001
 44
0.00001
 12
0.0132198694139997
 22
1.016998751316376
 32
0.0
 13
0.9974829056640198
 23
-0.0022950189769069
 33
0.0
 40
96.05634165082257
 40
96.05634165082257
 40
96.05634165082257
 40
96.05634165082257
 40
164.6037958407321
 40
219.6963896016647
 40
245.5998072767606
 40
263.1874291558888
 40
280.7750510350171
 40
315.9502947932736
 40
385.6562548832609
 40
417.577381146644
 40
440.8780786123607
 40
487.479473543794
 40
534.0808684752273
 40
622.4412091904184
 40
660.3473306807982
 40
698.2534521711779
 40
774.0656951519373
 40
821.7530397899245
 40
860.5747819478363
 40
889.3506546039054
 40
918.1265272599743
 40
975.6782725721125
 40
1090.781763196388
 40
1263.049641105379
 40
1263.049641105379
 40
1263.049641105379
 40
1263.049641105379
 10
-885.0072980554328
 20
-0.2019455464840012
 30
0.0
 10
-884.7052352577486
 20
23.03561289253419
 30
0.0
 10
-882.5613844921759
 20
64.23142510431299
 30
0.0
 10
-874.1528222674912
 20
111.7378613212257
 30
0.0
 10
-865.3182600106855
 20
141.8592759230971
 30
0.0
 10
-858.6319871404896
 20
160.0887356998484
 30
0.0
 10
-849.6952816579595
 20
180.7428328512266
 30
0.0
 10
-831.0156642095874
 20
215.7998110079965
 30
0.0
 10
-803.9371101687603
 20
252.2622793368388
 30
0.0
 10
-775.0165786624356
 20
282.0575363958729
 30
0.0
 10
-749.8758233745915
 20
304.561743164468
 30
0.0
 10
-719.0824540232626
 20
327.5315746445086
 30
0.0
 10
-667.4649073566792
 20
357.980245925695
 30
0.0
 10
-614.2990549976425
 20
380.060866702459
 30
0.0
 10
-561.9550647725342
 20
395.6970503140022
 30
0.0
 10
-512.9655893504398
 20
407.3944353081168
 30
0.0
 10
-459.8677463425158
 20
416.0528914490283
 30
0.0
 10
-405.7600626176525
 20
421.8712403084187
 30
0.0
 10
-367.0847121405533
 20
424.9617936686306
 30
0.0
 10
-334.6437807051119
 20
427.089992216391
 30
0.0
 10
-295.8945708977202
 20
429.2662410108721
 30
0.0
 10
-228.0709113125739
 20
432.1571029985297
 30
0.0
 10
-112.0340292946455
 20
434.5035338955744
 30
0.0
 10
-15.85975579640269
 20
434.2844722654708
 30
0.0
 10
41.41833200667526
 20
434.1526862491666
 30
0.0
 11
-885.0072980554328
 21
-0.2019455464840012
 31
0.0
 11
-880.8501758180058
 21
68.12484406004293
 31
0.0
 11
-871.2604553161611
 21
120.5558465849921
 31
0.0
 11
-864.2667150487342
 21
144.290820807185
 31
0.0
 11
-858.4775562585754
 21
160.0459081909332
 31
0.0
 11
-851.7799966136198
 21
175.5362993050201
 31
0.0
 11
-835.746725985088
 21
205.6826960902166
 31
0.0
 11
-794.8535222534437
 21
260.9928737401928
 31
0.0
 11
-772.7366582313225
 21
283.7908296704225
 31
0.0
 11
-755.4937055515338
 21
299.2267372550612
 31
0.0
 11
-718.6168488619245
 21
326.8452038801327
 31
0.0
 11
-678.9625531438774
 21
350.3339565665907
 31
0.0
 11
-598.0840774774714
 21
384.4965320730507
 31
0.0
 11
-561.874282296169
 21
395.3540892852866
 31
0.0
 11
-525.1387393668095
 21
404.1731196187888
 31
0.0
 11
-450.4122942606796
 21
416.7332652829363
 31
0.0
 11
-402.7485955793962
 21
421.9514753049845
 31
0.0
 11
-363.6891314726959
 21
425.1257533943961
 31
0.0
 11
-334.6433500387876
 21
427.0442970820406
 31
0.0
 11
-305.5812760913676
 21
428.6784848406954
 31
0.0
 11
-247.4547628837266
 21
431.1863259081427
 31
0.0
 11
-131.3453577526936
 21
433.7658826008031
 31
0.0
 11
41.41833200667526
 21
434.1526862491666
 31
0.0
1001
ACAD_SPLINE_DATA
1070
   100
1070
     0
1070
   101
1070
     0
1070
   102
1070
    15
  0
SPLINE
  5
31A6
330
1F
100
AcDbEntity
  8
0
100
AcDbSpline
210
0.0
220
0.0
230
1.0
 70
   264
 71
     3
 72
    42
 73
    38
 74
    36
 42
0.0000000001
 43
0.0000000001
 44
0.00001
 12
-0.0122742978518903
 22
0.9442563460900121
 32
0.0
 13
-0.9930056095656972
 23
-0.0022847175677756
 33
0.0
 40
96.05634165082257
 40
96.05634165082257
 40
96.05634165082257
 40
96.05634165082257
 40
135.8881977415047
 40
167.0846323282061
 40
198.2810669149075
 40
229.477501501609
 40
248.7708352982681
 40
263.3064788190649
 40
277.8421223398616
 40
306.913409381455
 40
344.7024426621754
 40
382.4914759428957
 40
420.280509223616
 40
440.5076741582052
 40
480.9620040273838
 40
521.4163338965622
 40
561.8706637657408
 40
602.3249936349193
 40
636.5611028080365
 40
661.230731136877
 40
708.5759884083731
 40
755.9212456798693
 40
811.2832856660743
 40
841.7714062456125
 40
860.7525143526878
 40
888.6372911447297
 40
909.7353439767809
 40
925.4029346526392
 40
941.0705253284975
 40
972.4057066802142
 40
998.720871655953
 40
1025.036036631692
 40
1077.66636658317
 40
1092.008353920633
 40
1120.767401974031
 40
1209.061889549679
 40
1263.049641105379
 40
1263.049641105379
 40
1263.049641105379
 40
1263.049641105379
 10
920.01092653606
 20
-1.4365880814415
 30
0.0
 10
919.847957180843
 20
11.10057288194874
 30
0.0
 10
919.0639521850306
 20
32.85215733994652
 30
0.0
 10
916.3043345891813
 20
62.35124480421142
 30
0.0
 10
912.2771721714695
 20
87.80448297343847
 30
0.0
 10
907.3240806164104
 20
108.6361720595012
 30
0.0
 10
902.3677383002638
 20
124.3761877814616
 30
0.0
 10
898.1628689231273
 20
135.6509356825365
 30
0.0
 10
892.4429074100725
 20
149.0398952062198
 30
0.0
 10
882.902670221293
 20
167.7758793090133
 30
0.0
 10
867.8608939814051
 20
191.3204638797975
 30
0.0
 10
848.5379390531356
 20
215.637680229167
 30
0.0
 10
830.0433497659451
 20
234.7129960216047
 30
0.0
 10
809.7461949247326
 20
252.7738596745288
 30
0.0
 10
787.5188249638146
 20
269.6706368425477
 30
0.0
 10
758.5153034557527
 20
287.6535736654727
 30
0.0
 10
727.4596871990682
 20
303.3663574067678
 30
0.0
 10
696.3096005619692
 20
316.1873735942215
 30
0.0
 10
668.3603620790277
 20
325.6282155627787
 30
0.0
 10
637.7683845325452
 20
334.4006772011194
 30
0.0
 10
602.5458529104498
 20
342.5175350949619
 30
0.0
 10
556.795214119637
 20
350.2952722542626
 30
0.0
 10
514.8925443557653
 20
355.2717700723446
 30
0.0
 10
481.1744169654402
 20
358.2631315378402
 30
0.0
 10
455.9806430886461
 20
360.1685560714141
 30
0.0
 10
433.6231017427091
 20
361.637809032051
 30
0.0
 10
412.3302287740793
 20
362.8663382045687
 30
0.0
 10
395.0091059155304
 20
363.7626488993301
 30
0.0
 10
374.2180326212062
 20
364.7373791414824
 30
0.0
 10
349.920729744254
 20
365.7117730975705
 30
0.0
 10
322.6340808158147
 20
366.6053279912816
 30
0.0
 10
288.580628666475
 20
367.5032160229307
 30
0.0
 10
257.7771905154801
 20
368.0506492038574
 30
0.0
 10
224.2777987991663
 20
368.4751661874081
 30
0.0
 10
176.3884461070216
 20
368.9542035947657
 30
0.0
 10
110.1427926983469
 20
369.2345082917636
 30
0.0
 10
59.43790461212749
 20
369.2054414085818
 30
0.0
 10
41.56785789791112
 20
369.1643258204404
 30
0.0
 11
920.01092653606
 21
-1.4365880814415
 31
0.0
 11
918.612184510559
 21
35.10201412743494
 31
0.0
 11
916.054224057526
 21
62.09225857232858
 31
0.0
 11
912.0025587146113
 21
87.54014804106986
 31
0.0
 11
906.3018999547624
 21
111.4218726680167
 31
0.0
 11
901.8871499518017
 21
125.4294647308282
 31
0.0
 11
898.07974555743
 21
135.6302828939192
 31
0.0
 11
893.7816645923932
 21
145.6921957185944
 31
0.0
 11
883.5891428480003
 21
165.7034992006108
 31
0.0
 11
867.3562050953892
 21
191.1223414625559
 31
0.0
 11
848.110965535549
 21
215.3468065661505
 31
0.0
 11
826.3311786939556
 21
237.823429891505
 31
0.0
 11
813.8234467567892
 21
248.9537205266513
 31
0.0
 11
787.1303787046545
 21
269.2884375460981
 31
0.0
 11
758.1732876643156
 21
287.2752148185344
 31
0.0
 11
727.1635731774663
 21
302.9997927755279
 31
0.0
 11
694.3915635987945
 21
316.5219342022908
 31
0.0
 11
665.5374720965576
 21
326.2894001116568
 31
0.0
 11
644.2365759277231
 21
332.4054470678413
 31
0.0
 11
602.3137936739329
 21
342.134756642025
 31
0.0
 11
559.027853086136
 21
349.5639064103121
 31
0.0
 11
506.815755765513
 21
355.8859710788921
 31
0.0
 11
477.3971313545313
 21
358.5181566670613
 31
0.0
 11
458.8554012841409
 21
359.9260629611249
 31
0.0
 11
431.3843036286645
 21
361.743006795408
 31
0.0
 11
410.5296707106154
 21
362.9464269666411
 31
0.0
 11
394.9980867521383
 21
363.7505767437553
 31
0.0
 11
379.4176624924495
 21
364.4818763858343
 31
0.0
 11
348.3664920357583
 21
365.7333877066455
 31
0.0
 11
322.6532779111303
 21
366.5775419547718
 31
0.0
 11
297.0353652121416
 21
367.2553945658064
 31
0.0
 11
244.3183012654984
 21
368.2160337846343
 31
0.0
 11
229.253407725693
 21
368.407470384111
 31
0.0
 11
197.9257687185101
 21
368.7229704440232
 31
0.0
 11
98.55076094649351
 21
369.1897434528524
 31
0.0
 11
41.56785789791112
 21
369.1643258204404
 31
0.0
1001
ACAD_SPLINE_DATA
1070
   100
1070
     0
1070
   101
1070
     0
1070
   102
1070
    15
  0
SPLINE
  5
31A7
330
1F
100
AcDbEntity
  8
0
100
AcDbSpline
210
0.0
220
0.0
230
1.0
 70
   264
 71
     3
 72
    36
 73
    32
 74
    30
 42
0.0000000001
 43
0.0000000001
 44
0.00001
 12
0.012274297851878
 22
0.944256346089862
 32
0.0
 13
0.9974653982155697
 23
-0.0022949786955872
 33
0.0
 40
96.05634165082257
 40
96.05634165082257
 40
96.05634165082257
 40
96.05634165082257
 40
135.9758091789908
 40
167.1785385684728
 40
198.3812679579549
 40
229.5839973474369
 40
248.8537006235115
 40
263.2962206421282
 40
277.7387406607449
 40
306.6237806979783
 40
344.3319810159932
 40
382.0401813340081
 40
419.7483816520231
 40
439.439410986283
 40
456.3530492929431
 40
473.2666875996033
 40
507.0939642129235
 40
540.9212408262438
 40
610.4881129838471
 40
643.2977965208484
 40
715.5571413775203
 40
787.8164862341922
 40
848.4644310760575
 40
874.4717183201437
 40
900.4790055642299
 40
926.4862928083161
 40
952.4935800524024
 40
1004.508154540575
 40
1128.797922234474
 40
1253.087689928373
 40
1263.049641105379
 40
1263.049641105379
 40
1263.049641105379
 40
1263.049641105379
 10
-820.024255521162
 20
-1.046653895747452
 30
0.0
 10
-819.8609277096522
 20
11.51808295291956
 30
0.0
 10
-819.0747866275518
 20
33.29709682788873
 30
0.0
 10
-816.307978566977
 20
62.82024520157603
 30
0.0
 10
-812.2750991877293
 20
88.27372103777964
 30
0.0
 10
-807.3176867065292
 20
109.0981094935908
 30
0.0
 10
-802.3659312816887
 20
124.8081358786333
 30
0.0
 10
-798.1779582864811
 20
136.0335458541436
 30
0.0
 10
-792.4974225114148
 20
149.3368926252865
 30
0.0
 10
-783.0127225106767
 20
167.9909769503604
 30
0.0
 10
-768.0475792108055
 20
191.464007886795
 30
0.0
 10
-748.7951560601234
 20
215.7462577954896
 30
0.0
 10
-730.4647623741747
 20
234.7006118995339
 30
0.0
 10
-715.164396507733
 20
248.3710682927471
 30
0.0
 10
-703.7292014568001
 20
257.6667534638588
 30
0.0
 10
-688.7127491257334
 20
268.8632960532269
 30
0.0
 10
-668.9372440691593
 20
281.8243476492412
 30
0.0
 10
-634.8138249482035
 20
300.7023353278939
 30
0.0
 10
-598.1662340351956
 20
316.2359472299393
 30
0.0
 10
-548.7124915017789
 20
332.2755044014704
 30
0.0
 10
-496.560167662788
 20
344.6274664002106
 30
0.0
 10
-433.2014108516761
 20
353.9640465448081
 30
0.0
 10
-382.2807251571851
 20
358.6683583569317
 30
0.0
 10
-345.4101540001004
 20
361.2829347101339
 30
0.0
 10
-319.6913604027207
 20
362.8613100471235
 30
0.0
 10
-293.9606128743582
 20
364.2271465385057
 30
0.0
 10
-259.5943490122268
 20
365.7762036190702
 30
0.0
 10
-192.6139069362884
 20
368.0627151200885
 30
0.0
 10
-92.73435603901521
 20
369.4174129844268
 30
0.0
 10
-6.684147083024094
 20
369.2746118378232
 30
0.0
 10
37.95657224951403
 20
369.1719466423463
 30
0.0
 10
41.26880611543935
 20
369.1643258204404
 30
0.0
 11
-820.024255521162
 21
-1.046653895747452
 31
0.0
 11
-818.6202537815743
 21
35.56983402572093
 31
0.0
 11
-816.057684070037
 21
62.56113044685882
 31
0.0
 11
-812.0002944610291
 21
88.00929244149429
 31
0.0
 11
-806.2927776823173
 21
111.8906927407057
 31
0.0
 11
-801.8799836972046
 21
125.8783510786594
 31
0.0
 11
-798.0959175448195
 21
136.0131076178457
 31
0.0
 11
-793.8274672749465
 21
146.010645747397
 31
0.0
 11
-783.7141945431628
 21
165.8954518177996
 31
0.0
 11
-767.544023355432
 21
191.2679357954781
 31
0.0
 11
-748.3700753828174
 21
215.4567279476775
 31
0.0
 11
-726.6663043586475
 21
237.9114209515972
 31
0.0
 11
-714.5101710181647
 21
248.7732442265377
 31
0.0
 11
-703.6591037646658
 21
257.5974420506686
 31
0.0
 11
-692.3998662323175
 21
265.9951852965051
 31
0.0
 11
-668.6863607221111
 21
281.5590003156124
 31
0.0
 11
-643.4756755202998
 21
295.5251542700404
 31
0.0
 11
-587.6088146322424
 21
319.3784955715655
 31
0.0
 11
-559.7720629539718
 21
328.4248785351523
 31
0.0
 11
-496.0284903778964
 21
343.7549865979646
 31
0.0
 11
-429.1594351690538
 21
353.8676225524495
 31
0.0
 11
-370.8906580472448
 21
359.4223490353538
 31
0.0
 11
-345.3793341141164
 21
361.2442197157715
 31
0.0
 11
-319.6893680808903
 21
362.825886906189
 31
0.0
 11
-293.9532878129855
 21
364.1931392583459
 31
0.0
 11
-268.1796443100669
 21
365.357828756209
 31
0.0
 11
-216.5240715900425
 21
367.1415889835464
 31
0.0
 11
-92.69982885085548
 21
369.1030177819008
 31
0.0
 11
31.33134215616837
 21
369.1870258819698
 31
0.0
 11
41.26880611543935
 21
369.1643258204404
 31
0.0
1001
ACAD_SPLINE_DATA
1070
   100
1070
     0
1070
   101
1070
     0
1070
   102
1070
    15
  0
SPLINE
  5
31A8
330
1F
100
AcDbEntity
  8
0
100
AcDbSpline
210
0.0
220
0.0
230
1.0
 70
   264
 71
     3
 72
    36
 73
    32
 74
    30
 42
0.0000000001
 43
0.0000000001
 44
0.00001
 12
0.0122742978518817
 22
-0.9442563460898515
 32
0.0
 13
0.9974653982155704
 23
0.0022949786955938
 33
0.0
 40
96.05634165082257
 40
96.05634165082257
 40
96.05634165082257
 40
96.05634165082257
 40
135.9758091791177
 40
167.1785385689218
 40
198.3812679587258
 40
229.5839973485299
 40
248.8537006243744
 40
263.2962206416252
 40
277.738740658876
 40
306.6237806933778
 40
344.3319810096447
 40
382.0401813259117
 40
419.7483816421787
 40
439.4394109675054
 40
456.353049174751
 40
473.2666873819964
 40
507.0939637964873
 40
540.9212402109783
 40
610.4881126106793
 40
643.2977962489162
 40
715.5571429228033
 40
787.8164895966904
 40
848.4644335530468
 40
874.4717194592306
 40
900.4790053654144
 40
926.486291271598
 40
952.4935771777817
 40
1004.508148990149
 40
1128.797936245961
 40
1253.087723501774
 40
1263.049641105379
 40
1263.049641105379
 40
1263.049641105379
 40
1263.049641105379
 10
-820.024255521162
 20
1.032696988473059
 30
0.0
 10
-819.8609277096517
 20
-11.53203986023376
 30
0.0
 10
-819.0747866275446
 20
-33.31105373533843
 30
0.0
 10
-816.3079785669355
 20
-62.83420210923359
 30
0.0
 10
-812.275099187615
 20
-88.28767794566932
 30
0.0
 10
-807.3176867063462
 20
-109.1120664015442
 30
0.0
 10
-802.3659312815626
 20
-124.8220927862454
 30
0.0
 10
-798.1779582866042
 20
-136.0475027610678
 30
0.0
 10
-792.4974225121339
 20
-149.3508495309528
 30
0.0
 10
-783.0127225122993
 20
-168.0049338547006
 30
0.0
 10
-768.0475792137618
 20
-191.4779647898439
 30
0.0
 10
-748.7951560644971
 20
-215.7602146977022
 30
0.0
 10
-730.4647623814507
 20
-234.7145687996253
 30
0.0
 10
-715.1643965380511
 20
-248.3850251732504
 30
0.0
 10
-703.7292015332484
 20
-257.6807103101732
 30
0.0
 10
-688.7127492958312
 20
-268.877252839299
 30
0.0
 10
-668.937244367932
 20
-281.8383043717725
 30
0.0
 10
-634.8138253154789
 20
-300.7162920616501
 30
0.0
 10
-598.166234385539
 20
-316.2499040099228
 30
0.0
 10
-548.7124912536093
 20
-332.2894614040342
 30
0.0
 10
-496.5601662907219
 20
-344.6414236133072
 30
0.0
 10
-433.2014085330351
 20
-353.9780037290357
 30
0.0
 10
-382.2807228904585
 20
-358.6823154413186
 30
0.0
 10
-345.4101528733948
 20
-361.2968916874122
 30
0.0
 10
-319.6913605991546
 20
-362.8752669395073
 30
0.0
 10
-293.9606143951916
 20
-364.241103367777
 30
0.0
 10
-259.5943523058971
 20
-365.7901603909833
 30
0.0
 10
-192.6139050963053
 20
-368.0766721418054
 30
0.0
 10
-92.7343420631657
 20
-369.4313700416533
 30
0.0
 10
-6.684131249178149
 20
-369.2885687088343
 30
0.0
 10
37.95658341228263
 20
-369.1859035239373
 30
0.0
 10
41.26880611543938
 20
-369.1782827277148
 30
0.0
 11
-820.024255521162
 21
1.032696988473059
 31
0.0
 11
-818.6202537815667
 21
-35.58379093310807
 31
0.0
 11
-816.0576840699897
 21
-62.57508735451085
 31
0.0
 11
-812.000294460909
 21
-88.02324934937834
 31
0.0
 11
-806.292777682087
 21
-111.9046496487891
 31
0.0
 11
-801.8799836969909
 21
-125.8923079865478
 31
0.0
 11
-798.0959175449591
 21
-136.0270645247714
 31
0.0
 11
-793.8274672755333
 21
-146.0246026533789
 31
0.0
 11
-783.7141945449359
 21
-165.9094087219293
 31
0.0
 11
-767.5440233584197
 21
-191.2818926985643
 31
0.0
 11
-748.3700753872238
 21
-215.4706848499258
 31
0.0
 11
-726.6663043645969
 21
-237.9253778532814
 31
0.0
 11
-714.510171029989
 21
-248.7872011237683
 31
0.0
 11
-703.6591038419247
 21
-257.6113988977866
 31
0.0
 11
-692.3998663797771
 21
-266.009142098422
 31
0.0
 11
-668.6863610235461
 21
-281.5729570411966
 31
0.0
 11
-643.4756759915816
 21
-295.539110937595
 31
0.0
 11
-587.6088149441878
 21
-319.3924523680677
 31
0.0
 11
-559.7720631878417
 21
-328.4388353731183
 31
0.0
 11
-496.0284889804028
 21
-343.7689437721282
 31
0.0
 11
-429.1594319898522
 21
-353.8815798316827
 31
0.0
 11
-370.8906556308324
 21
-359.4363061291925
 31
0.0
 11
-345.3793329919495
 21
-361.2581766972484
 31
0.0
 11
-319.6893682775342
 21
-362.8398438022031
 31
0.0
 11
-293.9532893346903
 21
-364.2070960909661
 31
0.0
 11
-268.1796471610395
 21
-365.3717855453754
 31
0.0
 11
-216.5240771087407
 21
-367.1555457359939
 31
0.0
 11
-92.69981487220963
 21
-369.1169747722397
 31
0.0
 11
31.33137564949329
 21
-369.200982713797
 31
0.0
 11
41.26880611543938
 21
-369.1782827277148
 31
0.0
1001
ACAD_SPLINE_DATA
1070
   100
1070
     0
1070
   101
1070
     0
1070
   102
1070
    15
  0
SPLINE
  5
31A9
330
1F
100
AcDbEntity
  8
0
100
AcDbSpline
210
0.0
220
0.0
230
1.0
 70
   264
 71
     3
 72
    46
 73
    42
 74
    40
 42
0.0000000001
 43
0.0000000001
 44
0.00001
 12
-0.0122742978518843
 22
-0.9442563460900094
 32
0.0
 13
-1.001105525747109
 23
0.0023033539386018
 33
0.0
 40
96.05634165082257
 40
96.05634165082257
 40
96.05634165082257
 40
96.05634165082257
 40
135.9123302514189
 40
167.1102949965212
 40
198.3082597416235
 40
229.5062244867259
 40
248.7930699987823
 40
263.3028053685552
 40
277.8125407383281
 40
306.8320114778738
 40
344.5965603385305
 40
382.3611091991872
 40
420.1256580598439
 40
440.1833772589578
 40
471.4769501767456
 40
502.7705230945334
 40
534.0640960123213
 40
593.5788308677523
 40
653.0935657231833
 40
694.9058686672138
 40
736.7181716112444
 40
809.0927763243469
 40
838.8461525975731
 40
860.6621994567452
 40
883.1558072124073
 40
898.3043387379449
 40
913.4528702634826
 40
928.3409213306702
 40
943.2289723978581
 40
973.0050745322332
 40
990.8802480299923
 40
1008.755421527751
 40
1044.505768523269
 40
1065.004758638966
 40
1082.81659984738
 40
1096.000435110666
 40
1109.184270373951
 40
1135.551940900522
 40
1198.447707822946
 40
1261.34347474537
 40
1263.049641105379
 40
1263.049641105379
 40
1263.049641105379
 40
1263.049641105379
 10
920.01092653606
 20
0.6427628027797223
 30
0.0
 10
919.847858444305
 20
-11.90199391915501
 30
0.0
 10
919.0632676115081
 20
-33.66107172274123
 30
0.0
 10
916.3016861503457
 20
-63.16667552582789
 30
0.0
 10
912.2729909462927
 20
-88.61982838113375
 30
0.0
 10
907.3187567743827
 20
-109.4494306458718
 30
0.0
 10
902.3637353445119
 20
-125.1810967859576
 30
0.0
 10
898.1635835372598
 20
-136.4421590197449
 30
0.0
 10
892.4546376010495
 20
-149.8072955113064
 30
0.0
 10
882.9301494555465
 20
-168.5200468298854
 30
0.0
 10
867.9104365582285
 20
-192.0438609349289
 30
0.0
 10
848.6083991900564
 20
-216.3502436374201
 30
0.0
 10
830.1645761814997
 20
-235.3872933520324
 30
0.0
 10
811.8018961284256
 20
-251.746898577945
 30
0.0
 10
793.8329659574728
 20
-265.7617896379005
 30
0.0
 10
772.0058229747337
 20
-280.2926984001707
 30
0.0
 10
741.9348851478592
 20
-297.4033542105468
 30
0.0
 10
702.1488964298229
 20
-315.3560129221424
 30
0.0
 10
656.6610637188713
 20
-330.3492267235435
 30
0.0
 10
614.7429478869851
 20
-340.6872074346646
 30
0.0
 10
567.6989565704345
 20
-349.6127530216426
 30
0.0
 10
522.6763022304594
 20
-355.3260636300162
 30
0.0
 10
482.8617966731816
 20
-358.9222925598201
 30
0.0
 10
458.75643743792
 20
-360.7610993138459
 30
0.0
 10
439.2249645636398
 20
-362.0669624102839
 30
0.0
 10
421.8275600505283
 20
-363.1184774006031
 30
0.0
 10
406.9482796505303
 20
-363.9453584964904
 30
0.0
 10
392.0988360905893
 20
-364.6959984217353
 30
0.0
 10
372.3381730223351
 20
-365.6038175902241
 30
0.0
 10
351.601898038296
 20
-366.4274356841823
 30
0.0
 10
330.2031336091229
 20
-367.1638380473321
 30
0.0
 10
307.0453587613804
 20
-367.8655718249581
 30
0.0
 10
283.0084977550997
 20
-368.44035132565
 30
0.0
 10
258.3633190164434
 20
-368.8642747023942
 30
0.0
 10
240.7677549380398
 20
-369.0903685937779
 30
0.0
 10
225.2471891093328
 20
-369.2378426922666
 30
0.0
 10
206.2506589897708
 20
-369.3691594274417
 30
0.0
 10
168.2850911829862
 20
-369.5078753865295
 30
0.0
 10
110.0319369345805
 20
-369.4117708234055
 30
0.0
 10
63.74440628964403
 20
-369.2303331627891
 30
0.0
 10
42.13720875486077
 20
-369.1795926960499
 30
0.0
 10
41.56785789791121
 20
-369.1782827277148
 30
0.0
 11
920.01092653606
 21
0.6427628027797223
 31
0.0
 11
918.6107367557475
 21
-35.91729410900124
 31
0.0
 11
916.0515284162498
 21
-62.90765730274923
 31
0.0
 11
911.9983286624481
 21
-88.35547120496222
 31
0.0
 11
906.2958466887492
 21
-112.2369759878135
 31
0.0
 11
901.8816519196581
 21
-126.2391092280054
 31
0.0
 11
898.0807636665963
 21
-136.4215622777202
 31
0.0
 11
893.7909593954755
 21
-146.4655666511034
 31
0.0
 11
883.6205618198011
 21
-166.4416870929819
 31
0.0
 11
867.4061058356331
 21
-191.8463432209236
 31
0.0
 11
848.182002082645
 21
-216.0597695315804
 31
0.0
 11
826.4248628985432
 21
-238.5294353842625
 31
0.0
 11
814.0280158038162
 21
-249.5745951612909
 31
0.0
 11
793.5970868011692
 21
-265.5302304792818
 31
0.0
 11
771.7902297237306
 21
-280.0635310015293
 31
0.0
 11
748.6867736275914
 21
-293.2252953268405
 31
0.0
 11
701.6090639779861
 21
-314.5760715026399
 31
0.0
 11
651.3037561293624
 21
-331.2655288399616
 31
0.0
 11
614.5607037314132
 21
-340.3734506101277
 31
0.0
 11
576.7436874621245
 21
-347.5958320664798
 31
0.0
 11
508.9119141673056
 21
-356.4701635578385
 31
0.0
 11
480.2392851044735
 21
-359.0807118188039
 31
0.0
 11
458.944525013267
 21
-360.7135047999845
 31
0.0
 11
436.7978772329244
 21
-362.2008041828447
 31
0.0
 11
421.8295176846068
 21
-363.1062167872513
 31
0.0
 11
406.8529915000353
 21
-363.9379702050783
 31
0.0
 11
392.0893105453024
 21
-364.6850945526678
 31
0.0
 11
377.2795749179906
 21
-365.3665677738895
 31
0.0
 11
347.749009794742
 21
-366.5482306910264
 31
0.0
 11
330.2271310786209
 21
-367.15111196987
 31
0.0
 11
312.8324488704432
 21
-367.6778633814057
 31
0.0
 11
277.869904737154
 21
-368.5124823722506
 31
0.0
 11
257.3711856272673
 21
-368.8650312895596
 31
0.0
 11
239.0880147345465
 21
-369.0999147604354
 31
0.0
 11
225.1884087714264
 21
-369.2322530321502
 31
0.0
 11
210.9542522686406
 21
-369.331337587584
 31
0.0
 11
181.7264401672909
 21
-369.4429498664474
 31
0.0
 11
110.6545245890114
 21
-369.3868810556763
 31
0.0
 11
43.27980832968126
 21
-369.1823015856986
 31
0.0
 11
41.56785789791121
 21
-369.1782827277148
 31
0.0
1001
ACAD_SPLINE_DATA
1070
   100
1070
     0
1070
   101
1070
     0
1070
   102
1070
    15
  0
LINE
  5
31BC
330
1F
100
AcDbEntity
  8
0
  6
AM_DIN_F_W050
 62
     6
 48
4.0
100
AcDbLine
 10
-722.3339618701023
 20
-4.767460219624921
 30
0.0
 11
-722.3339618701023
 21
443.2330215463628
 31
0.0
  0
LINE
  5
31BD
330
1F
100
AcDbEntity
  8
0
  6
AM_DIN_F_W050
 62
     6
 48
4.0
100
AcDbLine
 10
-747.5098379742675
 20
-4.767460219625149
 30
0.0
 11
-747.5098379742675
 21
449.9930215463628
 31
0.0
  0
LINE
  5
31BE
330
1F
100
AcDbEntity
  8
0
  6
AM_DIN_F_W050
 62
     6
 48
4.0
100
AcDbLine
 10
27.99940074773795
 20
-268.0122358791083
 30
0.0
 11
992.7339690703309
 21
-268.0122358791081
 31
0.0
  0
LINE
  5
31BF
330
1F
100
AcDbEntity
  8
0
  6
AM_DIN_F_W050
 62
     6
 48
4.0
100
AcDbLine
 10
27.4939690703304
 20
-293.0071261333076
 30
0.0
 11
999.9939690703307
 21
-293.0071261333073
 31
0.0
  0
LINE
  5
31C1
330
1F
100
AcDbEntity
  8
0
  6
AM_DIN_F_W050
 62
     6
 48
4.0
100
AcDbLine
 10
-722.3339618701023
 20
443.2330215463628
 30
0.0
 11
992.7339690703309
 21
443.233021546363
 31
0.0
  0
LINE
  5
31C3
330
1F
100
AcDbEntity
  8
0
  6
AM_DIN_F_W050
 62
     6
 48
4.0
100
AcDbLine
 10
992.7339690703309
 20
-268.0122358791081
 30
0.0
 11
992.7339690703309
 21
443.233021546363
 31
0.0
  0
REGION
  5
3208
330
1F
100
AcDbEntity
  8
0
100
AcDbModelerGeometry
 70
     1
  1
mogoo lm m o          
  1
ni ^ *+0;:,4 ^ *+0\^ [ nf ^ LR mniqoqoqkjon QK o  
  1
n fqfffffffffffffffj:rooh n:rono 
  1
>,27:>;:- {rn rn _nm mniqoqoqkjon |
  1
=0;& {rn rn {rn {m {rn {rn |
  1
3*2/ {rn rn {rn {rn {l {n |
  1
,7:33 {rn rn {rn {rn {rn {k {rn {m |
  1
9><: {rn rn {rn {rn {j {l {rn {i 90-(>-; ;0*=3: 0*+ |
  1
300/ {rn rn {rn {rn {h {k |
  1
/3>1:r,*-9><: {rn rn {rn foqmllfnjlflhokhfn mkqogkgfiglngjofgl o o o n rn o o -:):-,:@) V V V V |
  1
<0:;8: {rn rn {rn {g {f {rn {no -:):-,:; {j {rn |
  1
<0:;8: {rn rn {rn {nn {h {rn {nm 90-(>-; {j {rn |
  1
<0:;8: {rn rn {rn {h {nl {rn {nk -:):-,:; {j {rn |
  1
:;8: {rn rn {rn {nj o {ni kjoqoooooooooooojh {h {nh 90-(>-; _h *1410(1 |
  1
<0:;8: {rn rn {rn {nl {g {rn {ng -:):-,:; {j {rn |
  1
:;8: {rn rn {rn {nj fiqojilknijogmmikj {nf nmilqokfiknnojlhgh {g {mo 90-(>-; _h *1410(1 |
  1
<0:;8: {rn rn {rn {f {nn {rn {mn -:):-,:; {j {rn |
  1
:;8: {rn rn {rn {ni o {mm nfooqoooooooooooom {f {ml 90-(>-; _h *1410(1 |
  1
):-+:' {rn rn {rn {no {mk |
  1
):-+:' {rn rn {rn {no {mj |
  1
,+->687+r<*-): {rn rn {rn rfooqooiolofmfiifjg roqooifhgkjlilhijhliif o o n o V V |
  1
:;8: {rn rn {rn {mi o {nf fjoqooooooooooooml {nn {mh 90-(>-; _h *1410(1 |
  1
):-+:' {rn rn {rn {ng {mg |
  1
61+<*-):r<*-): {rn rn {rn 90-(>-; $ :'><+<*- 9*33 1*=, l 0/:1 i 
  1
 fiqojilknijogmmikj l mimqjiimhonmokiimk n kkmqiglfmffkoklnfk n ijiqjhlifljjfjgiji n ghjqfknklhnofkkklk n 
  1
 nmilqokfiknnojlhgh l 
  1
 rfooqooiolofmfiifjg roqooifhgkjlilhmominfi o 
  1
 rgffqmiomnjonjlmoig rjhqlgmmiflhhjjhnmm o 
  1
 rggiqilmnnifkgglmlf rnhlqhoiffilmkgkjmj o 
  1
 rhikqihnkmilmihmgjg rlllqnnlgnnmlnlknoi o 
  1
 rjifqjmkonjknmhkggf rkmnqofjgnoliflgfmi o 
  1
 rmfkqiogjjfjigifkjj rkkfqhnoknfjhffgmmh o 
  1
 rhgqhnhhomkkmmllohi rkjoqlolnnfjfhjolin o 
  1
 kfqfflfifohollokmf rkjoqooifhgkjlilifg o 
  1
 o 
  1
 1*33@,*-9><: 
  1
 1*33@,*-9><: 
  1
 1*33=, 
  1
 1*33=, 
  1
 V V 
  1
 o 
  1
 o 
  1
 k mimqjiimhonmokiimk kkmqiglfmffkoklnfk ijiqjhlifljjfjgiji ghjqfknklhnofkkklk 
  1
 Y n Y o " V V |
  1
:;8: {rn rn {rn {mm o {mi foo {nl {mf 90-(>-; _h *1410(1 |
  1
):-+:' {rn rn {rn {nk {lo |
  1
,+->687+r<*-): {rn rn {rn rfooqooiolofmfiifjg kkfqfflomnjkilimfn o n jqfgljnhhhkgmngfim:ronh o V V |
  1
/061+ {rn rn {rn rfooqooiolofmfiifjg roqooifhgkjlilhijhliif o |
  1
/061+ {rn rn {rn rfooqooiolofmfiifjg kkfqfflomnjkilimfn o |
  1
):-+:' {rn rn {rn {mn {ln |
  1
,+->687+r<*-): {rn rn {rn fffqfflfifohollogg rkjoqooifhgkjlilifg o rn o o V V |
  1
/061+ {rn rn {rn kfqfflfifoholloijh rkjoqooifhgkjlilifg o |
  1
,+->687+r<*-): {rn rn {rn fffqfflfifoholloij kkfqfflomnjkililom o mqjmilhknhnjfnkihl:roni rn o V V |
  1
/061+ {rn rn {rn fffqfflfifoholloij kkfqfflomnjkililom o |
  1
/061+ {rn rn {rn fffqfflfifohollogg rkjoqooifhgkjlilifg o |
  0
ENDSEC
  0
SECTION
  2
OBJECTS
  0
DICTIONARY
  5
C
330
0
100
AcDbDictionary
281
     1
  3
ACAD_2007HEADERVARS_RT
350
3312
  3
ACAD_COLOR
350
251F
  3
ACAD_GROUP
350
D
  3
ACAD_IMAGE_DICT
350
28A6
  3
ACAD_IMAGE_VARS
350
28A8
  3
ACAD_LAYOUT
350
1A
  3
ACAD_MATERIAL
350
24F5
  3
ACAD_MLEADERSTYLE
350
2534
  3
ACAD_MLINESTYLE
350
17
  3
ACAD_PLOTSETTINGS
350
19
  3
ACAD_PLOTSTYLENAME
350
E
  3
ACAD_SCALELIST
350
2522
  3
ACAD_TABLESTYLE
350
2520
  3
ACAD_VISUALSTYLE
350
250E
  3
ACDB_RECOMPOSE_DATA
350
3311
  3
AcDbVariableDictionary
350
86
  3
AcmDictionary
350
45
  3
AEC_PROPERTY_SET_DEFS
350
2EFC
  3
AMG
350
41
  3
AMGSNAPSETTINGS
350
332
  3
ASE_INDEX_DICTIONARY
350
427
  0
DICTIONARY
  5
25A6
330
8
100
AcDbDictionary
280
     1
281
     1
  0
DICTIONARY
  5
2692
330
2
100
AcDbDictionary
280
     1
281
     1
  3
ACAD_LAYERSTATES
360
2693
  0
DICTIONARY
  5
25A1
330
10
100
AcDbDictionary
280
     1
281
     1
  3
ADSK_XREC_LAYER_RECONCILED
360
25A2
  0
DICTIONARY
  5
81
330
1F
100
AcDbDictionary
280
     1
281
     1
  3
ACAD_SORTENTS
360
278F
  0
DICTIONARY
  5
2D4B
330
2D3A
100
AcDbDictionary
280
     1
281
     1
  3
ACAD_SORTENTS
360
2D4C
  0
DICTIONARY
  5
3312
102
{ACAD_REACTORS
330
C
102
}
330
C
100
AcDbDictionary
281
     1
  3
DIMJOGANG
350
3313
  3
DIMLTEX1
350
3315
  3
DIMLTEX2
350
3316
  3
DIMLTYPE
350
3314
  0
DICTIONARY
  5
251F
102
{ACAD_REACTORS
330
C
102
}
330
C
100
AcDbDictionary
281
     1
  0
DICTIONARY
  5
D
102
{ACAD_REACTORS
330
C
102
}
330
C
100
AcDbDictionary
281
     1
  0
DICTIONARY
  5
28A6
102
{ACAD_REACTORS
330
C
102
}
330
C
100
AcDbDictionary
281
     1
  3
$RGNZ9UX
350
28A7
  0
RASTERVARIABLES
  5
28A8
102
{ACAD_REACTORS
330
C
102
}
330
C
100
AcDbRasterVariables
 90
        0
 70
     1
 71
     1
 72
     1
  0
DICTIONARY
  5
1A
102
{ACAD_REACTORS
330
C
102
}
330
C
100
AcDbDictionary
281
     1
  3
Layout1
350
1E
  3
Layout2
350
26
  3
Model
350
22
  0
DICTIONARY
  5
24F5
102
{ACAD_REACTORS
330
C
102
}
330
C
100
AcDbDictionary
281
     1
  3
ByBlock
350
24FE
  3
ByLayer
350
24F6
  3
Global
350
2506
  0
DICTIONARY
  5
2534
102
{ACAD_REACTORS
330
C
102
}
330
C
100
AcDbDictionary
281
     1
  3
Standard
350
2535
  0
DICTIONARY
  5
17
102
{ACAD_REACTORS
330
C
102
}
330
C
100
AcDbDictionary
281
     1
  3
Standard
350
18
  0
DICTIONARY
  5
19
102
{ACAD_REACTORS
330
C
102
}
330
C
100
AcDbDictionary
281
     1
  0
ACDBDICTIONARYWDFLT
  5
E
102
{ACAD_REACTORS
330
C
102
}
330
C
100
AcDbDictionary
281
     1
  3
Normal
350
F
100
AcDbDictionaryWithDefault
340
F
  0
DICTIONARY
  5
2522
102
{ACAD_REACTORS
330
C
102
}
330
C
100
AcDbDictionary
281
     1
  3
A0
350
2523
  3
A1
350
2524
  3
A2
350
2525
  3
A3
350
2526
  3
A4
350
2527
  3
A5
350
2528
  3
A6
350
2529
  3
A7
350
252A
  3
A8
350
252B
  3
A9
350
252C
  3
B0
350
252D
  3
B1
350
252E
  3
B2
350
252F
  3
B3
350
2530
  3
B4
350
2531
  3
B5
350
2532
  3
B6
350
2533
  0
DICTIONARY
  5
2520
102
{ACAD_REACTORS
330
C
102
}
330
C
100
AcDbDictionary
281
     1
  3
Standard
350
2521
  0
DICTIONARY
  5
250E
102
{ACAD_REACTORS
330
C
102
}
330
C
100
AcDbDictionary
281
     1
  3
2dWireframe
350
2514
  3
3D Hidden
350
2516
  3
3dWireframe
350
2515
  3
Basic
350
2513
  3
Brighten
350
251A
  3
ColorChange
350
251E
  3
Conceptual
350
2517
  3
Dim
350
2519
  3
EdgeColorOff
350
264E
  3
Facepattern
350
251D
  3
Flat
350
250F
  3
FlatWithEdges
350
2510
  3
Gouraud
350
2511
  3
GouraudWithEdges
350
2512
  3
Hidden
350
2646
  3
JitterOff
350
264C
  3
Linepattern
350
251C
  3
OverhangOff
350
264D
  3
Realistic
350
2518
  3
Shaded
350
264B
  3
Shaded with edges
350
264A
  3
Shades of Gray
350
2647
  3
Sketchy
350
2648
  3
Thicken
350
251B
  3
Wireframe
350
2645
  3
X-Ray
350
2649
  0
XRECORD
  5
3311
102
{ACAD_REACTORS
330
C
102
}
330
C
100
AcDbXrecord
280
     1
 90
        1
330
2521
  0
DICTIONARY
  5
86
102
{ACAD_REACTORS
330
C
102
}
330
C
100
AcDbDictionary
281
     1
  3
CANNOSCALE
350
25AE
  3
CMLEADERSTYLE
350
25AD
  3
CTABLESTYLE
350
25AC
  3
DIMASSOC
350
89
  3
HIDETEXT
350
88
  3
INDEXCTL
350
87
  3
LAYEREVAL
350
269C
  3
LAYERNOTIFY
350
269D
  3
LIGHTINGUNITS
350
269B
  3
MSLTSCALE
350
269A
  0
DICTIONARY
  5
45
102
{ACAD_REACTORS
330
C
102
}
330
C
100
AcDbDictionary
281
     1
  3
AcmStdDictionary
350
4A
  3
AMDTSECTSYM_ARROWCOLOR
350
258D
  0
DICTIONARY
  5
2EFC
102
{ACAD_REACTORS
330
C
102
}
330
C
100
AcDbDictionary
281
     1
  0
DICTIONARY
  5
41
102
{ACAD_REACTORS
330
C
102
}
330
C
100
AcDbDictionary
281
     1
  0
DICTIONARY
  5
332
102
{ACAD_REACTORS
330
C
102
}
330
C
100
AcDbDictionary
281
     1
  0
DICTIONARY
  5
427
102
{ACAD_REACTORS
330
C
102
}
330
C
100
AcDbDictionary
281
     1
  3
ASEBlockHierarchyIndexRecord
350
429
1001
DCO15
1040
1566620334.734
  0
DICTIONARY
  5
2693
102
{ACAD_REACTORS
330
2692
102
}
330
2692
100
AcDbDictionary
281
     1
  0
XRECORD
  5
25A2
102
{ACAD_REACTORS
330
25A1
102
}
330
25A1
100
AcDbXrecord
280
     1
290
     1
  0
SORTENTSTABLE
  5
278F
102
{ACAD_REACTORS
330
81
102
}
330
81
100
AcDbSortentsTable
330
1F
331
2DF0
  5
2DF0
331
316D
  5
3175
331
316B
  5
3172
331
3187
  5
3122
331
3169
  5
3170
331
3185
  5
3051
331
300D
  5
300D
331
3167
  5
316E
331
3165
  5
316C
331
2DC5
  5
2DC5
331
3173
  5
319D
331
3171
  5
3186
331
2DC1
  5
2DC1
331
2FE4
  5
2FF3
331
2FE2
  5
2FF1
331
2DCF
  5
2DCF
331
31A9
  5
3121
331
2DF1
  5
2DF1
331
316E
  5
3183
331
316C
  5
3173
331
3186
  5
3120
331
316A
  5
3171
331
300C
  5
300C
331
2F5B
  5
2F5B
331
3168
  5
316F
331
3166
  5
316D
331
31A6
  5
3164
331
2FD3
  5
2FEC
331
3164
  5
316B
331
2FED
  5
2FED
331
2DC6
  5
2DC6
331
3172
  5
3188
331
2DC4
  5
2DC4
331
3170
  5
3185
331
2FE3
  5
2FF2
331
3188
  5
31A6
331
2FE1
  5
2FF0
331
2FF5
  5
2FF5
331
310F
  5
3165
331
31A8
  5
311D
331
316F
  5
3184
  0
SORTENTSTABLE
  5
2D4C
102
{ACAD_REACTORS
330
2D4B
102
}
330
2D4B
100
AcDbSortentsTable
330
2D3A
  0
XRECORD
  5
3313
102
{ACAD_REACTORS
330
3312
102
}
330
3312
100
AcDbXrecord
280
     1
 40
1.570796326794896
  0
XRECORD
  5
3315
102
{ACAD_REACTORS
330
3312
102
}
330
3312
100
AcDbXrecord
280
     1
340
14
  0
XRECORD
  5
3316
102
{ACAD_REACTORS
330
3312
102
}
330
3312
100
AcDbXrecord
280
     1
340
14
  0
XRECORD
  5
3314
102
{ACAD_REACTORS
330
3312
102
}
330
3312
100
AcDbXrecord
280
     1
340
14
  0
IMAGEDEF
  5
28A7
102
{ACAD_REACTORS
330
28A6
102
}
330
28A6
100
AcDbRasterImageDef
 90
        0
  1
C:\Users\Administrator\Desktop\$RGNZ9UX.JPG
 10
1291.0
 20
610.0
 11
0.0007745933384973
 21
0.0007745933384973
280
     1
281
     0
  0
LAYOUT
  5
1E
102
{ACAD_REACTORS
330
1A
102
}
330
1A
100
AcDbPlotSettings
  1

  2
Epson Stylus COLOR 440 ESC/P 2
  4

  6

 40
0.0
 41
0.0
 42
0.0
 43
0.0
 44
0.0
 45
0.0
 46
0.0
 47
0.0
 48
0.0
 49
0.0
140
0.0
141
0.0
142
1.0
143
1.0
 70
   688
 72
     0
 73
     0
 74
     5
  7

 75
    16
147
1.0
 76
     0
 77
     2
 78
   300
148
0.0
149
0.0
100
AcDbLayout
  1
Layout1
 70
     1
 71
     1
 10
0.0
 20
0.0
 11
420.0
 21
297.0
 12
0.0
 22
0.0
 32
0.0
 14
1.000000000000000E+20
 24
1.000000000000000E+20
 34
1.000000000000000E+20
 15
-1.000000000000000E+20
 25
-1.000000000000000E+20
 35
-1.000000000000000E+20
146
0.0
 13
0.0
 23
0.0
 33
0.0
 16
1.0
 26
0.0
 36
0.0
 17
0.0
 27
1.0
 37
0.0
 76
     0
330
1B
  0
LAYOUT
  5
26
102
{ACAD_REACTORS
330
1A
102
}
330
1A
100
AcDbPlotSettings
  1

  2
Epson Stylus COLOR 440 ESC/P 2
  4

  6

 40
0.0
 41
0.0
 42
0.0
 43
0.0
 44
0.0
 45
0.0
 46
0.0
 47
0.0
 48
0.0
 49
0.0
140
0.0
141
0.0
142
1.0
143
1.0
 70
   688
 72
     0
 73
     0
 74
     5
  7

 75
    16
147
1.0
 76
     0
 77
     2
 78
   300
148
0.0
149
0.0
100
AcDbLayout
  1
Layout2
 70
     1
 71
     2
 10
0.0
 20
0.0
 11
12.0
 21
9.0
 12
0.0
 22
0.0
 32
0.0
 14
0.0
 24
0.0
 34
0.0
 15
0.0
 25
0.0
 35
0.0
146
0.0
 13
0.0
 23
0.0
 33
0.0
 16
1.0
 26
0.0
 36
0.0
 17
0.0
 27
1.0
 37
0.0
 76
     0
330
23
  0
LAYOUT
  5
22
102
{ACAD_XDICTIONARY
360
2698
102
}
102
{ACAD_REACTORS
330
1A
102
}
330
1A
100
AcDbPlotSettings
  1

  2
none_device
  4
ISO_A4_(210.00_x_297.00_MM)
  6

 40
7.5
 41
20.0
 42
7.5
 43
20.0
 44
210.0
 45
297.0
 46
0.0
 47
0.0
 48
0.0
 49
0.0
140
0.0
141
0.0
142
1.0
143
9.177602477623295
 70
 11952
 72
     1
 73
     1
 74
     0
  7

 75
     0
147
0.1089609189805492
 76
     0
 77
     2
 78
   300
148
1638.945968138709
149
521.9759445033046
100
AcDbLayout
  1
Model
 70
     1
 71
     0
 10
0.0
 20
0.0
 11
12.0
 21
9.0
 12
0.0
 22
0.0
 32
0.0
 14
0.0
 24
0.0
 34
0.0
 15
0.0
 25
0.0
 35
0.0
146
0.0
 13
0.0
 23
0.0
 33
0.0
 16
1.0
 26
0.0
 36
0.0
 17
0.0
 27
1.0
 37
0.0
 76
     0
330
1F
331
24F3
1001
ACAD_PSEXT
1000
Kein
1000
Kein
1000
Nicht anwendbar
1000
Das Layout wird erst geplottet, wenn ein neuer Plotter-Konfigurationsname ausgewählt wird.
1070
     0
  0
MATERIAL
  5
24FE
102
{ACAD_XDICTIONARY
360
24FF
102
}
102
{ACAD_REACTORS
330
24F5
102
}
330
24F5
100
AcDbMaterial
  1
ByBlock
 72
     0
 43
0.0008202099737533
 43
0.0
 43
0.0
 43
0.0
 43
0.0
 43
0.0008202099737533
 43
0.0
 43
0.0
 43
0.0
 43
0.0
 43
1.0
 43
0.0
 43
0.0
 43
0.0
 43
0.0
 43
1.0
 77
     0
 47
0.0008202099737533
 47
0.0
 47
0.0
 47
0.0
 47
0.0
 47
0.0008202099737533
 47
0.0
 47
0.0
 47
0.0
 47
0.0
 47
1.0
 47
0.0
 47
0.0
 47
0.0
 47
0.0
 47
1.0
171
     0
 49
0.0008202099737533
 49
0.0
 49
0.0
 49
0.0
 49
0.0
 49
0.0008202099737533
 49
0.0
 49
0.0
 49
0.0
 49
0.0
 49
1.0
 49
0.0
 49
0.0
 49
0.0
 49
0.0
 49
1.0
175
     0
142
0.0008202099737533
142
0.0
142
0.0
142
0.0
142
0.0
142
0.0008202099737533
142
0.0
142
0.0
142
0.0
142
0.0
142
1.0
142
0.0
142
0.0
142
0.0
142
0.0
142
1.0
179
     0
144
0.0008202099737533
144
0.0
144
0.0
144
0.0
144
0.0
144
0.0008202099737533
144
0.0
144
0.0
144
0.0
144
0.0
144
1.0
144
0.0
144
0.0
144
0.0
144
0.0
144
1.0
147
0.0008202099737533
147
0.0
147
0.0
147
0.0
147
0.0
147
0.0008202099737533
147
0.0
147
0.0
147
0.0
147
0.0
147
1.0
147
0.0
147
0.0
147
0.0
147
0.0
147
1.0
  0
MATERIAL
  5
24F6
102
{ACAD_XDICTIONARY
360
24F7
102
}
102
{ACAD_REACTORS
330
24F5
102
}
330
24F5
100
AcDbMaterial
  1
ByLayer
 72
     0
 43
0.0008202099737533
 43
0.0
 43
0.0
 43
0.0
 43
0.0
 43
0.0008202099737533
 43
0.0
 43
0.0
 43
0.0
 43
0.0
 43
1.0
 43
0.0
 43
0.0
 43
0.0
 43
0.0
 43
1.0
 77
     0
 47
0.0008202099737533
 47
0.0
 47
0.0
 47
0.0
 47
0.0
 47
0.0008202099737533
 47
0.0
 47
0.0
 47
0.0
 47
0.0
 47
1.0
 47
0.0
 47
0.0
 47
0.0
 47
0.0
 47
1.0
171
     0
 49
0.0008202099737533
 49
0.0
 49
0.0
 49
0.0
 49
0.0
 49
0.0008202099737533
 49
0.0
 49
0.0
 49
0.0
 49
0.0
 49
1.0
 49
0.0
 49
0.0
 49
0.0
 49
0.0
 49
1.0
175
     0
142
0.0008202099737533
142
0.0
142
0.0
142
0.0
142
0.0
142
0.0008202099737533
142
0.0
142
0.0
142
0.0
142
0.0
142
1.0
142
0.0
142
0.0
142
0.0
142
0.0
142
1.0
179
     0
144
0.0008202099737533
144
0.0
144
0.0
144
0.0
144
0.0
144
0.0008202099737533
144
0.0
144
0.0
144
0.0
144
0.0
144
1.0
144
0.0
144
0.0
144
0.0
144
0.0
144
1.0
147
0.0008202099737533
147
0.0
147
0.0
147
0.0
147
0.0
147
0.0008202099737533
147
0.0
147
0.0
147
0.0
147
0.0
147
1.0
147
0.0
147
0.0
147
0.0
147
0.0
147
1.0
  0
MATERIAL
  5
2506
102
{ACAD_XDICTIONARY
360
2507
102
}
102
{ACAD_REACTORS
330
24F5
102
}
330
24F5
100
AcDbMaterial
  1
Global
 72
     0
 43
0.0008202099737533
 43
0.0
 43
0.0
 43
0.0
 43
0.0
 43
0.0008202099737533
 43
0.0
 43
0.0
 43
0.0
 43
0.0
 43
1.0
 43
0.0
 43
0.0
 43
0.0
 43
0.0
 43
1.0
 77
     0
 47
0.0008202099737533
 47
0.0
 47
0.0
 47
0.0
 47
0.0
 47
0.0008202099737533
 47
0.0
 47
0.0
 47
0.0
 47
0.0
 47
1.0
 47
0.0
 47
0.0
 47
0.0
 47
0.0
 47
1.0
171
     0
 49
0.0008202099737533
 49
0.0
 49
0.0
 49
0.0
 49
0.0
 49
0.0008202099737533
 49
0.0
 49
0.0
 49
0.0
 49
0.0
 49
1.0
 49
0.0
 49
0.0
 49
0.0
 49
0.0
 49
1.0
175
     0
142
0.0008202099737533
142
0.0
142
0.0
142
0.0
142
0.0
142
0.0008202099737533
142
0.0
142
0.0
142
0.0
142
0.0
142
1.0
142
0.0
142
0.0
142
0.0
142
0.0
142
1.0
179
     0
144
0.0008202099737533
144
0.0
144
0.0
144
0.0
144
0.0
144
0.0008202099737533
144
0.0
144
0.0
144
0.0
144
0.0
144
1.0
144
0.0
144
0.0
144
0.0
144
0.0
144
1.0
147
0.0008202099737533
147
0.0
147
0.0
147
0.0
147
0.0
147
0.0008202099737533
147
0.0
147
0.0
147
0.0
147
0.0
147
1.0
147
0.0
147
0.0
147
0.0
147
0.0
147
1.0
  0
MLEADERSTYLE
  5
2535
102
{ACAD_REACTORS
330
2534
102
}
330
2534
100
AcDbMLeaderStyle
170
     2
171
     1
172
     0
 90
        2
 40
0.0
 41
0.0
173
     1
 91
-1056964608
340
14
 92
       -2
290
     1
 42
2.0
291
     1
 43
0.36
  3
Standard
 44
4.0
300

342
11
174
     1
178
     6
175
     1
176
     0
 93
-1056964608
 45
4.0
292
     0
297
     0
 46
4.0
 94
-1056964608
 47
1.0
 49
1.0
140
1.0
293
     1
141
0.0
294
     1
177
     0
142
1.0
295
     0
296
     0
143
0.125
1001
ACAD_MLEADERVER
1070
     2
  0
MLINESTYLE
  5
18
102
{ACAD_REACTORS
330
17
102
}
330
17
100
AcDbMlineStyle
  2
STANDARD
 70
     0
  3

 62
   256
 51
90.0
 52
90.0
 71
     2
 49
0.5
 62
   256
  6
BYLAYER
 49
-0.5
 62
   256
  6
BYLAYER
  0
ACDBPLACEHOLDER
  5
F
102
{ACAD_REACTORS
330
E
102
}
330
E
  0
SCALE
  5
2523
102
{ACAD_REACTORS
330
2522
102
}
330
2522
100
AcDbScale
 70
     0
300
1:1
140
1.0
141
1.0
290
     1
  0
SCALE
  5
2524
102
{ACAD_REACTORS
330
2522
102
}
330
2522
100
AcDbScale
 70
     0
300
1:2
140
1.0
141
2.0
290
     0
  0
SCALE
  5
2525
102
{ACAD_REACTORS
330
2522
102
}
330
2522
100
AcDbScale
 70
     0
300
1:4
140
1.0
141
4.0
290
     0
  0
SCALE
  5
2526
102
{ACAD_REACTORS
330
2522
102
}
330
2522
100
AcDbScale
 70
     0
300
1:5
140
1.0
141
5.0
290
     0
  0
SCALE
  5
2527
102
{ACAD_REACTORS
330
2522
102
}
330
2522
100
AcDbScale
 70
     0
300
1:8
140
1.0
141
8.0
290
     0
  0
SCALE
  5
2528
102
{ACAD_REACTORS
330
2522
102
}
330
2522
100
AcDbScale
 70
     0
300
1:10
140
1.0
141
10.0
290
     0
  0
SCALE
  5
2529
102
{ACAD_REACTORS
330
2522
102
}
330
2522
100
AcDbScale
 70
     0
300
1:16
140
1.0
141
16.0
290
     0
  0
SCALE
  5
252A
102
{ACAD_REACTORS
330
2522
102
}
330
2522
100
AcDbScale
 70
     0
300
1:20
140
1.0
141
20.0
290
     0
  0
SCALE
  5
252B
102
{ACAD_REACTORS
330
2522
102
}
330
2522
100
AcDbScale
 70
     0
300
1:30
140
1.0
141
30.0
290
     0
  0
SCALE
  5
252C
102
{ACAD_REACTORS
330
2522
102
}
330
2522
100
AcDbScale
 70
     0
300
1:40
140
1.0
141
40.0
290
     0
  0
SCALE
  5
252D
102
{ACAD_REACTORS
330
2522
102
}
330
2522
100
AcDbScale
 70
     0
300
1:50
140
1.0
141
50.0
290
     0
  0
SCALE
  5
252E
102
{ACAD_REACTORS
330
2522
102
}
330
2522
100
AcDbScale
 70
     0
300
1:100
140
1.0
141
100.0
290
     0
  0
SCALE
  5
252F
102
{ACAD_REACTORS
330
2522
102
}
330
2522
100
AcDbScale
 70
     0
300
2:1
140
2.0
141
1.0
290
     0
  0
SCALE
  5
2530
102
{ACAD_REACTORS
330
2522
102
}
330
2522
100
AcDbScale
 70
     0
300
4:1
140
4.0
141
1.0
290
     0
  0
SCALE
  5
2531
102
{ACAD_REACTORS
330
2522
102
}
330
2522
100
AcDbScale
 70
     0
300
8:1
140
8.0
141
1.0
290
     0
  0
SCALE
  5
2532
102
{ACAD_REACTORS
330
2522
102
}
330
2522
100
AcDbScale
 70
     0
300
10:1
140
10.0
141
1.0
290
     0
  0
SCALE
  5
2533
102
{ACAD_REACTORS
330
2522
102
}
330
2522
100
AcDbScale
 70
     0
300
100:1
140
100.0
141
1.0
290
     0
  0
TABLESTYLE
  5
2521
102
{ACAD_XDICTIONARY
360
25A3
102
}
102
{ACAD_REACTORS
330
2520
102
}
330
2520
100
AcDbTableStyle
  3
Standard
 70
     0
 71
     0
 40
1.5
 41
1.5
280
     0
281
     0
  7
STANDARD
140
4.5
170
     2
 62
     0
 63
     7
283
     0
274
    -2
284
     1
 64
     0
275
    -2
285
     1
 65
     0
276
    -2
286
     1
 66
     0
277
    -2
287
     1
 67
     0
278
    -2
288
     1
 68
     0
279
    -2
289
     1
 69
     0
  7
STANDARD
140
6.0
170
     5
 62
     0
 63
     7
283
     0
274
    -2
284
     1
 64
     0
275
    -2
285
     1
 65
     0
276
    -2
286
     1
 66
     0
277
    -2
287
     1
 67
     0
278
    -2
288
     1
 68
     0
279
    -2
289
     1
 69
     0
  7
STANDARD
140
4.5
170
     5
 62
     0
 63
     7
283
     0
274
    -2
284
     1
 64
     0
275
    -2
285
     1
 65
     0
276
    -2
286
     1
 66
     0
277
    -2
287
     1
 67
     0
278
    -2
288
     1
 68
     0
279
    -2
289
     1
 69
     0
  0
VISUALSTYLE
  5
2514
102
{ACAD_XDICTIONARY
360
3324
102
}
102
{ACAD_REACTORS
330
250E
102
}
330
250E
100
AcDbVisualStyle
  2
2dWireframe
 70
     4
 71
     0
 72
     2
 73
     0
 90
        0
 40
-0.6
 41
-30.0
 62
     5
 63
     7
421
 16777215
 74
     1
 91
        4
 64
     7
 65
   257
 75
     1
175
     1
 42
1.0
 92
        0
 66
   257
 43
1.0
 76
     1
 77
     6
 78
     2
 67
     7
 79
     5
170
     0
171
     0
290
     0
174
     0
 93
        1
 44
0.0
173
     0
291
     0
 45
0.0
1001
ACAD
1000
AcDbSavedByObjectVersion
1070
     0
  0
VISUALSTYLE
  5
2516
102
{ACAD_XDICTIONARY
360
3328
102
}
102
{ACAD_REACTORS
330
250E
102
}
330
250E
100
AcDbVisualStyle
  2
3D Hidden
 70
     6
 71
     1
 72
     2
 73
     2
 90
        0
 40
-0.6
 41
-30.0
 62
     5
 63
     7
421
 16777215
 74
     2
 91
        2
 64
     7
 65
   257
 75
     2
175
     1
 42
40.0
 92
        0
 66
   257
 43
1.0
 76
     1
 77
     6
 78
     2
 67
     7
 79
     3
170
     0
171
     0
290
     0
174
     0
 93
        1
 44
0.0
173
     0
291
     0
 45
0.0
1001
ACAD
1000
AcDbSavedByObjectVersion
1070
     0
  0
VISUALSTYLE
  5
2515
102
{ACAD_XDICTIONARY
360
3326
102
}
102
{ACAD_REACTORS
330
250E
102
}
330
250E
100
AcDbVisualStyle
  2
3dWireframe
 70
     5
 71
     0
 72
     2
 73
     0
 90
        0
 40
-0.6
 41
-30.0
 62
     5
 63
     7
421
 16777215
 74
     1
 91
        4
 64
     7
 65
   257
 75
     1
175
     1
 42
1.0
 92
        0
 66
   257
 43
1.0
 76
     1
 77
     6
 78
     2
 67
     7
 79
     5
170
     0
171
     0
290
     0
174
     0
 93
        1
 44
0.0
173
     0
291
     0
 45
0.0
1001
ACAD
1000
AcDbSavedByObjectVersion
1070
     0
  0
VISUALSTYLE
  5
2513
102
{ACAD_XDICTIONARY
360
3322
102
}
102
{ACAD_REACTORS
330
250E
102
}
330
250E
100
AcDbVisualStyle
  2
Basic
 70
     7
 71
     1
 72
     0
 73
     1
 90
        0
 40
-0.6
 41
-30.0
 62
     5
 63
     7
421
 16777215
 74
     0
 91
        4
 64
     7
 65
   257
 75
     1
175
     1
 42
1.0
 92
        8
 66
     7
 43
1.0
 76
     1
 77
     6
 78
     2
 67
     7
 79
     5
170
     0
171
     0
290
     0
174
     0
 93
        1
 44
0.0
173
     0
291
     1
 45
0.0
1001
ACAD
1000
AcDbSavedByObjectVersion
1070
     0
  0
VISUALSTYLE
  5
251A
102
{ACAD_XDICTIONARY
360
3330
102
}
102
{ACAD_REACTORS
330
250E
102
}
330
250E
100
AcDbVisualStyle
  2
Brighten
 70
    12
 71
     2
 72
     2
 73
     0
 90
        0
 40
-0.6
 41
-30.0
 62
     5
 63
     7
421
 16777215
 74
     1
 91
        4
 64
     7
 65
   257
 75
     1
175
     1
 42
1.0
 92
        8
 66
     7
 43
1.0
 76
     1
 77
     6
 78
     2
 67
     7
 79
     5
170
     0
171
     0
290
     0
174
     0
 93
        1
 44
50.0
173
     0
291
     1
 45
0.0
1001
ACAD
1000
AcDbSavedByObjectVersion
1070
     0
  0
VISUALSTYLE
  5
251E
102
{ACAD_XDICTIONARY
360
3338
102
}
102
{ACAD_REACTORS
330
250E
102
}
330
250E
100
AcDbVisualStyle
  2
ColorChange
 70
    16
 71
     2
 72
     2
 73
     3
 90
        0
 40
-0.6
 41
-30.0
 62
     5
 63
     8
421
  8421504
 74
     1
 91
        4
 64
     7
 65
   257
 75
     1
175
     1
 42
1.0
 92
        8
 66
     8
424
  8421504
 43
1.0
 76
     1
 77
     6
 78
     2
 67
     7
 79
     5
170
     0
171
     0
290
     0
174
     0
 93
        1
 44
0.0
173
     0
291
     1
 45
0.0
1001
ACAD
1000
AcDbSavedByObjectVersion
1070
     0
  0
VISUALSTYLE
  5
2517
102
{ACAD_XDICTIONARY
360
332A
102
}
102
{ACAD_REACTORS
330
250E
102
}
330
250E
100
AcDbVisualStyle
  2
Conceptual
 70
     9
 71
     3
 72
     2
 73
     0
 90
        0
 40
-0.6
 41
-30.0
 62
     5
 63
     7
421
 16777215
 74
     2
 91
        2
 64
     7
 65
   257
 75
     1
175
     1
 42
40.0
 92
        8
 66
     7
 43
1.0
 76
     1
 77
     6
 78
     2
 67
     7
 79
     3
170
     0
171
     0
290
     0
174
     0
 93
        1
 44
0.0
173
     0
291
     0
 45
0.0
1001
ACAD
1000
AcDbSavedByObjectVersion
1070
     0
  0
VISUALSTYLE
  5
2519
102
{ACAD_XDICTIONARY
360
332E
102
}
102
{ACAD_REACTORS
330
250E
102
}
330
250E
100
AcDbVisualStyle
  2
Dim
 70
    11
 71
     2
 72
     2
 73
     0
 90
        0
 40
-0.6
 41
-30.0
 62
     5
 63
     7
421
 16777215
 74
     1
 91
        4
 64
     7
 65
   257
 75
     1
175
     1
 42
1.0
 92
        8
 66
     7
 43
1.0
 76
     1
 77
     6
 78
     2
 67
     7
 79
     5
170
     0
171
     0
290
     0
174
     0
 93
        1
 44
-50.0
173
     0
291
     1
 45
0.0
1001
ACAD
1000
AcDbSavedByObjectVersion
1070
     0
  0
VISUALSTYLE
  5
264E
102
{ACAD_XDICTIONARY
360
334D
102
}
102
{ACAD_REACTORS
330
250E
102
}
330
250E
100
AcDbVisualStyle
  2
EdgeColorOff
 70
    22
 71
     2
 72
     2
 73
     0
 90
        0
 40
-0.6
 41
-30.0
 62
     5
 63
     7
421
 16777215
 74
     1
 91
        4
 64
     7
 65
   257
 75
     1
175
     1
 42
1.0
 92
        8
 66
     7
 43
1.0
 76
     1
 77
     6
 78
     2
 67
     7
 79
     5
170
     0
171
     0
290
     0
174
     0
 93
        1
 44
0.0
173
     0
291
     1
 45
0.0
1001
ACAD
1000
AcDbSavedByObjectVersion
1070
     0
  0
VISUALSTYLE
  5
251D
102
{ACAD_XDICTIONARY
360
3336
102
}
102
{ACAD_REACTORS
330
250E
102
}
330
250E
100
AcDbVisualStyle
  2
Facepattern
 70
    15
 71
     2
 72
     2
 73
     0
 90
        0
 40
-0.6
 41
-30.0
 62
     5
 63
     7
421
 16777215
 74
     1
 91
        4
 64
     7
 65
   257
 75
     1
175
     1
 42
1.0
 92
        8
 66
     7
 43
1.0
 76
     1
 77
     6
 78
     2
 67
     7
 79
     5
170
     0
171
     0
290
     0
174
     0
 93
        1
 44
0.0
173
     0
291
     1
 45
0.0
1001
ACAD
1000
AcDbSavedByObjectVersion
1070
     0
  0
VISUALSTYLE
  5
250F
102
{ACAD_XDICTIONARY
360
331A
102
}
102
{ACAD_REACTORS
330
250E
102
}
330
250E
100
AcDbVisualStyle
  2
Flat
 70
     0
 71
     2
 72
     1
 73
     1
 90
        2
 40
-0.6
 41
30.0
 62
     5
 63
     7
421
 16777215
 74
     0
 91
        4
 64
     7
 65
   257
 75
     1
175
     1
 42
1.0
 92
        8
 66
     7
 43
1.0
 76
     1
 77
     6
 78
     2
 67
     7
 79
     5
170
     0
171
     0
290
     0
174
     0
 93
       13
 44
0.0
173
     0
291
     1
 45
0.0
1001
ACAD
1000
AcDbSavedByObjectVersion
1070
     0
  0
VISUALSTYLE
  5
2510
102
{ACAD_XDICTIONARY
360
331C
102
}
102
{ACAD_REACTORS
330
250E
102
}
330
250E
100
AcDbVisualStyle
  2
FlatWithEdges
 70
     1
 71
     2
 72
     1
 73
     1
 90
        2
 40
-0.6
 41
30.0
 62
     5
 63
     7
421
 16777215
 74
     1
 91
        4
 64
     7
 65
   257
 75
     1
175
     1
 42
1.0
 92
        0
 66
   257
 43
1.0
 76
     1
 77
     6
 78
     2
 67
     7
 79
     5
170
     0
171
     0
290
     0
174
     0
 93
       13
 44
0.0
173
     0
291
     1
 45
0.0
1001
ACAD
1000
AcDbSavedByObjectVersion
1070
     0
  0
VISUALSTYLE
  5
2511
102
{ACAD_XDICTIONARY
360
331E
102
}
102
{ACAD_REACTORS
330
250E
102
}
330
250E
100
AcDbVisualStyle
  2
Gouraud
 70
     2
 71
     2
 72
     2
 73
     1
 90
        2
 40
-0.6
 41
30.0
 62
     5
 63
     7
421
 16777215
 74
     0
 91
        4
 64
     7
 65
   257
 75
     1
175
     1
 42
1.0
 92
        0
 66
     7
 43
1.0
 76
     1
 77
     6
 78
     2
 67
     7
 79
     5
170
     0
171
     0
290
     0
174
     0
 93
       13
 44
0.0
173
     0
291
     1
 45
0.0
1001
ACAD
1000
AcDbSavedByObjectVersion
1070
     0
  0
VISUALSTYLE
  5
2512
102
{ACAD_XDICTIONARY
360
3320
102
}
102
{ACAD_REACTORS
330
250E
102
}
330
250E
100
AcDbVisualStyle
  2
GouraudWithEdges
 70
     3
 71
     2
 72
     2
 73
     1
 90
        2
 40
-0.6
 41
30.0
 62
     5
 63
     7
421
 16777215
 74
     1
 91
        4
 64
     7
 65
   257
 75
     1
175
     1
 42
1.0
 92
        0
 66
   257
 43
1.0
 76
     1
 77
     6
 78
     2
 67
     7
 79
     5
170
     0
171
     0
290
     0
174
     0
 93
       13
 44
0.0
173
     0
291
     1
 45
0.0
1001
ACAD
1000
AcDbSavedByObjectVersion
1070
     0
  0
VISUALSTYLE
  5
2646
102
{ACAD_XDICTIONARY
360
333D
102
}
102
{ACAD_REACTORS
330
250E
102
}
330
250E
100
AcDbVisualStyle
  2
Hidden
 70
     6
 71
     1
 72
     2
 73
     2
 90
        0
 40
-0.6
 41
-30.0
 62
     5
 63
     7
421
 16777215
 74
     2
 91
        2
 64
     7
 65
   257
 75
     2
175
     1
 42
40.0
 92
        0
 66
   257
 43
1.0
 76
     1
 77
     6
 78
     2
 67
     7
 79
     3
170
     0
171
     0
290
     0
174
     0
 93
        1
 44
0.0
173
     0
291
     0
 45
0.0
1001
ACAD
1000
AcDbSavedByObjectVersion
1070
     0
  0
VISUALSTYLE
  5
264C
102
{ACAD_XDICTIONARY
360
3349
102
}
102
{ACAD_REACTORS
330
250E
102
}
330
250E
100
AcDbVisualStyle
  2
JitterOff
 70
    20
 71
     2
 72
     2
 73
     0
 90
        0
 40
-0.6
 41
-30.0
 62
     5
 63
     7
421
 16777215
 74
     1
 91
        4
 64
     7
 65
   257
 75
     1
175
     1
 42
1.0
 92
       10
 66
     7
 43
1.0
 76
     1
 77
     6
 78
     2
 67
     7
 79
     5
170
     0
171
     0
290
     0
174
     0
 93
        1
 44
0.0
173
     0
291
     1
 45
0.0
1001
ACAD
1000
AcDbSavedByObjectVersion
1070
     0
  0
VISUALSTYLE
  5
251C
102
{ACAD_XDICTIONARY
360
3334
102
}
102
{ACAD_REACTORS
330
250E
102
}
330
250E
100
AcDbVisualStyle
  2
Linepattern
 70
    14
 71
     2
 72
     2
 73
     0
 90
        0
 40
-0.6
 41
-30.0
 62
     5
 63
     7
421
 16777215
 74
     1
 91
        4
 64
     7
 65
   257
 75
     7
175
     7
 42
1.0
 92
        8
 66
     7
 43
1.0
 76
     1
 77
     6
 78
     2
 67
     7
 79
     5
170
     0
171
     0
290
     0
174
     0
 93
        1
 44
0.0
173
     0
291
     1
 45
0.0
1001
ACAD
1000
AcDbSavedByObjectVersion
1070
     0
  0
VISUALSTYLE
  5
264D
102
{ACAD_XDICTIONARY
360
334B
102
}
102
{ACAD_REACTORS
330
250E
102
}
330
250E
100
AcDbVisualStyle
  2
OverhangOff
 70
    21
 71
     2
 72
     2
 73
     0
 90
        0
 40
-0.6
 41
-30.0
 62
     5
 63
     7
421
 16777215
 74
     1
 91
        4
 64
     7
 65
   257
 75
     1
175
     1
 42
1.0
 92
        9
 66
     7
 43
1.0
 76
     1
 77
     6
 78
     2
 67
     7
 79
     5
170
     0
171
     0
290
     0
174
     0
 93
        1
 44
0.0
173
     0
291
     1
 45
0.0
1001
ACAD
1000
AcDbSavedByObjectVersion
1070
     0
  0
VISUALSTYLE
  5
2518
102
{ACAD_XDICTIONARY
360
332C
102
}
102
{ACAD_REACTORS
330
250E
102
}
330
250E
100
AcDbVisualStyle
  2
Realistic
 70
     8
 71
     2
 72
     2
 73
     0
 90
        0
 40
-0.6
 41
-30.0
 62
     5
 63
     7
421
 16777215
 74
     1
 91
        0
 64
     7
 65
   257
 75
     1
175
     1
 42
1.0
 92
        8
 66
     8
424
  7895160
 43
1.0
 76
     1
 77
     6
 78
     2
 67
     7
 79
     5
170
     0
171
     0
290
     0
174
     0
 93
       13
 44
0.0
173
     0
291
     0
 45
0.0
1001
ACAD
1000
AcDbSavedByObjectVersion
1070
     0
  0
VISUALSTYLE
  5
264B
102
{ACAD_XDICTIONARY
360
3347
102
}
102
{ACAD_REACTORS
330
250E
102
}
330
250E
100
AcDbVisualStyle
  2
Shaded
 70
    27
 71
     2
 72
     2
 73
     1
 90
        2
 40
-0.6
 41
30.0
 62
     5
 63
     7
421
 16777215
 74
     0
 91
        4
 64
     7
 65
   257
 75
     1
175
     1
 42
1.0
 92
        8
 66
   257
 43
1.0
 76
     1
 77
     6
 78
     2
 67
     8
425
  7895160
 79
     3
170
     0
171
     0
290
     0
174
     0
 93
        5
 44
0.0
173
     0
291
     0
 45
0.0
1001
ACAD
1000
AcDbSavedByObjectVersion
1070
     0
  0
VISUALSTYLE
  5
264A
102
{ACAD_XDICTIONARY
360
3345
102
}
102
{ACAD_REACTORS
330
250E
102
}
330
250E
100
AcDbVisualStyle
  2
Shaded with edges
 70
    26
 71
     2
 72
     2
 73
     1
 90
        2
 40
-0.6
 41
30.0
 62
     5
 63
     7
421
 16777215
 74
     1
 91
       10
 64
     7
 65
   257
 75
     2
175
     1
 42
1.0
 92
        8
 66
   257
 43
1.0
 76
     1
 77
     6
 78
     2
 67
     7
 79
     3
170
     0
171
     0
290
     0
174
     0
 93
        5
 44
0.0
173
     0
291
     0
 45
0.0
1001
ACAD
1000
AcDbSavedByObjectVersion
1070
     0
  0
VISUALSTYLE
  5
2647
102
{ACAD_XDICTIONARY
360
333F
102
}
102
{ACAD_REACTORS
330
250E
102
}
330
250E
100
AcDbVisualStyle
  2
Shades of Gray
 70
    23
 71
     2
 72
     2
 73
     3
 90
        0
 40
-0.6
 41
-30.0
 62
     5
 63
     7
421
 16777215
 74
     2
 91
        2
 64
     7
 65
     7
 75
     1
175
     1
 42
40.0
 92
        8
 66
     7
 43
1.0
 76
     1
 77
     6
 78
     2
 67
     7
 79
     3
170
     0
171
     0
290
     0
174
     0
 93
        1
 44
0.0
173
     0
291
     0
 45
0.0
1001
ACAD
1000
AcDbSavedByObjectVersion
1070
     0
  0
VISUALSTYLE
  5
2648
102
{ACAD_XDICTIONARY
360
3341
102
}
102
{ACAD_REACTORS
330
250E
102
}
330
250E
100
AcDbVisualStyle
  2
Sketchy
 70
    24
 71
     1
 72
     2
 73
     2
 90
        0
 40
-0.6
 41
-30.0
 62
     5
 63
     7
421
 16777215
 74
     2
 91
        2
 64
     7
 65
     7
 75
     1
175
     1
 42
40.0
 92
       11
 66
     7
 43
1.0
 76
     1
 77
     6
 78
     2
 67
     7
 79
     6
170
     0
171
     0
290
     0
174
     0
 93
        1
 44
0.0
173
     0
291
     0
 45
0.0
1001
ACAD
1000
AcDbSavedByObjectVersion
1070
     0
  0
VISUALSTYLE
  5
251B
102
{ACAD_XDICTIONARY
360
3332
102
}
102
{ACAD_REACTORS
330
250E
102
}
330
250E
100
AcDbVisualStyle
  2
Thicken
 70
    13
 71
     2
 72
     2
 73
     0
 90
        0
 40
-0.6
 41
-30.0
 62
     5
 63
     7
421
 16777215
 74
     1
 91
        4
 64
     7
 65
   257
 75
     1
175
     1
 42
1.0
 92
       12
 66
     7
 43
1.0
 76
     1
 77
     6
 78
     2
 67
     7
 79
     5
170
     0
171
     0
290
     0
174
     0
 93
        1
 44
0.0
173
     0
291
     1
 45
0.0
1001
ACAD
1000
AcDbSavedByObjectVersion
1070
     0
  0
VISUALSTYLE
  5
2645
102
{ACAD_XDICTIONARY
360
333B
102
}
102
{ACAD_REACTORS
330
250E
102
}
330
250E
100
AcDbVisualStyle
  2
Wireframe
 70
     5
 71
     0
 72
     2
 73
     0
 90
        0
 40
-0.6
 41
-30.0
 62
     5
 63
     7
421
 16777215
 74
     1
 91
        4
 64
     7
 65
   257
 75
     1
175
     1
 42
1.0
 92
        0
 66
   257
 43
1.0
 76
     1
 77
     6
 78
     2
 67
     7
 79
     3
170
     0
171
     0
290
     0
174
     0
 93
        1
 44
0.0
173
     0
291
     0
 45
0.0
1001
ACAD
1000
AcDbSavedByObjectVersion
1070
     0
  0
VISUALSTYLE
  5
2649
102
{ACAD_XDICTIONARY
360
3343
102
}
102
{ACAD_REACTORS
330
250E
102
}
330
250E
100
AcDbVisualStyle
  2
X-Ray
 70
    25
 71
     2
 72
     2
 73
     1
 90
        1
 40
0.5
 41
-30.0
 62
     5
 63
     7
421
 16777215
 74
     1
 91
        0
 64
     7
 65
   257
 75
     1
175
     1
 42
1.0
 92
        8
 66
     7
 43
1.0
 76
     1
 77
     6
 78
     2
 67
     7
 79
     3
170
     0
171
     0
290
     0
174
     0
 93
       13
 44
0.0
173
     0
291
     0
 45
0.0
1001
ACAD
1000
AcDbSavedByObjectVersion
1070
     0
  0
DICTIONARYVAR
  5
25AE
102
{ACAD_REACTORS
330
86
102
}
330
86
100
DictionaryVariables
280
     0
  1
1:1
  0
DICTIONARYVAR
  5
25AD
102
{ACAD_REACTORS
330
86
102
}
330
86
100
DictionaryVariables
280
     0
  1
STANDARD
  0
DICTIONARYVAR
  5
25AC
102
{ACAD_REACTORS
330
86
102
}
330
86
100
DictionaryVariables
280
     0
  1
STANDARD
  0
DICTIONARYVAR
  5
89
102
{ACAD_REACTORS
330
86
102
}
330
86
100
DictionaryVariables
280
     0
  1
2
  0
DICTIONARYVAR
  5
88
102
{ACAD_REACTORS
330
86
102
}
330
86
100
DictionaryVariables
280
     0
  1
1
  0
DICTIONARYVAR
  5
87
102
{ACAD_REACTORS
330
86
102
}
330
86
100
DictionaryVariables
280
     0
  1
1
  0
DICTIONARYVAR
  5
269C
102
{ACAD_REACTORS
330
86
102
}
330
86
100
DictionaryVariables
280
     0
  1
1
  0
DICTIONARYVAR
  5
269D
102
{ACAD_REACTORS
330
86
102
}
330
86
100
DictionaryVariables
280
     0
  1
15
  0
DICTIONARYVAR
  5
269B
102
{ACAD_REACTORS
330
86
102
}
330
86
100
DictionaryVariables
280
     0
  1
0
  0
DICTIONARYVAR
  5
269A
102
{ACAD_REACTORS
330
86
102
}
330
86
100
DictionaryVariables
280
     0
  1
0
  0
DICTIONARY
  5
4A
102
{ACAD_REACTORS
330
45
102
}
330
45
100
AcDbDictionary
281
     1
  0
XRECORD
  5
258D
102
{ACAD_REACTORS
330
45
102
}
330
45
100
AcDbXrecord
280
     1
 90
-1023410169
  0
XRECORD
  5
429
102
{ACAD_REACTORS
330
427
102
}
330
427
100
AcDbXrecord
280
     1
330
0
  0
DICTIONARY
  5
2698
330
22
100
AcDbDictionary
280
     1
281
     1
  3
ADSK_XREC_LAYOUTTHUMBNAIL
360
2699
  0
DICTIONARY
  5
24FF
330
24FE
100
AcDbDictionary
280
     1
281
     1
  3
ACAD_XREC_ROUNDTRIP
360
3318
  3
BUMPTILE
360
2501
  3
DIFFUSETILE
360
2500
  3
OPACITYTILE
360
2504
  3
REFLECTIONTILE
360
2503
  3
REFRACTIONTILE
360
2505
  3
SPECULARTILE
360
2502
  0
DICTIONARY
  5
24F7
330
24F6
100
AcDbDictionary
280
     1
281
     1
  3
ACAD_XREC_ROUNDTRIP
360
3317
  3
BUMPTILE
360
24F9
  3
DIFFUSETILE
360
24F8
  3
OPACITYTILE
360
24FC
  3
REFLECTIONTILE
360
24FB
  3
REFRACTIONTILE
360
24FD
  3
SPECULARTILE
360
24FA
  0
DICTIONARY
  5
2507
330
2506
100
AcDbDictionary
280
     1
281
     1
  3
ACAD_XREC_ROUNDTRIP
360
3319
  3
BUMPTILE
360
2509
  3
DIFFUSETILE
360
2508
  3
OPACITYTILE
360
250C
  3
REFLECTIONTILE
360
250B
  3
REFRACTIONTILE
360
250D
  3
SPECULARTILE
360
250A
  0
DICTIONARY
  5
25A3
330
2521
100
AcDbDictionary
280
     1
281
     1
  3
ACAD_ROUNDTRIP_2008_TABLESTYLE_CELLSTYLEMAP
360
3310
  3
ACAD_XREC_ROUNDTRIP
360
333A
  0
DICTIONARY
  5
3324
330
2514
100
AcDbDictionary
280
     1
281
     1
  3
ACAD_XREC_ROUNDTRIP
360
3325
  0
DICTIONARY
  5
3328
330
2516
100
AcDbDictionary
280
     1
281
     1
  3
ACAD_XREC_ROUNDTRIP
360
3329
  0
DICTIONARY
  5
3326
330
2515
100
AcDbDictionary
280
     1
281
     1
  3
ACAD_XREC_ROUNDTRIP
360
3327
  0
DICTIONARY
  5
3322
330
2513
100
AcDbDictionary
280
     1
281
     1
  3
ACAD_XREC_ROUNDTRIP
360
3323
  0
DICTIONARY
  5
3330
330
251A
100
AcDbDictionary
280
     1
281
     1
  3
ACAD_XREC_ROUNDTRIP
360
3331
  0
DICTIONARY
  5
3338
330
251E
100
AcDbDictionary
280
     1
281
     1
  3
ACAD_XREC_ROUNDTRIP
360
3339
  0
DICTIONARY
  5
332A
330
2517
100
AcDbDictionary
280
     1
281
     1
  3
ACAD_XREC_ROUNDTRIP
360
332B
  0
DICTIONARY
  5
332E
330
2519
100
AcDbDictionary
280
     1
281
     1
  3
ACAD_XREC_ROUNDTRIP
360
332F
  0
DICTIONARY
  5
334D
330
264E
100
AcDbDictionary
280
     1
281
     1
  3
ACAD_XREC_ROUNDTRIP
360
334E
  0
DICTIONARY
  5
3336
330
251D
100
AcDbDictionary
280
     1
281
     1
  3
ACAD_XREC_ROUNDTRIP
360
3337
  0
DICTIONARY
  5
331A
330
250F
100
AcDbDictionary
280
     1
281
     1
  3
ACAD_XREC_ROUNDTRIP
360
331B
  0
DICTIONARY
  5
331C
330
2510
100
AcDbDictionary
280
     1
281
     1
  3
ACAD_XREC_ROUNDTRIP
360
331D
  0
DICTIONARY
  5
331E
330
2511
100
AcDbDictionary
280
     1
281
     1
  3
ACAD_XREC_ROUNDTRIP
360
331F
  0
DICTIONARY
  5
3320
330
2512
100
AcDbDictionary
280
     1
281
     1
  3
ACAD_XREC_ROUNDTRIP
360
3321
  0
DICTIONARY
  5
333D
330
2646
100
AcDbDictionary
280
     1
281
     1
  3
ACAD_XREC_ROUNDTRIP
360
333E
  0
DICTIONARY
  5
3349
330
264C
100
AcDbDictionary
280
     1
281
     1
  3
ACAD_XREC_ROUNDTRIP
360
334A
  0
DICTIONARY
  5
3334
330
251C
100
AcDbDictionary
280
     1
281
     1
  3
ACAD_XREC_ROUNDTRIP
360
3335
  0
DICTIONARY
  5
334B
330
264D
100
AcDbDictionary
280
     1
281
     1
  3
ACAD_XREC_ROUNDTRIP
360
334C
  0
DICTIONARY
  5
332C
330
2518
100
AcDbDictionary
280
     1
281
     1
  3
ACAD_XREC_ROUNDTRIP
360
332D
  0
DICTIONARY
  5
3347
330
264B
100
AcDbDictionary
280
     1
281
     1
  3
ACAD_XREC_ROUNDTRIP
360
3348
  0
DICTIONARY
  5
3345
330
264A
100
AcDbDictionary
280
     1
281
     1
  3
ACAD_XREC_ROUNDTRIP
360
3346
  0
DICTIONARY
  5
333F
330
2647
100
AcDbDictionary
280
     1
281
     1
  3
ACAD_XREC_ROUNDTRIP
360
3340
  0
DICTIONARY
  5
3341
330
2648
100
AcDbDictionary
280
     1
281
     1
  3
ACAD_XREC_ROUNDTRIP
360
3342
  0
DICTIONARY
  5
3332
330
251B
100
AcDbDictionary
280
     1
281
     1
  3
ACAD_XREC_ROUNDTRIP
360
3333
  0
DICTIONARY
  5
333B
330
2645
100
AcDbDictionary
280
     1
281
     1
  3
ACAD_XREC_ROUNDTRIP
360
333C
  0
DICTIONARY
  5
3343
330
2649
100
AcDbDictionary
280
     1
281
     1
  3
ACAD_XREC_ROUNDTRIP
360
3344
  0
XRECORD
  5
2699
102
{ACAD_REACTORS
330
2698
102
}
330
2698
100
AcDbXrecord
280
     1
310
28000000000100007100000001000800000000000071000000000000000000000001000000000000FFFFFF0000000000FFFFFF000000000000000000000000000000000000000000000000000000000000000000330000006600000099000000CC000000FF00000000330000333300006633000099330000CC330000FF3300
310
0000660000336600006666000099660000CC660000FF66000000990000339900006699000099990000CC990000FF99000000CC000033CC000066CC000099CC0000CCCC0000FFCC000000FF000033FF000066FF000099FF0000CCFF0000FFFF000000003300330033006600330099003300CC003300FF003300003333003333
310
33006633330099333300CC333300FF33330000663300336633006666330099663300CC663300FF66330000993300339933006699330099993300CC993300FF99330000CC330033CC330066CC330099CC3300CCCC3300FFCC330000FF330033FF330066FF330099FF3300CCFF3300FFFF330000006600330066006600660099
310
006600CC006600FF00660000336600333366006633660099336600CC336600FF33660000666600336666006666660099666600CC666600FF66660000996600339966006699660099996600CC996600FF99660000CC660033CC660066CC660099CC6600CCCC6600FFCC660000FF660033FF660066FF660099FF6600CCFF6600
310
FFFF660000009900330099006600990099009900CC009900FF00990000339900333399006633990099339900CC339900FF33990000669900336699006666990099669900CC669900FF66990000999900339999006699990099999900CC999900FF99990000CC990033CC990066CC990099CC9900CCCC9900FFCC990000FF99
310
0033FF990066FF990099FF9900CCFF9900FFFF99000000CC003300CC006600CC009900CC00CC00CC00FF00CC000033CC003333CC006633CC009933CC00CC33CC00FF33CC000066CC003366CC006666CC009966CC00CC66CC00FF66CC000099CC003399CC006699CC009999CC00CC99CC00FF99CC0000CCCC0033CCCC0066CC
310
CC0099CCCC00CCCCCC00FFCCCC0000FFCC0033FFCC0066FFCC0099FFCC00CCFFCC00FFFFCC000000FF003300FF006600FF009900FF00CC00FF00FF00FF000033FF003333FF006633FF009933FF00CC33FF00FF33FF000066FF003366FF006666FF009966FF00CC66FF00FF66FF000099FF003399FF006699FF009999FF00CC
310
99FF00FF99FF0000CCFF0033CCFF0066CCFF0099CCFF00CCCCFF00FFCCFF0000FFFF0033FFFF0066FFFF0099FFFF00CCFFFF00FFFFFF00000000000D0D0D001A1A1A00282828003535350043434300505050005D5D5D006B6B6B00787878008686860093939300A1A1A100AEAEAE00BBBBBB00C9C9C900D6D6D600E4E4E400
310
F1F1F100FFFFFF000000000000000000000000000000000000000000000000000000000000000000000000000000000000000000000000000000000000000000000000000000000000000000000000000000000000000000000000000000000000000000000000000000000000000000000000000000000000000000000000
310
00000000000000000000000000000000000000000000000000000000000000000000000000000000000000000000000000000000000000000000000000000000000000000000000000000000000000000000000000000000000000000000000000000000000000000000000000000000000000000000000000000000000000
310
00000000000000000000000000000000000000000000000000000000000000000000000000000000000000000000000000000000000000000000000000000000000000000000000000000000000000000000000000000000000000000000000000000000000000000000000000000000000000000000000000000000000000
310
00000000000000000000000000000000000000000000000000000000000000000000000000000000000000000000000000000000000000000000000000000000000000000000000000000000000000000000000000000000000000000000000000000000000000000000000000000000000000000000000000000000000000
310
00000000000000000000000000000000000000000000000000000000000000000000000000000000000000000000000000000000000000000000000000000000000000000000000000000000000000000000000000000000000000000000000000000000000000000000000000000000000000000000000000000000000000
310
00000000000000000000000000000000000000000000000000000000000000000000000000000000000000000000000000000000000000000000000000000000000000000000000000000000000000000000000000000000000000000000000000000000000000000000000000000000000000000000000000000000000000
310
00000000000000000000000000000000000000000000000000000000000000000000000000000000000000000000000000000000000000000000000000000000000000000000000000000000000000000000000000000000000000000000000000000000000000000000000000000000000000000000000000000000000000
310
00000000000000000000000000000000000000000000000000000000000000000000000000000000000000000000000000000000000000000000000000000000000000000000000000000000000000000000000000000000000000000000000000000000000000000000000000000000000000000000000000000000000000
310
00000000000000000000000000000000000000000000000000000000000000000000000000000000000000000000000000000000000000000000000000000000000000000000000000000000000000000000000000000000000000000000000000000000000000000000000000000000000000000000000000000000000000
310
00000000000000000000000000000000000000000000000000000000000000000000000000000000000000000000000000000000000000000000000000000000000000000000000000000000000000000000000000000000000000000000000000000000000000000000000000000000000000000000000000000000000000
310
00000000000000000000000000000000000000000000000000000000000000000000000000000000000000000000000000000000000000000000000000000000000000000000000000000000000000000000000000000000000000000000000000000000000000000000000000000000000000000000000000000000000000
310
00000000000000000000000000000000000000000000000000000000000000000000000000000000000000000000000000000000000000000000000000000000000000000000000000000000000000000000000000000000000000000000000000000000000000000000000000000000000000000000000000000000000000
310
00000000000000000000000000000000000000000000000000000000000000000000000000000000000000000000000000000000000000000000000000000000000000000000000000000000000000000000000000000000000000000000000000000000000000000000000000000000000000000000000000000000000000
310
00000000000000000000000000000000000000000000000000000000000000000000000000000000000000000000000000000000000000000000000000000000000000000000000000000000000000000000000000000000000000000000000000000000000000000000000000000000000000000000000000000000000000
310
00000000000000000000000000000000000000000000000000000000000000000000000000000000000000000000000000000000000000000000000000000000000000000000000000000000000000000000000000000000000000000000000000000000000000000000000000000000000000000000000000000000000000
310
00000000000000000000000000000000000000000000000000000000000000000000000000000000000000000000000000000000000000000000000000000000000000000000000000000000000000000000000000000000000000000000000000000000000000000000000000000000000000000000000000000000000000
310
00000000000000000000000000000000000000000000000000000000000000000000000000000000000000000000000000000000000000000000000000000000000000000000000000000000000000000000000000000000000000000000000000000000000000000000000000000000000000000000000000000000000000
310
00000000000000000000000000000000000000000000000000000000000000000000000000000000000000000000000000000000000000000000000000000000000000000000000000000000000000000000000000000000000000000000000000000000000000000000000000000000000000000000000000000000000000
310
00000000000000000000000000000000000000000000000000000000000000000000000000000000000000000000000000000000000000000000000000000000000000000000000000000000000000000000000000000000000000000000000000000000000000000000000000000000000000000000000000000000000000
310
00000000000000000000000000000000000000000000000000000000000000000000000000000000000000000000000000000000000000000000000000000000000000000000000000000000000000000000000000000000000000000000000000000000000000000000000000000000000000000000000000000000000000
310
00000000000000000000000000000000000000000000000000000000000000000000000000000000000000000000000000000000000000000000000000000000000000000000000000000000000000000000000000000000000000000000000000000000000000000000000000000000000000000000000000000000000000
310
00000000000000000000000000000000000000000000000000000000000000000000000000000000000000000000000000000000000000000000000000000000000000000000000000000000000000000000000000000000000000000000000000000000000000000000000000000000000000000000000000000000000000
310
00000000000000000000000000000000000000000000000000000000000000000000000000000000000000000000000000000000000000000000000000000000000000000000000000000000000000000000000000000000000000000000000000000000000000000000000000000000000000000000000000000000000000
310
00000000000000000000000000000000000000000000000000000000000000000000000000000000000000000000000000000000000000000000000000000000000000000000000000000000000000000000000000000000000000000000000000000000000000000000000000000000000000000000000000000000000000
310
00000000000000000000000000000000000000000000000000000000000000000000000000000000000000000000000000000000000000000000000000000000000000000000000000000000000000000000000000000000000000000000000000000000000000000000000000000000000000000000000000000000000000
310
00000000000000000000000000000000000000000000000000000000000000000000000000000000000000000000000000000000000000000000000000000000000000000000000000000000000000000000000000000000000000000000000000000000000000000000000000000000000000000000000000000000000000
310
00000000000000000000000000000000000000000000000000000000000000000000000000000000000000000000000000000000000000000000000000000000000000000000000000000000000000000000000000000000000000000000000000000000000000000000000000000000000000000000000000000000000000
310
00000000000000000000000000000000000000000000000000000000000000000000000000000000000000000000000000000000000000000000000000000000000000000000000000000000000000000000000000000000000000000000000000000000000000000000000000000000000000000000000000000000000000
310
00000000000000000000000000000000000000000000000000000000000000000000000000000000000000000000000000000000000000000000000000000000000000000000000000000000000000000000000000000000000000000000000000000000000000000000000000000000000000000000000000000000000000
310
00000000000000000000000000000000000000000000000000000000000000000000000000000000000000000000000000000000000000000000000000000000000000000000000000000000000000000000000000000000000000000000000000000000000000000000000000000000000000000000000000000000000000
310
00000000000000000000000000000000000000000000000000000000000000000000000000000000000000000000000000000000000000000000000000000000000000000000000000000000000000000000000000000000000000000000000000000000000000000000000000000000000000000000000000000000000000
310
00000000000000000000000000000000000000000000000000000000000000000000000000000000000000000000000000000000000000000000000000000000000000000000000000000000000000000000000000000000000000000000000000000000000000000000000000000000000000000000000000000000000000
310
00000000000000000000000000000000000000000000000000000000000000000000000000000000000000000000000000000000000000000000000000000000000000000000000000000000000000000000000000000000000000000000000000000000000000000000000000000000000000000000000000000000000000
310
00000000000000000000000000000000000000000000000000000000000000000000000000000000000000000000000000000000000000000000000000000000000000000000000000000000000000000000000000000000000000000000000000000000000000000000000000000000000000000000000000000000000000
310
00000000000000000000000000000000000000000000000000000000000000000000000000000000000000000000000000000000000000000000000000000000000000000000000000000000000000000000000000000000000000000000000000000000000000000000000000000000000000000000000000000000000000
310
00000000000000000000000000000000000000000000000000000000000000000000000000000000000000000000000000000000000000000000000000000000000000000000000000000000000000000000000000000000000000000000000000000000000000000000000000000000000000000000000000000000000000
310
00000000000000000000000000000000000000000000000000000000000000000000000000000000000000000000000000000000000000000000000000000000000000000000000000000000000000000000000000000000000000000000000000000000000000000000000000000000000000000000000000000000000000
310
00000000000000000000000000000000000000000000000000000000000000000000000000000000000000000000000000000000000000000000000000000000000000000000000000000000000000000000000000000000000000000000000000000000000000000000000000000000000000000000000000000000000000
310
00000000000000000000000000000000000000000000000000000000000000000000000000000000000000000000000000000000000000000000000000000000000000000000000000000000000000000000000000000000000000000000000000000000000000000000000000000000000000000000000000000000000000
310
00000000000000000000000000000000000000000000000000000000000000000000000000000000000000000000000000000000000000000000000000000000000000000000000000000000000000000000000000000000000000000000000000000000000000000000000000000000000000000000000000000000000000
310
00000000000000000000000000000000000000000000000000000000000000000000000000000000000000000000000000000000000000000000000000000000000000000000000000000000000000000000000000000000000000000000000000000000000000000000000000000000000000000000000000000000000000
310
0000000000000000000000000000000000000000000000000000000000000000000000000000000000E2E2E2E2E2E2E2E2E2E2E2E2E2E2E2E2E2E2E2E2E2E2E2E2E2E2E2E2E2E2E2E2E2E2E2E2E2E2E2E2E2E2E2E2E2E2E2E2E2E2E2E2E2E2E2E2E2E2E2E2E2E2E2E2E2E2E2E2E2E2E2E2E2E2E2E2E2E2E2E2E2E2E2E2E2E2
310
E2E2E2E2E2E2E2E2E2E2E2E2E2E2E2E2E2E2E2E2E2E2E2E2E2E2E2E2E20000000000000000000000000000000000000000000000000000000000000000000000000000000000000000000000000000000000000000000000000000000000000000000000000000000000000000000000000000000000000000000000000000
310
00000000000000000000000000000000000000000000000000000000000000E2E2E2E2E2E2E2E2E2E2E2E200E2E2E2E2E2E2E2E2E2E2E2E2E2E2E2E2E2E2E2E2E2E2E2E2E2E2E2E2E2E2E2E2E2E2E2E2E2E2E2E2E2E2E2E2E2E2E2E2E2E2E2E2E2E2E2E2E2E2E2000000000000000000000000000000000000000000000000
310
000000000000000000000000000000000000000000000000000000000000E2000000000000000000000000000000000000000000000000000000000000000000000000000000000000000000000000000000000000000000000000000000000000000000000000000000000000000000000000000000000000000000000000
310
000000000000000000000000000000000000000000000000E2E2E2E2E2E2E2E2E2E2E2E2E2E2E2E2E2E2E2E2E2E20000000000000000000000000000000000000000000000000000000000000000000000000000000000000000000000000000000000000000000000E2E2E2E2E2E2E2E2E2E2E2E2E2000000000000000000
310
0000000000000000000000000000000000000000000000000000000000000000E200000000000000000000000000000000000000000000000000000000000000000000000000000000000000000000000000000000000000000000000000000000000000000000000000000000000000000000000000000000000000000000
310
00000000000000000000000000000000000000000000E2E2E2E200000000E2E2E2E2E200000000000000000000000000000000000000000000000000000000000000000000000000000000000000000000000000000000000000000000000000000000000000000000000000000000000000000000000000E2E2E2E2E2E2E2
310
E2000000000000000000000000000000000000000000000000000000000000000000E20000000000000000000000000000000000000000000000000000000000000000000000000000000000000000000000000000000000000000000000000000000000000000000000000000000000000000000000000000000000000000
310
00000000000000000000000000000000000000000000E2E20000E2E2E2E2E2E20000000000000000000000000000000000000000000000000000000000000000000000000000000000000000000000000000000000000000000000000000000000000000000000000000000000000000000000000000000000000000000000
310
000000E2E2E2000000000000000000000000000000000000000000000000000000000000E2000000000000000000000000000000000000000000000000000000000000000000000000000000000000000000000000000000000000000000000000000000000000000000000000000000000000000000000000000000000000
310
00000000000000000000000000000000000000000000E2E200E2E2E2000000000000000000000000000000000000000000000000000000000000000000000000000000000000000000000000000000000000000000000000000000000000000000000000000000000000000000000000000000000000000000000000000000
310
0000000000000000E2E2E2000000000000000000000000000000000000000000000000000000E200000000000000000000000000000000000000000000000000000000000000000000000000000000000000000000000000000000000000000000000000000000000000000000000000000000000000000000000000000000
310
00000000000000000000000000000000000000000000E2E2E2E2E200000000000000000000000000000000000000000000000000000000000000000000000000000000000000000000000000000000000000000000000000000000000000000000000000000000000000000000000000000000000000000000000000000000
310
00000000000000000000000000E2E2E2000000000000000000000000000000000000000000000000E20000000000000000000000000000000000000000000000000000000000000000000000000000000000000000000000000000000000000000000000000000000000000000000000000000000000000000000000000000
310
00000000000000000000000000000000000000000000E2E2E2E2000000000000000000000000000000000000000000000000E2E2E2E2E2E2E2E2E2E2E2E2E2E2E2E2E2E2E2E2E2E2E2E2E2E2E2E2E2E2E2E2E2E2E2E2E2E2E2E2E2E2E2E2E2E2E2E2E2E2E2E2E2E2E2E2E2E2E2E2E2E2E2E2E2E2E2E2E2E2E2000000000000
310
000000000000000000000000000000000000E2E200000000000000000000000000000000000000000000E2000000000000000000000000000000000000000000000000000000000000000000000000000000000000000000000000000000000000000000000000000000000000000000000000000000000000000000000000
310
000000000000000000000000000000000000000000E2E2E2E2E20000000000000000000000000000000000000000E2E2E2E2E2E20000000000000000000000000000000000000000000000000000000000000000000000000000000000000000000000000000000000000000000000000000000000000000000000E2E2E2E2
310
E2E20000000000000000000000000000000000000000E2E20000000000000000000000000000000000000000E200000000000000000000000000000000000000000000000000000000000000000000000000000000000000000000000000000000000000000000000000000000000000000000000000000000000000000000
310
000000000000000000000000000000000000000000E2E200E2E20000000000000000000000000000E2E2E2E2E2E2E2E200000000000000000000000000000000000000000000000000000000000000000000000000000000000000000000000000000000000000000000000000000000000000000000000000000000000000
310
00000000E2E2E2E2E2E2E2E20000000000000000000000000000E2E2000000000000000000000000000000000000E20000000000000000000000000000000000000000000000000000000000000000000000000000000000000000000000000000000000000000000000000000000000000000000000000000000000000000
310
000000000000000000000000000000000000000000E2E200E2E20000000000000000000000E2E2E2E2E200000000000000000000000000000000000000000000000000000000000000000000000000000000000000000000000000000000000000000000000000000000000000000000000000000000000000000000000000
310
00000000E2E2E2E200000000E2E2E2E2E2E2E20000000000000000000000E2E200000000000000000000000000000000E2000000000000000000000000000000000000000000000000000000000000000000000000000000000000000000000000000000000000000000000000000000000000000000000000000000000000
310
0000000000000000000000000000000000000000000000E200E200000000000000000000E2E2E200000000000000000000000000000000000000000000000000000000000000000000000000000000000000000000000000000000000000000000000000000000000000000000000000000000000000000000000000000000
310
00000000000000000000E2E20000000000E2E2E200E2E2E200000000000000000000E2E20000000000000000000000000000E200000000000000000000000000000000000000000000000000000000000000000000000000000000000000000000000000000000000000000000000000000000000000000000000000000000
310
000000000000000000000000000000000000000000000000E200E2000000000000000000E2E20000000000000000000000000000000000000000000000000000000000000000000000000000000000000000000000000000000000000000000000000000000000000000000000000000000000000000000000000000000000
310
0000000000000000000000000000E2E2E20000000000E2E20000E2E200000000000000000000E200000000000000000000000000E20000000000000000000000000000000000000000000000000000000000000000000000000000000000000000000000000000000000000000000000000000000000000000000000000000
310
000000000000000000000000000000000000000000000000E2E2E2E2000000000000000000E20000000000000000000000000000000000000000000000000000000000000000000000000000000000000000000000000000000000000000000000000000000000000000000000000000000000000000000000000000000000
310
00000000000000000000000000000000000000E2E20000000000E2E20000E200000000000000000000E2000000000000000000000000E2000000000000000000000000000000000000000000000000000000000000000000000000000000000000000000000000000000000000000000000000000000000000000000000000
310
0000000000000000000000000000000000000000000000000000E2E2000000000000000000E2E2000000000000000000000000000000000000000000000000000000000000C3C3C3C3C3C3C3C3C3C3C3C3C3C3C3C3C3C3C3C3C3C3C3C3C3C3C3C3C3C3C3C3C3C3C3C3C3C3C3C3C3C3C3C3C3C3C3C3C3C3C3C3C3C3C3C3C3C3
310
C3C3C3C3C3C3C3C3C3C3C3C3C3C3C3C3C3C3C3C3C3C3C3C3C3C3C3C3C3C3C3C3C3C3C3C3C3C3C3C3C3C3C3C3C3C3C3C3C3C3C3C3C3C3C3C3E200000000000000000000000000000000000000000000000000000000000000000000000000000000000000000000000000000000000000000000000000000000000000000000
310
000000000000000000000000000000000000000000000000000000E2E20000000000000000E2E200000000000000000000000000000000000000C3C3C3C3C3C3C3C3C3C3C3C3C30000000000000000000000000000000000000000000000000000000000000000000000000000000000000000000000000000000000000000
310
0000000000000000000000000000000000000000000000000000E2000000000000E2000000E2E20000000000000000E200000000000000000000E20000000000000000000000000000000000000000000000000000000000000000000000000000000000000000000000000000000000000000000000000000000000000000
310
000000000000000000000000000000000000000000000000000000E2E2E200000000000000E2E2000000000000000000000000000000C3C3C3C3C3C3C3000000000000000000000000000000C3C3C3C3C3C3C3C3C3C3C3C3C3C3C3C3C3C3C3C3C3C3C3C3C3C3C3C3C3C3C3C3C3C3C3C3C3C3C3C3C3C3C3C3C3C3C3C3C3C3C3
310
C3C3C3C3C3C3C3C3C3C3C3C3C3C3C3C3C3C3C3C3C3C3C3C3C3C3C3C3C3C3C3C3C3C3C3C3C3C3C3C3C3C3C3C3C3C3C3C3C3C3C3C3C3C3C3C3C3C3C3C3E2000000000000000000000000000000000000000000000000000000000000000000000000000000000000000000000000000000000000000000000000000000000000
310
0000000000000000000000000000000000000000000000000000000000E2E200000000000000E20000000000000000000000000000C3C3C30000000000000000C3C3C3C3C3C3C3C3C3C3C3C3C3C3C30000000000E2E2E2E2E2E2E2E2E2E2E2E2E2E2E2E2E2E2E2E2E2E2E2E2E2E2E2E2E2E2E2E2E2E2E2E2E2E2E200000000
310
0000000000000000000000000000000000000000000000000000000000000000E2000000000000E2E200000000E200000000000000E200000000000000C3E200000000000000000000000000000000000000000000000000000000000000000000000000000000000000000000000000000000000000000000000000000000
310
000000000000000000000000000000000000000000000000000000000000E200E2000000000000E20000000000000000000000C3C3C3C300000000C3C3C3C3C3C3C300000000000000000000E2E2E2E2E2E2E2E2E2E2000000000000000000000000000000000000000000000000000000000000000000000000000000E2E2
310
E2E2E2E2E2E2E2E2000000000000000000000000000000000000000000000000000000E200000000000000E200000000E2000000000000E200000000000000C3E20000000000000000000000000000000000000000000000000000000000000000000000000000000000000000000000000000000000000000000000000000
310
00000000000000000000000000000000000000000000000000000000000000E200E2000000000000E200000000000000000000C3C30000000000C3C3C300000000000000000000E2E2E2E2E2E2E200000000000000000000000000000000000000000000000000000000000000000000000000000000000000000000000000
310
00000000000000000000E2E2E2E2E2E2E2000000000000000000000000000000000000000000E200000000000000E200000000E2000000000000E2000000000000C3E2000000000000000000000000000000000000000000000000000000000000000000000000000000000000000000000000000000000000000000000000
310
000000000000000000000000000000000000000000000000000000000000000000E2E2000000000000E2000000000000000000C3C3000000C3C3C3C30000000000000000000000E2E2000000000000000000000000000000000000000000000000000000000000000000000000000000000000000000000000000000000000
310
00000000000000000000000000000000000000E2E20000000000000000000000000000000000000000E2000000000000E20000000000E2000000000000E20000000000C3E200000000000000000000000000000000000000000000000000000000000000000000000000000000000000000000000000000000000000000000
310
00000000000000000000000000000000000000000000000000000000000000000000E2E200000000000000E200000000000000C3C3C300C3C3C30000000000000000000000E2E2E2E2000000000000000000000000000000000000000000000000000000000000000000000000000000000000000000000000000000000000
310
0000000000000000000000000000000000000000000000E2E2E2E20000000000000000000000000000000000E2000000000000E20000000000E2000000000000E200000000C3E20000000000000000000000000000000000000000000000000000000000000000000000000000000000000000000000000000000000000000
310
000000000000000000000000000000000000000000000000000000000000000000000000E2E2000000000000E20000000000000000C30000C300000000000000000000000000E2000000000000C3C32DC300000000000000000000000000000000000000000000000000000000000000000000000000000000000000000000
310
000000000000000000000000000000C32DC30000000000000000000000E200000000000000000000000000000000E200000000000000E20000000000E20000000000E200000000C3E2000000000000000000000000000000000000000000000000000000000000000000000000000000000000000000000000000000000000
310
00000000000000000000000000000000000000000000000000000000000000000000000000E2E2000000000000E200000000000000C3C300C3C3C30000000000000000000000E2E2000000000000C300C32DC3C300000000000000000000000000000000000000000000000000000000000000000000000000000000000000
310
000000000000000000000000000000C3C3C32DC3C3C300000000000000000000E2E2000000000000000000000000000000E2000000000000E2000000000000E20000000000E2000000C3E200000000000000000000000000000000000000000000000000000000000000000000000000000000000000000000000000000000
310
000000000000000000000000000000000000000000000000000000000000000000000000000000E2E20000000000E200000000000000C3000000C300000000000000000000000000E200000000000000C3C3002D00C3C300000000000000000000000000000000000000000000000000000000000000000000000000000000
310
0000000000000000000000000000000000C3C3002DC3C3C3000000000000000000000000E2000000000000000000000000000000E2000000000000E20000000000E20000000000E2000000C3E20000000000000000000000000000000000000000000000000000000000000000000000000000000000000000000000000000
310
00000000000000000000000000000000000000000000000000000000000000000000000000000000E200E20000000000E2000000000000C30000C3C300000000000000000000000000E200000000000000C3C300002D00C3C30000000000000000000000000000000000000000000000000000000000000000000000000000
310
000000000000000000000000000000000000C3C300002D00C3C300000000000000000000000000E20000000000000000000000000000E2000000000000E2000000000000E20000000000E20000C3E2000000000000000000000000000000000000000000000000000000000000000000000000000000000000000000000000
310
0000000000000000000000000000000000000000000000000000000000000000000000000000000000E200E20000000000E2000000000000C3C300C300000000000000000000000000E2E200000000000000002D2D2D2D2D2D2D2D000000000000000000000000000000000000000000000000000000000000000000000000
310
00000000000000000000000000000000000000002D2D2D2D2D2D2D2D0000000000000000000000000000E20000000000000000000000000000E2000000000000E20000000000E20000000000E20000C3E200000000000000000000000000000000000000000000000000000000000000000000000000000000000000000000
310
00000000000000000000000000000000000000000000000000000000000000000000000000000000000000E200E20000000000E20000000000C3C30000C300000000000000000000000000E2000000000000000000C3C300002D00C3C300000000000000000000000000000000000000000000000000000000000000000000
310
00000000000000000000000000000000000000000000C3C300002D00C3C3000000000000000000000000000000E200000000000000000000000000E2000000000000E20000000000E2000000000000E200C3E20000000000000000000000000000000000000000000000000000000000000000000000000000000000000000
310
000000000000000000000000000000000000000000000000000000000000000000000000000000000000000000E200E200000000E2000000000000C30000C300000000000000000000000000E20000000000000000000000C3C3C32DC3C3C30000000000000000000000000000000000000000000000000000000000000000
310
00000000000000000000000000000000000000000000000000C3C3C32DC3C3C3000000000000000000000000000000E20000000000000000000000000000E20000000000E2000000000000E20000000000E200C3E2000000000000000000000000000000000000000000000000000000000000000000000000000000000000
310
0000000000000000000000000000000000000000000000000000000000000000000000000000000000000000000000E2E20000000000E20000000000C3C300C300000000000000000000000000E2000000000000000000000000C3C3C32DC3C300000000000000000000000000000000000000000000000000000000000000
310
000000000000000000000000000000000000000000000000000000C3C3C32DC3C30000000000000000000000000000000000E200000000000000000000000000E2000000000000E20000000000E20000000000E200C3E200000000000000000000000000000000000000000000000000000000000000000000000000000000
310
00000000000000000000000000000000000000000000000000000000000000000000000000000000000000000000000000E2E20000000000E20000000000C30000C300000000000000000000000000E20000000000000000000000000000002D00000000000000000000000000000000000000000000000000000000000000
310
00000000000000000000000000000000000000000000000000000000000000002D0000000000000000000000000000000000000000E2000000000000000000000000E2000000000000E2000000000000E200000000E200C3E20000000000000000000000000000000000000000000000000000000000000000000000000000
310
0000000000000000000000000000000000000000000000000000000000000000000000000000000000000000000000000000E200E200000000E2000000000000C300C300000000000000000000000000E200000000000000000000000000000000000000000000000000000000000000000000000000000000000000000000
310
00000000000000000000000000000000000000000000000000000000000000000000000000000000000000000000000000000000000000E200000000000000000000000000E20000000000E2000000000000E200000000E200C3E2000000000000000000000000000000000000000000000000000000000000000000000000
310
00000000000000000000000000000000000000000000000000000000000000000000000000000000000000000000000000000000E2E20000000000E2000000000000C300C300000000000000000000000000E20000000000000000000000000000000000000000000000000000000000000000000000000000000000000000
310
00000000000000000000000000000000000000000000000000000000000000000000000000000000000000000000000000000000000000000000E2000000000000000000000000E2000000000000E20000000000E20000000000E2C3E200000000000000000000000000000000000000000000000000000000000000000000
310
000000000000000000000000000000000000000000000000000000000000000000000000000000000000000000000000000000000000E2E20000000000E20000000000C30000C3000000000000000000000000E200000000000000000000000000000000000000000000000000000000000000000000000000000000000000
310
000000000000000000000000000000000000000000000000000000000000000000000000000000000000000000000000000000000000000000000000E2000000000000000000000000E2000000000000E20000000000E20000000000E2C3E20000000000000000000000000000000000000000000000000000000000000000
310
0000000000000000000000000000000000000000000000000000000000000000000000000000000000000000000000000000000000000000E2E20000000000E20000000000C30000C3000000000000000000000000E20000000000000000000000000000000000000000000000000000000000000000000000000000000000
310
00000000000000002D0000000000000000000000000000000000000000000000000000000000000000000000000000000000000000000000000000000000E2000000000000000000000000E2000000000000E20000000000E20000000000E2C3E2000000000000000000000000000000000000000000000000000000000000
310
00000000000000000000000000000000000000000000000000000000000000000000000000000000000000000000000000000000000000000000E2E20000000000E20000000000C300C3C3000000000000000000000000E2000000000000000000000000000000000000000000000000000000000000000000000000000000
310
000000000000000000002D0000000000000000000000000000000000000000000000000000000000000000000000000000000000000000000000000000000000E2000000000000000000000000E2000000000000E20000000000E20000000000E2C3E200000000000000000000000000000000000000000000000000000000
310
000000000000000000000000000000000000000000000000000000000000000000000000000000000000000000000000000000000000000000000000E2E20000000000E20000000000C300C300000000000000000000000000E200000000000000000000000000000000000000000000000000000000000000000000000000
310
00000000000000000000E2E22DE2E2000000000000000000000000000000000000000000000000000000000000000000000000000000000000000000000000000000E2000000000000000000000000E200000000000000E200000000E20000000000E2C3E20000000000000000000000000000000000000000000000000000
310
0000000000000000000000000000000000000000000000000000000000000000000000000000000000000000000000000000000000000000000000000000E2E20000000000E20000000000C300C300000000000000000000000000E20000000000000000000000000000000000000000000000000000000000000000000000
310
0000000000000000000000E200E22DE2E200000000000000000000000000000000000000000000000000000000000000000000000000000000000000000000000000000000E20000000000000000000000E200000000000000E200000000E20000000000E2C3E2000000000000000000000000000000000000000000000000
310
00000000000000000000000000000000000000000000000000000000000000000000000000000000000000000000000000000000000000000000000000000000E2E20000000000E20000000000C300C300000000000000000000000000E2000000000000000000000000000000000000000000000000000000000000000000
310
00000000000000000000000000E2E2002DE2E2E2000000000000000000000000000000000000000000000000000000000000000000000000000000000000000000000000000000E2000000000000000000000000E2000000000000E20000000000E200000000E2C3E200000000000000000000000000000000000000000000
310
000000000000000000000000000000000000000000000000000000000000000000000000000000000000000000000000000000000000000000000000000000000000E2E20000000000E20000000000C300C300000000000000000000000000E200000000000000000000000000000000000000000000000000000000000000
310
000000000000000000000000002D2D2D2D2D2D2D2D2D2D0000000000000000000000000000000000000000000000000000000000000000000000000000000000000000000000000000E2000000000000000000000000E2000000000000E20000000000E200000000E2C3E20000000000000000000000000000000000000000
310
0000000000000000000000000000000000000000000000000000000000000000000000000000000000000000000000000000000000000000000000000000000000000000E2E20000000000E20000000000C300C300000000000000000000000000E20000000000000000000000000000000000000000000000000000000000
310
0000000000000000000000000000000000E2E2002D00E2E2000000000000000000000000000000000000000000000000000000000000000000000000000000000000000000000000000000E2000000000000000000000000E2000000000000E20000000000E200000000E2C3E2000000000000000000000000000000000000
310
00000000000000000000000000000000000000000000000000000000000000000000000000000000000000000000000000000000000000000000000000000000000000000000E2E20000000000E20000000000C300C300000000000000000000000000E2000000000000000000000000000000000000000000000000000000
310
00000000000000000000000000000000000000E2E2E22DE2E200000000000000000000000000000000000000000000000000000000000000000000000000000000000000000000000000000000E2000000000000000000000000E2000000000000E200000000E20000000000E2C3E200000000000000000000000000000000
310
000000000000000000000000000000000000000000000000000000000000000000000000000000000000000000000000000000000000000000000000000000000000000000000000E2E20000000000E20000000000C300C300000000000000000000000000E200000000000000000000000000000000000000000000000000
310
00000000000000000000000000000000000000000000E2E22DE2E2000000000000000000000000000000000000000000000000000000000000000000000000000000000000000000000000000000E2000000000000000000000000E200000000000000E200000000E20000000000E2C3E20000000000000000000000000000
310
0000000000000000000000000000000000000000000000000000000000000000000000000000000000000000000000000000000000000000000000000000000000000000000000000000E2E20000000000E20000000000C300C300000000000000000000000000E20000000000000000000000000000000000000000000000
310
00000000000000000000000000000000000000000000000000002D0000000000000000000000000000000000000000000000000000000000000000000000000000000000000000000000000000000000E2000000000000000000000000E2000000000000E20000000000E20000000000E2C3E2000000000000000000000000
310
00000000000000000000000000000000000000000000000000000000000000000000000000000000000000000000000000000000000000000000000000000000000000000000000000000000E2E20000000000E20000000000C300C300000000000000000000000000E2000000000000000000000000000000000000000000
310
000000000000000000000000000000000000000000000000000000002D0000000000000000000000000000000000000000000000000000000000000000000000000000000000000000000000000000000000E2000000000000000000000000E2000000000000E20000000000E20000000000E2C3E200000000000000000000
310
000000000000000000000000000000000000000000000000000000000000000000000000000000000000000000000000000000000000000000000000000000000000000000000000000000000000E2E20000000000E20000000000C300C300000000000000000000000000E200000000000000000000000000000000000000
310
000000000000000000000000000000000000000000000000000000000000000000000000000000000000000000000000000000000000000000000000000000000000000000000000000000000000000000000000E2000000000000000000000000E2000000000000E20000000000E20000000000E2C3E20000000000000000
310
0000000000000000000000000000000000000000000000000000000000000000000000000000000000000000000000000000000000000000000000000000000000000000000000000000000000000000E2E20000000000E20000000000C300C30000000000000000000000000000E200000000000000000000000000000000
310
0000000000000000000000000000000000000000000000000000000000000000000000000000000000000000000000000000000000000000000000000000000000000000000000000000000000000000000000000000E2000000000000000000000000E2000000000000E20000000000E20000000000E2C3E2000000000000
310
00000000000000000000000000000000000000000000000000000000000000000000000000000000000000000000000000000000000000000000000000000000000000000000000000000000000000000000E200E200000000E20000000000C300C30000000000000000000000000000E20000000000000000000000000000
310
000000000000000000000000000000000000000000000000000000000000000000000000000000000000000000000000000000000000000000000000000000000000000000000000000000000000000000000000000000E200000000000000000000000000E20000000000E2000000000000E200000000E200C3E200000000
310
000000000000000000000000000000000000000000000000000000000000000000000000000000000000000000000000000000000000000000000000000000000000000000000000000000000000000000000000E200E200000000E20000000000C300C3000000000000000000000000000000E20000000000000000000000
310
0000000000000000000000000000000000000000000000000000000000000000000000000000000000000000000000000000000000000000000000000000000000000000000000000000000000000000000000000000000000E2000000000000000000000000E2000000000000E2000000000000E200000000E200C3E20000
310
0000000000000000000000000000000000000000000000000000000000000000000000000000000000000000000000000000000000000000000000000000000000000000000000000000000000000000000000000000E200E20000000000E200000000C300C3000000000000000000000000000000E2000000000000000000
310
000000C3C3C32DC3C30000000000000000000000000000000000000000000000000000000000000000000000000000000000000000000000000000000000000000000000C3C32DC3C30000000000000000000000000000000000E200000000000000000000000000E2000000000000E20000000000E20000000000E200C3E2
310
00000000000000000000000000000000000000000000000000000000000000000000000000000000000000000000000000000000000000000000000000000000000000000000000000000000000000000000000000000000E20000E200000000E200000000C300C300000000000000000000000000000000E2000000000000
310
0000000000C3C3C32DC3C3C3000000000000000000000000000000000000000000000000000000000000000000000000000000000000000000000000000000000000000000C3C3C32DC3C3C3000000000000000000000000000000E20000000000000000000000000000E20000000000E2000000000000E20000000000E200
310
C3E200000000000000000000000000000000000000000000000000000000000000000000000000000000000000000000000000000000000000000000000000000000000000000000000000000000000000000000000000000000E20000E20000000000E2000000C300C30000000000000000000000000000000000E2000000
310
000000000000C3C300002D00C3C30000000000000000000000000000000000000000000000000000000000000000000000000000000000000000000000000000000000000000C3C300002D00C3C3000000000000000000000000000000E200000000000000000000000000E2000000000000E2000000000000E20000000000
310
E200C3E200000000000000000000000000000000000000000000000000000000000000000000000000000000000000000000000000000000000000000000000000000000000000000000000000000000000000000000000000000000E20000E20000000000E2000000C300C30000000000000000000000000000000000E200
310
00000000000000002D2D2D2D2D2D2D2D00000000000000000000000000000000000000000000000000000000000000000000000000000000000000000000000000000000000000002D2D2D2D2D2D2D2D0000000000000000000000000000E20000000000000000000000000000E2000000000000E20000000000E200000000
310
00E20000C3E200000000000000000000000000000000000000000000000000000000000000000000000000000000000000000000000000000000000000000000000000000000000000000000000000000000000000000000000000000000E2000000E20000000000E20000C300C30000000000000000000000000000000000
310
00E20000000000000000C3C300002D00C3C30000000000000000000000000000000000000000000000000000000000000000000000000000000000000000000000000000000000000000C3C300002D00C3C30000000000000000000000000000E200000000000000000000000000E2000000000000E2000000000000E20000
310
000000E20000C3E200000000000000000000000000000000000000000000000000000000000000000000000000000000000000000000000000000000000000000000000000000000000000000000000000000000000000000000000000000000E2000000E20000000000E20000C300C3000000000000000000000000000000
310
00000000E200000000000000C300C3002D00C3C30000000000000000000000000000000000000000000000000000000000000000000000000000000000000000000000000000000000000000C300C3002D00C3C300000000000000000000000000E20000000000000000000000000000E2000000000000E20000000000E200
310
00000000E2000000C3E200000000000000000000000000000000000000000000000000000000000000000000000000000000000000000000000000000000000000000000000000000000000000000000000000000000000000000000000000000000E2000000E2000000000000E200C300C300000000000000000000000000
310
00000000000000E200000000000000C3C3C32DC3C3C3000000000000000000000000000000000000000000000000000000000000000000000000000000000000000000000000000000000000000000C3C3C32DC3C3C30000000000000000000000E2E20000000000000000000000000000E2000000000000E2000000000000
310
E20000000000E2000000C3E200000000000000000000000000000000000000000000000000000000000000000000000000000000000000000000000000000000000000000000000000000000000000000000000000000000000000000000000000000000E200000000E2000000000000E2C300C30000000000000000000000
310
00000000000000000000E2E2000000000000C3C32DC3C30000000000000000000000000000000000000000000000000000000000000000000000000000000000000000000000000000000000000000000000C3C32DC3C300000000000000000000E2E2000000000000000000000000000000E200000000000000E200000000
310
00E20000000000E200000000C3E200000000000000000000000000000000000000000000000000000000000000000000000000000000000000000000000000000000000000000000000000000000000000000000000000000000000000000000000000000000E200000000E200000000000000C300C3000000000000000000
310
0000000000000000000000000000E20000000000000000000000000000000000000000000000000000000000000000000000000000000000000000000000000000000000000000000000000000000000000000000000000000000000000000000000E20000000000000000000000000000000000E2000000000000E2000000
310
0000E2000000000000E200000000C3E200000000000000000000000000000000000000000000000000000000000000000000000000000000000000000000000000000000000000000000000000000000000000000000000000000000000000000000000000000000E20000000000E2000000000000C300C300000000000000
310
0000000000000000000000000000000000E2E2E2E2000000000000000000000000000000000000000000000000000000000000000000000000000000000000000000000000000000000000000000000000000000000000000000000000000000E2E2E2E20000000000000000000000000000000000E2000000000000E20000
310
000000E2000000000000E20000000000C3E200000000000000000000000000000000000000000000000000000000000000000000000000000000000000000000000000000000000000000000000000000000000000000000000000000000000000000000000000000000E20000000000E2000000000000C3E2C30000000000
310
0000000000000000000000000000000000000000000000E2E2E2E2E2E2E200000000000000000000000000000000000000000000000000000000000000000000000000000000000000000000000000000000000000000000000000E2E2E2E2E2E2E20000000000000000000000000000000000000000E200000000000000E2
310
00000000E200000000000000E20000000000C3E200000000000000000000000000000000000000000000000000000000000000000000000000000000000000000000000000000000000000000000000000000000000000000000000000000000000000000000000000000000E2000000000000E20000000000C300C3000000
310
0000000000000000000000000000000000000000000000000000000000000000E2E2E2E2E2E2E2E2E2E20000000000000000000000000000000000000000000000000000000000000000000000000000000000E2E2E2E2E2E2E2E2E2E2000000000000000000000000000000000000000000000000000000E2000000000000
310
E200000000E200000000000000E2000000000000C3E200000000000000000000000000000000000000000000000000000000000000000000000000000000000000000000000000000000000000000000000000000000000000000000000000000000000000000000000000000000E200000000000000E200000000C300C3E2
310
0000000000000000000000000000000000000000000000000000000000000000000000000000000000000000E2E2E2E2E2E2E2E2E2E2E2E2E2E2E2E2E2E2E2E2E2E2E2E2E2E2E2E2E2E2E2E2E2E2E2E2E2E2E2E2E2000000000000000000000000000000000000000000000000000000000000000000000000E20000000000
310
E2E200000000E200000000000000E200000000000000C3E200000000000000000000000000000000000000000000000000000000000000000000000000000000000000000000000000000000000000000000000000000000000000000000000000000000000000000000000000000000E20000000000000000E2000000C300
310
C300E200000000000000000000000000000000000000000000000000000000000000000000000000000000000000000000000000000000000000000000000000000000000000000000000000000000000000000000000000000000000000000000000000000000000000000000000000000000000000000000E2E200000000
310
00E20000000000E200000000000000E20000000000000000C3E200000000000000000000000000000000000000000000000000000000000000000000000000000000000000000000000000000000000000000000000000000000000000000000000000000000000000000000000000000000E2000000000000000000E20000
310
C300C30000E2E200000000000000000000000000000000000000000000000000000000000000000000000000000000000000000000000000000000000000000000000000000000000000000000000000000000000000000000000000000000000000000000000000000000000000000000000000000000000000E200000000
310
0000E200000000E2E200000000000000E2000000000000000000C3E200000000000000000000000000000000000000000000000000000000000000000000000000000000000000000000000000000000000000000000000000000000000000000000000000000000000000000000000000000000E200000000000000000000
310
E200C300C300000000E2E200000000000000000000000000000000000000000000000000000000000000000000000000000000000000000000000000000000000000000000000000000000000000000000000000000000000000000000000000000000000000000000000000000000000000000000000000000000E2000000
310
000000E2000000E2E20000000000000000E200000000000000000000C3E200000000000000000000000000000000000000000000000000000000000000000000000000000000000000000000000000000000000000000000000000000000000000000000000000000000000000000000000000000000E20000000000000000
310
000000E2C300C3000000000000E20000000000000000000000000000000000000000000000000000000000000000000000000000000000000000000000000000000000000000000000000000000000000000000000000000000000000000000000000000000000000000000000000000000000000000000000000000E20000
310
000000E2E2000000E2000000000000000000E20000000000000000000000C3E200000000000000000000000000000000000000000000000000000000000000000000000000000000000000000000000000000000000000000000000000000000000000000000000000000000000000000000000000000000E2000000000000
310
000000000000C3E2C300000000000000E2E2E2000000000000000000000000000000000000000000000000000000000000000000000000000000000000000000000000000000000000000000000000000000000000000000000000000000000000000000000000000000000000000000000000000000000000000000E2E200
310
000000E2E20000E2E2E2000000000000000000E2000000000000000000000000C3E200000000000000000000000000000000000000000000000000000000000000000000000000000000000000000000000000000000000000000000000000000000000000000000000000000000000000000000000000000000E200000000
310
0000000000000000C300C300000000000000000000E2E20000000000000000000000000000000000000000000000000000000000000000000000000000000000000000000000000000000000000000000000000000000000000000000000000000000000000000000000000000000000000000000000000000000000E2E200
310
0000E2E2E20000E2E200000000000000000000E2E200000000000000000000000000C3E200000000000000000000000000000000000000000000000000000000000000000000000000000000000000000000000000000000000000000000000000000000000000000000000000000000000000000000000000000000E20000
310
00000000000000000000C300C3E20000000000000000000000E2E2E200000000000000000000000000000000000000000000000000000000000000000000000000000000000000000000000000000000000000000000000000000000000000000000000000000000000000000000000000000000000000000000E2E2E2E200
310
00E2E2E2E2E2E2E2E20000000000000000000000E2000000000000000000000000000000C3E200000000000000000000000000000000000000000000000000000000000000000000000000000000000000000000000000000000000000000000000000000000000000000000000000000000000000000000000000000000E2
310
000000000000000000000000C300C300E2E2000000000000000000000000E2E2E2E2E2E20000000000000000000000000000000000000000000000000000000000000000000000000000000000000000000000000000000000000000000000000000000000000000000000000000000000000000000000000000E2E2000000
310
00E2E2E2E2000000000000000000000000000000E2E200000000000000000000000000000000C3E2000000000000000000000000000000000000000000000000000000000000000000000000000000000000000000000000000000000000000000000000000000000000000000000000000000000000000000000000000000
310
00E2000000000000000000000000C300C3000000E2E200000000000000000000000000000000E2E2E2E2E2E2E2E2E2E20000000000000000000000000000000000000000000000000000000000E2E2E2E2E2E20000000000000000000000000000000000000000000000000000000000000000000000000000E2E2E2E2E2E2
310
E2E2E2E200000000000000000000000000000000E2E2000000000000000000000000000000000000C3E200000000000000000000000000000000000000000000000000000000000000000000000000000000000000000000000000000000000000000000000000000000000000000000000000000000000000000000000000
310
000000E2000000000000000000000000C300C30000000000E2E2E20000000000000000000000000000000000000000000000E2E2E2E2E2E2E2E2E2E2E2E2E2E2E2E2E2E2E2E2E2E2E2E2E2E2E2E2E2E2E2E2E2E2E2E2E2E2E2E2E2E2E2E2E2E2E2E2E2E2E2E2E2E2E2E2E2E2E2E2E2E2E2E2E2E2E2E2E2E2E2E2E200000000
310
00000000000000000000000000000000000000E2E2E20000000000000000000000000000000000000000C3E20000000000000000000000000000000000000000000000000000000000000000000000000000000000000000000000000000000000000000000000000000000000000000000000000000000000000000000000
310
0000000000E2000000000000000000000000C300C30000000000000000E2E2E20000000000000000000000000000000000000000000000000000000000000000000000000000000000000000000000000000000000000000000000000000000000000000000000000000000000000000000000000000000000000000000000
310
000000000000000000000000000000000000E2E2E20000000000000000000000000000000000000000000000C3E2000000000000000000000000000000000000000000000000000000000000000000000000000000000000000000000000000000000000000000000000000000000000000000000000000000000000000000
310
00000000000000E2000000000000000000000000C300C30000000000000000000000E2E2E2000000000000000000000000000000000000000000000000000000000000000000000000000000000000000000000000000000000000000000000000000000000000000000000000000000000000000000000000000000000000
310
0000000000000000000000000000000000E2E2E20000000000000000000000000000000000000000000000000000C3E200000000000000000000000000000000000000000000000000000000000000000000000000000000000000000000000000000000000000000000000000000000000000000000000000000000000000
310
000000000000000000E2000000000000000000000000C300C30000000000000000000000000000E2E2E200000000000000000000000000000000000000000000000000000000000000000000000000000000000000000000000000000000000000000000000000000000000000000000000000000000000000000000000000
310
00000000000000000000000000000000E2E2E20000000000000000000000000000000000000000000000000000000000C3E20000000000000000000000000000000000000000000000000000000000000000000000000000000000000000000000000000000000000000000000000000000000000000000000000000000000
310
0000000000000000000000E2000000000000000000000000C300C30000000000000000000000000000000000E2E2E2E2E2E2E2E2000000000000000000000000000000000000000000000000000000000000000000000000000000000000000000000000000000000000000000000000000000000000000000000000000000
310
0000000000000000000000E2E2E2E2E2E2E20000000000000000000000000000000000000000000000000000000000000000C3E2000000000000000000000000000000000000000000000000000000000000000000000000000000000000000000000000000000000000000000000000000000000000000000000000000000
310
00000000000000000000000000E2000000000000000000000000C300C300000000000000000000000000000000000000000000000000E2E2E2E2E2E2E2E2E2E2E2E2E2000000000000000000000000000000000000000000000000000000000000000000000000000000000000000000000000000000000000000000000000
310
E2E2E2E2E2E2E2E2E2E2E2E2E2000000000000000000000000000000000000000000000000000000000000000000000000000000C3E200000000000000000000000000000000000000000000000000000000000000000000000000000000000000000000000000000000000000000000000000000000000000000000000000
310
000000000000000000000000000000E2000000000000000000000000C300C30000000000000000000000000000000000000000000000000000000000000000000000000000E2E2E2E2E2E2E2E2E2E2E2E2E2E2E2E2E2E2E2E2E2E2E2E2E2E2E2E2E2E2E2E2E2E2E2E2E2E2E2E2E2E2E2E2E2E2E2E2E2E2E2E2E2E2E2E2E2E2
310
E2E200000000000000000000000000000000000000000000000000000000000000000000000000000000000000000000000000000000C3E20000000000000000000000000000000000000000000000000000000000000000000000000000000000000000000000000000000000000000000000000000000000000000000000
310
0000000000000000000000000000000000E2E2E2E2E2E2E2E2E2E2E2E2E2E2E2E2E2E2E2E2E2E2E2E2E2E2E2E2E2E2E2E2E2E2E2E2E2E2E2E2E2E2E2E2E2E2E2E2E2E2E2E2E2E2E2E2E2E2E2E2E2E2E2E2E2E2E2E2E2E2E2E2E2E2E2E2E2E2E2E2E2E2E2E2E2E2E2E2E2E2E2E2E2E2E2E2E2E2E2E2E2E2E2E2E2E2E2E2E2E2
310
E2E2E2E2E2E2E2E2E2E2E2E2E2E2E2E2E2E2E2E2E2E2E2E2E2E2E2E2E2E2E2E2E2E2E2E2E2E2E2E2E2E2E2E2E2E2E2E2E2E2E2E2E2E2E2E2E2E2000000000000000000000000000000000000000000000000000000000000000000000000000000000000000000000000000000000000000000000000000000000000000000
310
00000000000000000000000000000000000000000000000000000000000000000000000000000000000000000000000000000000000000000000000000000000000000000000000000000000000000000000000000000000000000000000000000000000000000000000000000000000000000000000000000000000000000
310
00000000000000000000000000000000000000000000000000000000000000000000000000000000000000000000000000000000000000000000000000000000000000000000000000000000000000000000000000000000000000000000000000000000000000000000000000000000000000000000000000000000000000
310
00000000000000000000000000000000000000000000000000000000000000000000000000000000000000000000000000000000000000000000000000000000000000000000000000000000000000000000000000000000000000000000000000000000000000000000000000000000000000000000000000000000000000
310
00000000000000000000000000000000000000000000000000000000000000000000000000000000000000000000000000000000000000000000000000000000000000000000000000000000000000000000000000000000000000000000000000000000000000000000000000000000000000000000000000000000000000
310
00000000000000000000000000000000000000000000000000000000000000000000000000000000000000000000000000000000000000000000000000000000000000000000000000000000000000000000000000000000000000000000000000000000000000000000000000000000000000000000000000000000000000
310
00000000000000000000000000000000000000000000000000000000000000000000000000000000000000000000000000000000000000000000000000000000000000000000000000000000000000000000000000000000000000000000000000000000000000000000000000000000000000000000000000000000000000
310
00000000000000000000000000000000000000000000000000000000000000000000000000000000000000000000000000000000000000000000000000000000000000000000000000000000000000000000000000000000000000000000000000000000000000000000000000000000000000000000000000000000000000
310
00000000000000000000000000000000000000000000000000000000000000000000000000000000000000000000000000000000000000000000000000000000000000000000000000000000000000000000000000000000000000000000000000000000000000000000000000000000000000000000000000000000000000
310
00000000000000000000000000000000000000000000000000000000000000000000000000000000000000000000000000000000000000000000000000000000000000000000000000000000000000000000000000000000000000000000000000000000000000000000000000000000000000000000000000000000000000
310
00000000000000000000000000000000000000000000000000000000000000000000000000000000000000000000000000000000000000000000000000000000000000000000000000000000000000000000000000000000000000000000000000000000000000000000000000000000000000000000000000000000000000
310
00000000000000000000000000000000000000000000000000000000000000000000000000000000000000000000000000000000000000000000000000000000000000000000000000000000000000000000000000000000000000000000000000000000000000000000000000000000000000000000000000000000000000
310
00000000000000000000000000000000000000000000000000000000000000000000000000000000000000000000000000000000000000000000000000000000000000000000000000000000000000000000000000000000000000000000000000000000000000000000000000000000000000000000000000000000000000
310
00000000000000000000000000000000000000000000000000000000000000000000000000000000000000000000000000000000000000000000000000000000000000000000000000000000000000000000000000000000000000000000000000000000000000000000000000000000000000000000000000000000000000
310
00000000000000000000000000000000000000000000000000000000000000000000000000000000000000000000000000000000000000000000000000000000000000000000000000000000000000000000000000000000000000000000000000000000000000000000000000000000000000000000000000000000000000
310
00000000000000000000000000000000000000000000000000000000000000000000000000000000000000000000000000000000000000000000000000000000000000000000000000000000000000000000000000000000000000000000000000000000000000000000000000000000000000000000000000000000000000
310
00000000000000000000000000000000000000000000000000000000000000000000000000000000000000000000000000000000000000000000000000000000000000000000000000000000000000000000000000000000000000000000000000000000000000000000000000000000000000000000000000000000000000
310
00000000000000000000000000000000000000000000000000000000000000000000000000000000000000000000000000000000000000000000000000000000000000000000000000000000000000000000000000000000000000000000000000000000000000000000000000000000000000000000000000000000000000
310
00000000000000000000000000000000000000000000000000000000000000000000000000000000000000000000000000000000000000000000000000000000000000000000000000000000000000000000000000000000000000000000000000000000000000000000000000000000000000000000000000000000000000
310
00000000000000000000000000000000000000000000000000000000000000000000000000000000000000000000000000000000000000000000000000000000000000000000000000000000000000000000000000000000000000000000000000000000000000000000000000000000000000000000000000000000000000
310
00000000000000000000000000000000000000000000000000000000000000000000000000000000000000000000000000000000000000000000000000000000000000000000000000000000000000000000000000000000000000000000000000000000000000000000000000000000000000000000000000000000000000
310
00000000000000000000000000000000000000000000000000000000000000000000000000000000000000000000000000000000000000000000000000000000000000000000000000000000000000000000000000000000000000000000000000000000000000000000000000000000000000000000000000000000000000
310
00000000000000000000000000000000000000000000000000000000000000000000000000000000000000000000000000000000000000000000000000000000000000000000000000000000000000000000000000000000000000000000000000000000000000000000000000000000000000000000000000000000000000
310
00000000000000000000000000000000000000000000000000000000000000000000000000000000000000000000000000000000000000000000000000000000000000000000000000000000000000000000000000000000000000000000000000000000000000000000000000000000000000000000000000000000000000
310
00000000000000000000000000000000000000000000000000000000000000000000000000000000000000000000000000000000000000000000000000000000000000000000000000000000000000000000000000000000000000000000000000000000000000000000000000000000000000000000000000000000000000
310
00000000000000000000000000000000000000000000000000000000000000000000000000000000000000000000000000000000000000000000000000000000000000000000000000000000000000000000000000000000000000000000000000000000000000000000000000000000000000000000000000000000000000
310
00000000000000000000000000000000000000000000000000000000000000000000000000000000000000000000000000000000000000000000000000000000000000000000000000000000000000000000000000000000000000000000000000000000000000000000000000000000000000000000000000000000000000
310
00000000000000000000000000000000000000000000000000000000000000000000000000000000000000000000000000000000000000000000000000000000000000000000000000000000000000000000000000000000000000000000000000000000000000000000000000000000000000000000000000000000000000
310
00000000000000000000000000000000000000000000000000000000000000000000000000000000000000000000000000000000000000000000000000000000000000000000000000000000000000000000000000000000000000000000000000000000000000000000000000000000000000000000000000000000000000
310
0000000000000000000000000000000000000000
  0
XRECORD
  5
3318
102
{ACAD_REACTORS
330
24FF
102
}
330
24FF
100
AcDbXrecord
280
     1
102
MATERIAL
148
0.0
149
0.0
149
0.0
 93
        0
 94
      127
282
     0
 72
     0
 77
     0
171
     0
175
     0
179
     0
273
     0
  0
XRECORD
  5
2501
102
{ACAD_REACTORS
330
24FF
102
}
330
24FF
100
AcDbXrecord
280
     1
270
     1
271
     1
  0
XRECORD
  5
2500
102
{ACAD_REACTORS
330
24FF
102
}
330
24FF
100
AcDbXrecord
280
     1
270
     1
271
     1
  0
XRECORD
  5
2504
102
{ACAD_REACTORS
330
24FF
102
}
330
24FF
100
AcDbXrecord
280
     1
270
     1
271
     1
  0
XRECORD
  5
2503
102
{ACAD_REACTORS
330
24FF
102
}
330
24FF
100
AcDbXrecord
280
     1
270
     1
271
     1
  0
XRECORD
  5
2505
102
{ACAD_REACTORS
330
24FF
102
}
330
24FF
100
AcDbXrecord
280
     1
270
     1
271
     1
  0
XRECORD
  5
2502
102
{ACAD_REACTORS
330
24FF
102
}
330
24FF
100
AcDbXrecord
280
     1
270
     1
271
     1
  0
XRECORD
  5
3317
102
{ACAD_REACTORS
330
24F7
102
}
330
24F7
100
AcDbXrecord
280
     1
102
MATERIAL
148
0.0
149
0.0
149
0.0
 93
        0
 94
      127
282
     0
 72
     0
 77
     0
171
     0
175
     0
179
     0
273
     0
  0
XRECORD
  5
24F9
102
{ACAD_REACTORS
330
24F7
102
}
330
24F7
100
AcDbXrecord
280
     1
270
     1
271
     1
  0
XRECORD
  5
24F8
102
{ACAD_REACTORS
330
24F7
102
}
330
24F7
100
AcDbXrecord
280
     1
270
     1
271
     1
  0
XRECORD
  5
24FC
102
{ACAD_REACTORS
330
24F7
102
}
330
24F7
100
AcDbXrecord
280
     1
270
     1
271
     1
  0
XRECORD
  5
24FB
102
{ACAD_REACTORS
330
24F7
102
}
330
24F7
100
AcDbXrecord
280
     1
270
     1
271
     1
  0
XRECORD
  5
24FD
102
{ACAD_REACTORS
330
24F7
102
}
330
24F7
100
AcDbXrecord
280
     1
270
     1
271
     1
  0
XRECORD
  5
24FA
102
{ACAD_REACTORS
330
24F7
102
}
330
24F7
100
AcDbXrecord
280
     1
270
     1
271
     1
  0
XRECORD
  5
3319
102
{ACAD_REACTORS
330
2507
102
}
330
2507
100
AcDbXrecord
280
     1
102
MATERIAL
148
0.0
149
0.0
149
0.0
 93
        0
 94
      127
282
     0
 72
     0
 77
     0
171
     0
175
     0
179
     0
273
     0
  0
XRECORD
  5
2509
102
{ACAD_REACTORS
330
2507
102
}
330
2507
100
AcDbXrecord
280
     1
270
     1
271
     1
  0
XRECORD
  5
2508
102
{ACAD_REACTORS
330
2507
102
}
330
2507
100
AcDbXrecord
280
     1
270
     1
271
     1
  0
XRECORD
  5
250C
102
{ACAD_REACTORS
330
2507
102
}
330
2507
100
AcDbXrecord
280
     1
270
     1
271
     1
  0
XRECORD
  5
250B
102
{ACAD_REACTORS
330
2507
102
}
330
2507
100
AcDbXrecord
280
     1
270
     1
271
     1
  0
XRECORD
  5
250D
102
{ACAD_REACTORS
330
2507
102
}
330
2507
100
AcDbXrecord
280
     1
270
     1
271
     1
  0
XRECORD
  5
250A
102
{ACAD_REACTORS
330
2507
102
}
330
2507
100
AcDbXrecord
280
     1
270
     1
271
     1
  0
CELLSTYLEMAP
  5
3310
102
{ACAD_REACTORS
330
25A3
102
}
330
25A3
100
AcDbCellStyleMap
 90
        3
300
CELLSTYLE
  1
TABLEFORMAT_BEGIN
 90
        5
170
     1
 91
        0
 92
    32768
 62
   257
 93
        1
300
CONTENTFORMAT
  1
CONTENTFORMAT_BEGIN
 90
        0
 91
        0
 92
      512
 93
        0
300

 40
0.0
140
1.0
 94
        5
 62
     0
340
11
144
6.0
309
CONTENTFORMAT_END
171
     1
301
MARGIN
  1
CELLMARGIN_BEGIN
 40
1.5
 40
1.5
 40
1.5
 40
1.5
 40
4.5
 40
4.5
309
CELLMARGIN_END
 94
        6
 95
        1
302
GRIDFORMAT
  1
GRIDFORMAT_BEGIN
 90
        0
 91
        1
 62
     0
 92
       -2
340
0
 93
        0
 40
1.125
309
GRIDFORMAT_END
 95
        2
302
GRIDFORMAT
  1
GRIDFORMAT_BEGIN
 90
        0
 91
        1
 62
     0
 92
       -2
340
0
 93
        0
 40
1.125
309
GRIDFORMAT_END
 95
        4
302
GRIDFORMAT
  1
GRIDFORMAT_BEGIN
 90
        0
 91
        1
 62
     0
 92
       -2
340
0
 93
        0
 40
1.125
309
GRIDFORMAT_END
 95
        8
302
GRIDFORMAT
  1
GRIDFORMAT_BEGIN
 90
        0
 91
        1
 62
     0
 92
       -2
340
0
 93
        0
 40
1.125
309
GRIDFORMAT_END
 95
       16
302
GRIDFORMAT
  1
GRIDFORMAT_BEGIN
 90
        0
 91
        1
 62
     0
 92
       -2
340
0
 93
        0
 40
1.125
309
GRIDFORMAT_END
 95
       32
302
GRIDFORMAT
  1
GRIDFORMAT_BEGIN
 90
        0
 91
        1
 62
     0
 92
       -2
340
0
 93
        0
 40
1.125
309
GRIDFORMAT_END
309
TABLEFORMAT_END
  1
CELLSTYLE_BEGIN
 90
        1
 91
        1
300
_TITLE
309
CELLSTYLE_END
300
CELLSTYLE
  1
TABLEFORMAT_BEGIN
 90
        5
170
     1
 91
        0
 92
        0
 62
   257
 93
        1
300
CONTENTFORMAT
  1
CONTENTFORMAT_BEGIN
 90
        0
 91
        0
 92
      512
 93
        0
300

 40
0.0
140
1.0
 94
        5
 62
     0
340
11
144
4.5
309
CONTENTFORMAT_END
171
     1
301
MARGIN
  1
CELLMARGIN_BEGIN
 40
1.5
 40
1.5
 40
1.5
 40
1.5
 40
4.5
 40
4.5
309
CELLMARGIN_END
 94
        6
 95
        1
302
GRIDFORMAT
  1
GRIDFORMAT_BEGIN
 90
        0
 91
        1
 62
     0
 92
       -2
340
0
 93
        0
 40
1.125
309
GRIDFORMAT_END
 95
        2
302
GRIDFORMAT
  1
GRIDFORMAT_BEGIN
 90
        0
 91
        1
 62
     0
 92
       -2
340
0
 93
        0
 40
1.125
309
GRIDFORMAT_END
 95
        4
302
GRIDFORMAT
  1
GRIDFORMAT_BEGIN
 90
        0
 91
        1
 62
     0
 92
       -2
340
0
 93
        0
 40
1.125
309
GRIDFORMAT_END
 95
        8
302
GRIDFORMAT
  1
GRIDFORMAT_BEGIN
 90
        0
 91
        1
 62
     0
 92
       -2
340
0
 93
        0
 40
1.125
309
GRIDFORMAT_END
 95
       16
302
GRIDFORMAT
  1
GRIDFORMAT_BEGIN
 90
        0
 91
        1
 62
     0
 92
       -2
340
0
 93
        0
 40
1.125
309
GRIDFORMAT_END
 95
       32
302
GRIDFORMAT
  1
GRIDFORMAT_BEGIN
 90
        0
 91
        1
 62
     0
 92
       -2
340
0
 93
        0
 40
1.125
309
GRIDFORMAT_END
309
TABLEFORMAT_END
  1
CELLSTYLE_BEGIN
 90
        2
 91
        1
300
_HEADER
309
CELLSTYLE_END
300
CELLSTYLE
  1
TABLEFORMAT_BEGIN
 90
        5
170
     1
 91
        0
 92
        0
 62
   257
 93
        1
300
CONTENTFORMAT
  1
CONTENTFORMAT_BEGIN
 90
        0
 91
        0
 92
      512
 93
        0
300

 40
0.0
140
1.0
 94
        2
 62
     0
340
11
144
4.5
309
CONTENTFORMAT_END
171
     1
301
MARGIN
  1
CELLMARGIN_BEGIN
 40
1.5
 40
1.5
 40
1.5
 40
1.5
 40
4.5
 40
4.5
309
CELLMARGIN_END
 94
        6
 95
        1
302
GRIDFORMAT
  1
GRIDFORMAT_BEGIN
 90
        0
 91
        1
 62
     0
 92
       -2
340
0
 93
        0
 40
1.125
309
GRIDFORMAT_END
 95
        2
302
GRIDFORMAT
  1
GRIDFORMAT_BEGIN
 90
        0
 91
        1
 62
     0
 92
       -2
340
0
 93
        0
 40
1.125
309
GRIDFORMAT_END
 95
        4
302
GRIDFORMAT
  1
GRIDFORMAT_BEGIN
 90
        0
 91
        1
 62
     0
 92
       -2
340
0
 93
        0
 40
1.125
309
GRIDFORMAT_END
 95
        8
302
GRIDFORMAT
  1
GRIDFORMAT_BEGIN
 90
        0
 91
        1
 62
     0
 92
       -2
340
0
 93
        0
 40
1.125
309
GRIDFORMAT_END
 95
       16
302
GRIDFORMAT
  1
GRIDFORMAT_BEGIN
 90
        0
 91
        1
 62
     0
 92
       -2
340
0
 93
        0
 40
1.125
309
GRIDFORMAT_END
 95
       32
302
GRIDFORMAT
  1
GRIDFORMAT_BEGIN
 90
        0
 91
        1
 62
     0
 92
       -2
340
0
 93
        0
 40
1.125
309
GRIDFORMAT_END
309
TABLEFORMAT_END
  1
CELLSTYLE_BEGIN
 90
        3
 91
        2
300
_DATA
309
CELLSTYLE_END
  0
XRECORD
  5
333A
102
{ACAD_REACTORS
330
25A3
102
}
330
25A3
100
AcDbXrecord
280
     1
102
ACAD_ROUNDTRIP_PRE2007_TABLESTYLE
 90
      512
 91
        0
  1

 92
      512
 93
        0
  2

 94
      512
 95
        0
  3

  0
XRECORD
  5
3325
102
{ACAD_REACTORS
330
3324
102
}
330
3324
100
AcDbXrecord
280
     1
102
RTVSPropertyOp0
 70
     1
102
RTVSPropertyOp1
 70
     1
102
RTVSPropertyOp2
 70
     1
102
RTVSPropertyOp3
 70
     1
102
RTVSPropertyOp4
 70
     1
102
RTVSPropertyOp5
 70
     1
102
RTVSPropertyOp6
 70
     1
102
RTVSPropertyOp7
 70
     1
102
RTVSPropertyOp8
 70
     1
102
RTVSPropertyOp9
 70
     1
102
RTVSPropertyOp10
 70
     1
102
RTVSPropertyOp11
 70
     1
102
RTVSPropertyOp12
 70
     1
102
RTVSPropertyOp13
 70
     1
102
RTVSPropertyOp14
 70
     1
102
RTVSPropertyOp15
 70
     1
102
RTVSPropertyOp16
 70
     1
102
RTVSPropertyOp17
 70
     1
102
RTVSPropertyOp18
 70
     1
102
RTVSPropertyOp19
 70
     1
102
RTVSPropertyOp20
 70
     1
102
RTVSPropertyOp21
 70
     1
102
RTVSPropertyOp22
 70
     1
102
RTVSPropertyOp23
 70
     1
102
RTVSPropertyOp24
 70
     1
102
RTVSPropertyOp25
 70
     1
102
RTVSPropertyOp26
 70
     1
102
RTVSPropertyOp27
 70
     1
102
RTVSPropertyOp28
 70
     1
102
RTVSPropertyOp29
 70
     1
102
RTVSPropertyOp30
 70
     1
102
RTVSPropertyOp31
 70
     1
102
RTVSPropertyOp32
 70
     1
  0
XRECORD
  5
3329
102
{ACAD_REACTORS
330
3328
102
}
330
3328
100
AcDbXrecord
280
     1
102
RTVSPropertyOp0
 70
     1
102
RTVSPropertyOp1
 70
     1
102
RTVSPropertyOp2
 70
     1
102
RTVSPropertyOp3
 70
     1
102
RTVSPropertyOp4
 70
     1
102
RTVSPropertyOp5
 70
     1
102
RTVSPropertyOp6
 70
     1
102
RTVSPropertyOp7
 70
     1
102
RTVSPropertyOp8
 70
     1
102
RTVSPropertyOp9
 70
     1
102
RTVSPropertyOp10
 70
     1
102
RTVSPropertyOp11
 70
     1
102
RTVSPropertyOp12
 70
     1
102
RTVSPropertyOp13
 70
     1
102
RTVSPropertyOp14
 70
     1
102
RTVSPropertyOp15
 70
     1
102
RTVSPropertyOp16
 70
     1
102
RTVSPropertyOp17
 70
     1
102
RTVSPropertyOp18
 70
     1
102
RTVSPropertyOp19
 70
     1
102
RTVSPropertyOp20
 70
     1
102
RTVSPropertyOp21
 70
     1
102
RTVSPropertyOp22
 70
     1
102
RTVSPropertyOp23
 70
     1
102
RTVSPropertyOp24
 70
     1
102
RTVSPropertyOp25
 70
     1
102
RTVSPropertyOp26
 70
     1
102
RTVSPropertyOp27
 70
     1
102
RTVSPropertyOp28
 70
     1
102
RTVSPropertyOp29
 70
     1
102
RTVSPropertyOp30
 70
     1
102
RTVSPropertyOp31
 70
     1
102
RTVSPropertyOp32
 70
     1
  0
XRECORD
  5
3327
102
{ACAD_REACTORS
330
3326
102
}
330
3326
100
AcDbXrecord
280
     1
102
RTVSPropertyOp0
 70
     1
102
RTVSPropertyOp1
 70
     1
102
RTVSPropertyOp2
 70
     1
102
RTVSPropertyOp3
 70
     1
102
RTVSPropertyOp4
 70
     1
102
RTVSPropertyOp5
 70
     1
102
RTVSPropertyOp6
 70
     1
102
RTVSPropertyOp7
 70
     1
102
RTVSPropertyOp8
 70
     1
102
RTVSPropertyOp9
 70
     1
102
RTVSPropertyOp10
 70
     1
102
RTVSPropertyOp11
 70
     1
102
RTVSPropertyOp12
 70
     1
102
RTVSPropertyOp13
 70
     1
102
RTVSPropertyOp14
 70
     1
102
RTVSPropertyOp15
 70
     1
102
RTVSPropertyOp16
 70
     1
102
RTVSPropertyOp17
 70
     1
102
RTVSPropertyOp18
 70
     1
102
RTVSPropertyOp19
 70
     1
102
RTVSPropertyOp20
 70
     1
102
RTVSPropertyOp21
 70
     1
102
RTVSPropertyOp22
 70
     1
102
RTVSPropertyOp23
 70
     1
102
RTVSPropertyOp24
 70
     1
102
RTVSPropertyOp25
 70
     1
102
RTVSPropertyOp26
 70
     1
102
RTVSPropertyOp27
 70
     1
102
RTVSPropertyOp28
 70
     1
102
RTVSPropertyOp29
 70
     1
102
RTVSPropertyOp30
 70
     1
102
RTVSPropertyOp31
 70
     1
102
RTVSPropertyOp32
 70
     1
  0
XRECORD
  5
3323
102
{ACAD_REACTORS
330
3322
102
}
330
3322
100
AcDbXrecord
280
     1
102
RTVSPropertyOp0
 70
     1
102
RTVSPropertyOp1
 70
     1
102
RTVSPropertyOp2
 70
     1
102
RTVSPropertyOp3
 70
     1
102
RTVSPropertyOp4
 70
     1
102
RTVSPropertyOp5
 70
     1
102
RTVSPropertyOp6
 70
     1
102
RTVSPropertyOp7
 70
     1
102
RTVSPropertyOp8
 70
     1
102
RTVSPropertyOp9
 70
     1
102
RTVSPropertyOp10
 70
     1
102
RTVSPropertyOp11
 70
     1
102
RTVSPropertyOp12
 70
     1
102
RTVSPropertyOp13
 70
     1
102
RTVSPropertyOp14
 70
     1
102
RTVSPropertyOp15
 70
     1
102
RTVSPropertyOp16
 70
     1
102
RTVSPropertyOp17
 70
     1
102
RTVSPropertyOp18
 70
     1
102
RTVSPropertyOp19
 70
     1
102
RTVSPropertyOp20
 70
     1
102
RTVSPropertyOp21
 70
     1
102
RTVSPropertyOp22
 70
     1
102
RTVSPropertyOp23
 70
     1
102
RTVSPropertyOp24
 70
     1
102
RTVSPropertyOp25
 70
     1
102
RTVSPropertyOp26
 70
     1
102
RTVSPropertyOp27
 70
     1
102
RTVSPropertyOp28
 70
     1
102
RTVSPropertyOp29
 70
     1
102
RTVSPropertyOp30
 70
     1
102
RTVSPropertyOp31
 70
     1
102
RTVSPropertyOp32
 70
     1
  0
XRECORD
  5
3331
102
{ACAD_REACTORS
330
3330
102
}
330
3330
100
AcDbXrecord
280
     1
102
RTVSPropertyOp0
 70
     1
102
RTVSPropertyOp1
 70
     1
102
RTVSPropertyOp2
 70
     1
102
RTVSPropertyOp3
 70
     1
102
RTVSPropertyOp4
 70
     1
102
RTVSPropertyOp5
 70
     1
102
RTVSPropertyOp6
 70
     1
102
RTVSPropertyOp7
 70
     1
102
RTVSPropertyOp8
 70
     1
102
RTVSPropertyOp9
 70
     1
102
RTVSPropertyOp10
 70
     1
102
RTVSPropertyOp11
 70
     1
102
RTVSPropertyOp12
 70
     1
102
RTVSPropertyOp13
 70
     1
102
RTVSPropertyOp14
 70
     1
102
RTVSPropertyOp15
 70
     1
102
RTVSPropertyOp16
 70
     1
102
RTVSPropertyOp17
 70
     1
102
RTVSPropertyOp18
 70
     1
102
RTVSPropertyOp19
 70
     1
102
RTVSPropertyOp20
 70
     1
102
RTVSPropertyOp21
 70
     1
102
RTVSPropertyOp22
 70
     1
102
RTVSPropertyOp23
 70
     1
102
RTVSPropertyOp24
 70
     1
102
RTVSPropertyOp25
 70
     1
102
RTVSPropertyOp26
 70
     1
102
RTVSPropertyOp27
 70
     1
102
RTVSPropertyOp28
 70
     1
102
RTVSPropertyOp29
 70
     1
102
RTVSPropertyOp30
 70
     1
102
RTVSPropertyOp31
 70
     1
102
RTVSPropertyOp32
 70
     1
  0
XRECORD
  5
3339
102
{ACAD_REACTORS
330
3338
102
}
330
3338
100
AcDbXrecord
280
     1
102
RTVSPropertyOp0
 70
     1
102
RTVSPropertyOp1
 70
     1
102
RTVSPropertyOp2
 70
     1
102
RTVSPropertyOp3
 70
     1
102
RTVSPropertyOp4
 70
     1
102
RTVSPropertyOp5
 70
     1
102
RTVSPropertyOp6
 70
     1
102
RTVSPropertyOp7
 70
     1
102
RTVSPropertyOp8
 70
     1
102
RTVSPropertyOp9
 70
     1
102
RTVSPropertyOp10
 70
     1
102
RTVSPropertyOp11
 70
     1
102
RTVSPropertyOp12
 70
     1
102
RTVSPropertyOp13
 70
     1
102
RTVSPropertyOp14
 70
     1
102
RTVSPropertyOp15
 70
     1
102
RTVSPropertyOp16
 70
     1
102
RTVSPropertyOp17
 70
     1
102
RTVSPropertyOp18
 70
     1
102
RTVSPropertyOp19
 70
     1
102
RTVSPropertyOp20
 70
     1
102
RTVSPropertyOp21
 70
     1
102
RTVSPropertyOp22
 70
     1
102
RTVSPropertyOp23
 70
     1
102
RTVSPropertyOp24
 70
     1
102
RTVSPropertyOp25
 70
     1
102
RTVSPropertyOp26
 70
     1
102
RTVSPropertyOp27
 70
     1
102
RTVSPropertyOp28
 70
     1
102
RTVSPropertyOp29
 70
     1
102
RTVSPropertyOp30
 70
     1
102
RTVSPropertyOp31
 70
     1
102
RTVSPropertyOp32
 70
     1
  0
XRECORD
  5
332B
102
{ACAD_REACTORS
330
332A
102
}
330
332A
100
AcDbXrecord
280
     1
102
RTVSPropertyOp0
 70
     1
102
RTVSPropertyOp1
 70
     1
102
RTVSPropertyOp2
 70
     1
102
RTVSPropertyOp3
 70
     1
102
RTVSPropertyOp4
 70
     1
102
RTVSPropertyOp5
 70
     1
102
RTVSPropertyOp6
 70
     1
102
RTVSPropertyOp7
 70
     1
102
RTVSPropertyOp8
 70
     1
102
RTVSPropertyOp9
 70
     1
102
RTVSPropertyOp10
 70
     1
102
RTVSPropertyOp11
 70
     1
102
RTVSPropertyOp12
 70
     1
102
RTVSPropertyOp13
 70
     1
102
RTVSPropertyOp14
 70
     1
102
RTVSPropertyOp15
 70
     1
102
RTVSPropertyOp16
 70
     1
102
RTVSPropertyOp17
 70
     1
102
RTVSPropertyOp18
 70
     1
102
RTVSPropertyOp19
 70
     1
102
RTVSPropertyOp20
 70
     1
102
RTVSPropertyOp21
 70
     1
102
RTVSPropertyOp22
 70
     1
102
RTVSPropertyOp23
 70
     1
102
RTVSPropertyOp24
 70
     1
102
RTVSPropertyOp25
 70
     1
102
RTVSPropertyOp26
 70
     1
102
RTVSPropertyOp27
 70
     1
102
RTVSPropertyOp28
 70
     1
102
RTVSPropertyOp29
 70
     1
102
RTVSPropertyOp30
 70
     1
102
RTVSPropertyOp31
 70
     1
102
RTVSPropertyOp32
 70
     1
  0
XRECORD
  5
332F
102
{ACAD_REACTORS
330
332E
102
}
330
332E
100
AcDbXrecord
280
     1
102
RTVSPropertyOp0
 70
     1
102
RTVSPropertyOp1
 70
     1
102
RTVSPropertyOp2
 70
     1
102
RTVSPropertyOp3
 70
     1
102
RTVSPropertyOp4
 70
     1
102
RTVSPropertyOp5
 70
     1
102
RTVSPropertyOp6
 70
     1
102
RTVSPropertyOp7
 70
     1
102
RTVSPropertyOp8
 70
     1
102
RTVSPropertyOp9
 70
     1
102
RTVSPropertyOp10
 70
     1
102
RTVSPropertyOp11
 70
     1
102
RTVSPropertyOp12
 70
     1
102
RTVSPropertyOp13
 70
     1
102
RTVSPropertyOp14
 70
     1
102
RTVSPropertyOp15
 70
     1
102
RTVSPropertyOp16
 70
     1
102
RTVSPropertyOp17
 70
     1
102
RTVSPropertyOp18
 70
     1
102
RTVSPropertyOp19
 70
     1
102
RTVSPropertyOp20
 70
     1
102
RTVSPropertyOp21
 70
     1
102
RTVSPropertyOp22
 70
     1
102
RTVSPropertyOp23
 70
     1
102
RTVSPropertyOp24
 70
     1
102
RTVSPropertyOp25
 70
     1
102
RTVSPropertyOp26
 70
     1
102
RTVSPropertyOp27
 70
     1
102
RTVSPropertyOp28
 70
     1
102
RTVSPropertyOp29
 70
     1
102
RTVSPropertyOp30
 70
     1
102
RTVSPropertyOp31
 70
     1
102
RTVSPropertyOp32
 70
     1
  0
XRECORD
  5
334E
102
{ACAD_REACTORS
330
334D
102
}
330
334D
100
AcDbXrecord
280
     1
102
RTVSPropertyOp0
 70
     0
102
RTVSPropertyOp1
 70
     0
102
RTVSPropertyOp2
 70
     0
102
RTVSPropertyOp3
 70
     0
102
RTVSPropertyOp4
 70
     0
102
RTVSPropertyOp5
 70
     0
102
RTVSPropertyOp6
 70
     0
102
RTVSPropertyOp7
 70
     0
102
RTVSPropertyOp8
 70
     0
102
RTVSPropertyOp9
 70
     0
102
RTVSPropertyOp10
 70
     0
102
RTVSPropertyOp11
 70
     0
102
RTVSPropertyOp12
 70
     0
102
RTVSPropertyOp13
 70
     0
102
RTVSPropertyOp14
 70
     2
102
RTVSPropertyOp15
 70
     0
102
RTVSPropertyOp16
 70
     0
102
RTVSPropertyOp17
 70
     0
102
RTVSPropertyOp18
 70
     0
102
RTVSPropertyOp19
 70
     0
102
RTVSPropertyOp20
 70
     0
102
RTVSPropertyOp21
 70
     0
102
RTVSPropertyOp22
 70
     0
102
RTVSPropertyOp23
 70
     0
102
RTVSPropertyOp24
 70
     0
102
RTVSPropertyOp25
 70
     0
102
RTVSPropertyOp26
 70
     0
102
RTVSPropertyOp27
 70
     0
102
RTVSPropertyOp28
 70
     1
102
RTVSPropertyOp29
 70
     1
102
RTVSPropertyOp30
 70
     1
102
RTVSPropertyOp31
 70
     1
102
RTVSPropertyOp32
 70
     1
  0
XRECORD
  5
3337
102
{ACAD_REACTORS
330
3336
102
}
330
3336
100
AcDbXrecord
280
     1
102
RTVSPropertyOp0
 70
     1
102
RTVSPropertyOp1
 70
     1
102
RTVSPropertyOp2
 70
     1
102
RTVSPropertyOp3
 70
     1
102
RTVSPropertyOp4
 70
     1
102
RTVSPropertyOp5
 70
     1
102
RTVSPropertyOp6
 70
     1
102
RTVSPropertyOp7
 70
     1
102
RTVSPropertyOp8
 70
     1
102
RTVSPropertyOp9
 70
     1
102
RTVSPropertyOp10
 70
     1
102
RTVSPropertyOp11
 70
     1
102
RTVSPropertyOp12
 70
     1
102
RTVSPropertyOp13
 70
     1
102
RTVSPropertyOp14
 70
     1
102
RTVSPropertyOp15
 70
     1
102
RTVSPropertyOp16
 70
     1
102
RTVSPropertyOp17
 70
     1
102
RTVSPropertyOp18
 70
     1
102
RTVSPropertyOp19
 70
     1
102
RTVSPropertyOp20
 70
     1
102
RTVSPropertyOp21
 70
     1
102
RTVSPropertyOp22
 70
     1
102
RTVSPropertyOp23
 70
     1
102
RTVSPropertyOp24
 70
     1
102
RTVSPropertyOp25
 70
     1
102
RTVSPropertyOp26
 70
     1
102
RTVSPropertyOp27
 70
     1
102
RTVSPropertyOp28
 70
     1
102
RTVSPropertyOp29
 70
     1
102
RTVSPropertyOp30
 70
     1
102
RTVSPropertyOp31
 70
     1
102
RTVSPropertyOp32
 70
     1
  0
XRECORD
  5
331B
102
{ACAD_REACTORS
330
331A
102
}
330
331A
100
AcDbXrecord
280
     1
102
RTVSPropertyOp0
 70
     1
102
RTVSPropertyOp1
 70
     1
102
RTVSPropertyOp2
 70
     1
102
RTVSPropertyOp3
 70
     1
102
RTVSPropertyOp4
 70
     1
102
RTVSPropertyOp5
 70
     1
102
RTVSPropertyOp6
 70
     1
102
RTVSPropertyOp7
 70
     1
102
RTVSPropertyOp8
 70
     1
102
RTVSPropertyOp9
 70
     1
102
RTVSPropertyOp10
 70
     1
102
RTVSPropertyOp11
 70
     1
102
RTVSPropertyOp12
 70
     1
102
RTVSPropertyOp13
 70
     1
102
RTVSPropertyOp14
 70
     1
102
RTVSPropertyOp15
 70
     1
102
RTVSPropertyOp16
 70
     1
102
RTVSPropertyOp17
 70
     1
102
RTVSPropertyOp18
 70
     1
102
RTVSPropertyOp19
 70
     1
102
RTVSPropertyOp20
 70
     1
102
RTVSPropertyOp21
 70
     1
102
RTVSPropertyOp22
 70
     1
102
RTVSPropertyOp23
 70
     1
102
RTVSPropertyOp24
 70
     1
102
RTVSPropertyOp25
 70
     1
102
RTVSPropertyOp26
 70
     1
102
RTVSPropertyOp27
 70
     1
102
RTVSPropertyOp28
 70
     1
102
RTVSPropertyOp29
 70
     1
102
RTVSPropertyOp30
 70
     1
102
RTVSPropertyOp31
 70
     1
102
RTVSPropertyOp32
 70
     1
  0
XRECORD
  5
331D
102
{ACAD_REACTORS
330
331C
102
}
330
331C
100
AcDbXrecord
280
     1
102
RTVSPropertyOp0
 70
     1
102
RTVSPropertyOp1
 70
     1
102
RTVSPropertyOp2
 70
     1
102
RTVSPropertyOp3
 70
     1
102
RTVSPropertyOp4
 70
     1
102
RTVSPropertyOp5
 70
     1
102
RTVSPropertyOp6
 70
     1
102
RTVSPropertyOp7
 70
     1
102
RTVSPropertyOp8
 70
     1
102
RTVSPropertyOp9
 70
     1
102
RTVSPropertyOp10
 70
     1
102
RTVSPropertyOp11
 70
     1
102
RTVSPropertyOp12
 70
     1
102
RTVSPropertyOp13
 70
     1
102
RTVSPropertyOp14
 70
     1
102
RTVSPropertyOp15
 70
     1
102
RTVSPropertyOp16
 70
     1
102
RTVSPropertyOp17
 70
     1
102
RTVSPropertyOp18
 70
     1
102
RTVSPropertyOp19
 70
     1
102
RTVSPropertyOp20
 70
     1
102
RTVSPropertyOp21
 70
     1
102
RTVSPropertyOp22
 70
     1
102
RTVSPropertyOp23
 70
     1
102
RTVSPropertyOp24
 70
     1
102
RTVSPropertyOp25
 70
     1
102
RTVSPropertyOp26
 70
     1
102
RTVSPropertyOp27
 70
     1
102
RTVSPropertyOp28
 70
     1
102
RTVSPropertyOp29
 70
     1
102
RTVSPropertyOp30
 70
     1
102
RTVSPropertyOp31
 70
     1
102
RTVSPropertyOp32
 70
     1
  0
XRECORD
  5
331F
102
{ACAD_REACTORS
330
331E
102
}
330
331E
100
AcDbXrecord
280
     1
102
RTVSPropertyOp0
 70
     1
102
RTVSPropertyOp1
 70
     1
102
RTVSPropertyOp2
 70
     1
102
RTVSPropertyOp3
 70
     1
102
RTVSPropertyOp4
 70
     1
102
RTVSPropertyOp5
 70
     1
102
RTVSPropertyOp6
 70
     1
102
RTVSPropertyOp7
 70
     1
102
RTVSPropertyOp8
 70
     1
102
RTVSPropertyOp9
 70
     1
102
RTVSPropertyOp10
 70
     1
102
RTVSPropertyOp11
 70
     1
102
RTVSPropertyOp12
 70
     1
102
RTVSPropertyOp13
 70
     1
102
RTVSPropertyOp14
 70
     1
102
RTVSPropertyOp15
 70
     1
102
RTVSPropertyOp16
 70
     1
102
RTVSPropertyOp17
 70
     1
102
RTVSPropertyOp18
 70
     1
102
RTVSPropertyOp19
 70
     1
102
RTVSPropertyOp20
 70
     1
102
RTVSPropertyOp21
 70
     1
102
RTVSPropertyOp22
 70
     1
102
RTVSPropertyOp23
 70
     1
102
RTVSPropertyOp24
 70
     1
102
RTVSPropertyOp25
 70
     1
102
RTVSPropertyOp26
 70
     1
102
RTVSPropertyOp27
 70
     1
102
RTVSPropertyOp28
 70
     1
102
RTVSPropertyOp29
 70
     1
102
RTVSPropertyOp30
 70
     1
102
RTVSPropertyOp31
 70
     1
102
RTVSPropertyOp32
 70
     1
  0
XRECORD
  5
3321
102
{ACAD_REACTORS
330
3320
102
}
330
3320
100
AcDbXrecord
280
     1
102
RTVSPropertyOp0
 70
     1
102
RTVSPropertyOp1
 70
     1
102
RTVSPropertyOp2
 70
     1
102
RTVSPropertyOp3
 70
     1
102
RTVSPropertyOp4
 70
     1
102
RTVSPropertyOp5
 70
     1
102
RTVSPropertyOp6
 70
     1
102
RTVSPropertyOp7
 70
     1
102
RTVSPropertyOp8
 70
     1
102
RTVSPropertyOp9
 70
     1
102
RTVSPropertyOp10
 70
     1
102
RTVSPropertyOp11
 70
     1
102
RTVSPropertyOp12
 70
     1
102
RTVSPropertyOp13
 70
     1
102
RTVSPropertyOp14
 70
     1
102
RTVSPropertyOp15
 70
     1
102
RTVSPropertyOp16
 70
     1
102
RTVSPropertyOp17
 70
     1
102
RTVSPropertyOp18
 70
     1
102
RTVSPropertyOp19
 70
     1
102
RTVSPropertyOp20
 70
     1
102
RTVSPropertyOp21
 70
     1
102
RTVSPropertyOp22
 70
     1
102
RTVSPropertyOp23
 70
     1
102
RTVSPropertyOp24
 70
     1
102
RTVSPropertyOp25
 70
     1
102
RTVSPropertyOp26
 70
     1
102
RTVSPropertyOp27
 70
     1
102
RTVSPropertyOp28
 70
     1
102
RTVSPropertyOp29
 70
     1
102
RTVSPropertyOp30
 70
     1
102
RTVSPropertyOp31
 70
     1
102
RTVSPropertyOp32
 70
     1
  0
XRECORD
  5
333E
102
{ACAD_REACTORS
330
333D
102
}
330
333D
100
AcDbXrecord
280
     1
102
RTVSPropertyOp0
 70
     1
102
RTVSPropertyOp1
 70
     1
102
RTVSPropertyOp2
 70
     1
102
RTVSPropertyOp3
 70
     1
102
RTVSPropertyOp4
 70
     1
102
RTVSPropertyOp5
 70
     1
102
RTVSPropertyOp6
 70
     1
102
RTVSPropertyOp7
 70
     1
102
RTVSPropertyOp8
 70
     1
102
RTVSPropertyOp9
 70
     1
102
RTVSPropertyOp10
 70
     1
102
RTVSPropertyOp11
 70
     1
102
RTVSPropertyOp12
 70
     1
102
RTVSPropertyOp13
 70
     1
102
RTVSPropertyOp14
 70
     1
102
RTVSPropertyOp15
 70
     1
102
RTVSPropertyOp16
 70
     1
102
RTVSPropertyOp17
 70
     1
102
RTVSPropertyOp18
 70
     1
102
RTVSPropertyOp19
 70
     1
102
RTVSPropertyOp20
 70
     1
102
RTVSPropertyOp21
 70
     1
102
RTVSPropertyOp22
 70
     1
102
RTVSPropertyOp23
 70
     1
102
RTVSPropertyOp24
 70
     1
102
RTVSPropertyOp25
 70
     1
102
RTVSPropertyOp26
 70
     1
102
RTVSPropertyOp27
 70
     1
102
RTVSPropertyOp28
 70
     1
102
RTVSPropertyOp29
 70
     1
102
RTVSPropertyOp30
 70
     1
102
RTVSPropertyOp31
 70
     1
102
RTVSPropertyOp32
 70
     1
  0
XRECORD
  5
334A
102
{ACAD_REACTORS
330
3349
102
}
330
3349
100
AcDbXrecord
280
     1
102
RTVSPropertyOp0
 70
     0
102
RTVSPropertyOp1
 70
     0
102
RTVSPropertyOp2
 70
     0
102
RTVSPropertyOp3
 70
     0
102
RTVSPropertyOp4
 70
     0
102
RTVSPropertyOp5
 70
     0
102
RTVSPropertyOp6
 70
     0
102
RTVSPropertyOp7
 70
     0
102
RTVSPropertyOp8
 70
     0
102
RTVSPropertyOp9
 70
     0
102
RTVSPropertyOp10
 70
     0
102
RTVSPropertyOp11
 70
     0
102
RTVSPropertyOp12
 70
     0
102
RTVSPropertyOp13
 70
     0
102
RTVSPropertyOp14
 70
     2
102
RTVSPropertyOp15
 70
     0
102
RTVSPropertyOp16
 70
     0
102
RTVSPropertyOp17
 70
     0
102
RTVSPropertyOp18
 70
     0
102
RTVSPropertyOp19
 70
     0
102
RTVSPropertyOp20
 70
     0
102
RTVSPropertyOp21
 70
     0
102
RTVSPropertyOp22
 70
     0
102
RTVSPropertyOp23
 70
     0
102
RTVSPropertyOp24
 70
     0
102
RTVSPropertyOp25
 70
     0
102
RTVSPropertyOp26
 70
     0
102
RTVSPropertyOp27
 70
     0
102
RTVSPropertyOp28
 70
     1
102
RTVSPropertyOp29
 70
     1
102
RTVSPropertyOp30
 70
     1
102
RTVSPropertyOp31
 70
     1
102
RTVSPropertyOp32
 70
     1
  0
XRECORD
  5
3335
102
{ACAD_REACTORS
330
3334
102
}
330
3334
100
AcDbXrecord
280
     1
102
RTVSPropertyOp0
 70
     1
102
RTVSPropertyOp1
 70
     1
102
RTVSPropertyOp2
 70
     1
102
RTVSPropertyOp3
 70
     1
102
RTVSPropertyOp4
 70
     1
102
RTVSPropertyOp5
 70
     1
102
RTVSPropertyOp6
 70
     1
102
RTVSPropertyOp7
 70
     1
102
RTVSPropertyOp8
 70
     1
102
RTVSPropertyOp9
 70
     1
102
RTVSPropertyOp10
 70
     1
102
RTVSPropertyOp11
 70
     1
102
RTVSPropertyOp12
 70
     1
102
RTVSPropertyOp13
 70
     1
102
RTVSPropertyOp14
 70
     1
102
RTVSPropertyOp15
 70
     1
102
RTVSPropertyOp16
 70
     1
102
RTVSPropertyOp17
 70
     1
102
RTVSPropertyOp18
 70
     1
102
RTVSPropertyOp19
 70
     1
102
RTVSPropertyOp20
 70
     1
102
RTVSPropertyOp21
 70
     1
102
RTVSPropertyOp22
 70
     1
102
RTVSPropertyOp23
 70
     1
102
RTVSPropertyOp24
 70
     1
102
RTVSPropertyOp25
 70
     1
102
RTVSPropertyOp26
 70
     1
102
RTVSPropertyOp27
 70
     1
102
RTVSPropertyOp28
 70
     1
102
RTVSPropertyOp29
 70
     1
102
RTVSPropertyOp30
 70
     1
102
RTVSPropertyOp31
 70
     1
102
RTVSPropertyOp32
 70
     1
  0
XRECORD
  5
334C
102
{ACAD_REACTORS
330
334B
102
}
330
334B
100
AcDbXrecord
280
     1
102
RTVSPropertyOp0
 70
     0
102
RTVSPropertyOp1
 70
     0
102
RTVSPropertyOp2
 70
     0
102
RTVSPropertyOp3
 70
     0
102
RTVSPropertyOp4
 70
     0
102
RTVSPropertyOp5
 70
     0
102
RTVSPropertyOp6
 70
     0
102
RTVSPropertyOp7
 70
     0
102
RTVSPropertyOp8
 70
     0
102
RTVSPropertyOp9
 70
     0
102
RTVSPropertyOp10
 70
     0
102
RTVSPropertyOp11
 70
     0
102
RTVSPropertyOp12
 70
     0
102
RTVSPropertyOp13
 70
     0
102
RTVSPropertyOp14
 70
     2
102
RTVSPropertyOp15
 70
     0
102
RTVSPropertyOp16
 70
     0
102
RTVSPropertyOp17
 70
     0
102
RTVSPropertyOp18
 70
     0
102
RTVSPropertyOp19
 70
     0
102
RTVSPropertyOp20
 70
     0
102
RTVSPropertyOp21
 70
     0
102
RTVSPropertyOp22
 70
     0
102
RTVSPropertyOp23
 70
     0
102
RTVSPropertyOp24
 70
     0
102
RTVSPropertyOp25
 70
     0
102
RTVSPropertyOp26
 70
     0
102
RTVSPropertyOp27
 70
     0
102
RTVSPropertyOp28
 70
     1
102
RTVSPropertyOp29
 70
     1
102
RTVSPropertyOp30
 70
     1
102
RTVSPropertyOp31
 70
     1
102
RTVSPropertyOp32
 70
     1
  0
XRECORD
  5
332D
102
{ACAD_REACTORS
330
332C
102
}
330
332C
100
AcDbXrecord
280
     1
102
RTVSPropertyOp0
 70
     1
102
RTVSPropertyOp1
 70
     1
102
RTVSPropertyOp2
 70
     1
102
RTVSPropertyOp3
 70
     1
102
RTVSPropertyOp4
 70
     1
102
RTVSPropertyOp5
 70
     1
102
RTVSPropertyOp6
 70
     1
102
RTVSPropertyOp7
 70
     1
102
RTVSPropertyOp8
 70
     1
102
RTVSPropertyOp9
 70
     1
102
RTVSPropertyOp10
 70
     1
102
RTVSPropertyOp11
 70
     1
102
RTVSPropertyOp12
 70
     1
102
RTVSPropertyOp13
 70
     1
102
RTVSPropertyOp14
 70
     1
102
RTVSPropertyOp15
 70
     1
102
RTVSPropertyOp16
 70
     1
102
RTVSPropertyOp17
 70
     1
102
RTVSPropertyOp18
 70
     1
102
RTVSPropertyOp19
 70
     1
102
RTVSPropertyOp20
 70
     1
102
RTVSPropertyOp21
 70
     1
102
RTVSPropertyOp22
 70
     1
102
RTVSPropertyOp23
 70
     1
102
RTVSPropertyOp24
 70
     1
102
RTVSPropertyOp25
 70
     1
102
RTVSPropertyOp26
 70
     1
102
RTVSPropertyOp27
 70
     1
102
RTVSPropertyOp28
 70
     1
102
RTVSPropertyOp29
 70
     1
102
RTVSPropertyOp30
 70
     1
102
RTVSPropertyOp31
 70
     1
102
RTVSPropertyOp32
 70
     1
  0
XRECORD
  5
3348
102
{ACAD_REACTORS
330
3347
102
}
330
3347
100
AcDbXrecord
280
     1
102
RTVSPropertyOp0
 70
     1
102
RTVSPropertyOp1
 70
     1
102
RTVSPropertyOp2
 70
     1
102
RTVSPropertyOp3
 70
     1
102
RTVSPropertyOp4
 70
     1
102
RTVSPropertyOp5
 70
     1
102
RTVSPropertyOp6
 70
     1
102
RTVSPropertyOp7
 70
     1
102
RTVSPropertyOp8
 70
     1
102
RTVSPropertyOp9
 70
     1
102
RTVSPropertyOp10
 70
     1
102
RTVSPropertyOp11
 70
     1
102
RTVSPropertyOp12
 70
     1
102
RTVSPropertyOp13
 70
     1
102
RTVSPropertyOp14
 70
     1
102
RTVSPropertyOp15
 70
     1
102
RTVSPropertyOp16
 70
     1
102
RTVSPropertyOp17
 70
     1
102
RTVSPropertyOp18
 70
     1
102
RTVSPropertyOp19
 70
     1
102
RTVSPropertyOp20
 70
     1
102
RTVSPropertyOp21
 70
     1
102
RTVSPropertyOp22
 70
     1
102
RTVSPropertyOp23
 70
     1
102
RTVSPropertyOp24
 70
     1
102
RTVSPropertyOp25
 70
     1
102
RTVSPropertyOp26
 70
     1
102
RTVSPropertyOp27
 70
     1
102
RTVSPropertyOp28
 70
     1
102
RTVSPropertyOp29
 70
     1
102
RTVSPropertyOp30
 70
     1
102
RTVSPropertyOp31
 70
     1
102
RTVSPropertyOp32
 70
     1
  0
XRECORD
  5
3346
102
{ACAD_REACTORS
330
3345
102
}
330
3345
100
AcDbXrecord
280
     1
102
RTVSPropertyOp0
 70
     1
102
RTVSPropertyOp1
 70
     1
102
RTVSPropertyOp2
 70
     1
102
RTVSPropertyOp3
 70
     1
102
RTVSPropertyOp4
 70
     1
102
RTVSPropertyOp5
 70
     1
102
RTVSPropertyOp6
 70
     1
102
RTVSPropertyOp7
 70
     1
102
RTVSPropertyOp8
 70
     1
102
RTVSPropertyOp9
 70
     1
102
RTVSPropertyOp10
 70
     1
102
RTVSPropertyOp11
 70
     1
102
RTVSPropertyOp12
 70
     1
102
RTVSPropertyOp13
 70
     1
102
RTVSPropertyOp14
 70
     1
102
RTVSPropertyOp15
 70
     1
102
RTVSPropertyOp16
 70
     1
102
RTVSPropertyOp17
 70
     1
102
RTVSPropertyOp18
 70
     1
102
RTVSPropertyOp19
 70
     1
102
RTVSPropertyOp20
 70
     1
102
RTVSPropertyOp21
 70
     1
102
RTVSPropertyOp22
 70
     1
102
RTVSPropertyOp23
 70
     1
102
RTVSPropertyOp24
 70
     1
102
RTVSPropertyOp25
 70
     1
102
RTVSPropertyOp26
 70
     1
102
RTVSPropertyOp27
 70
     1
102
RTVSPropertyOp28
 70
     1
102
RTVSPropertyOp29
 70
     1
102
RTVSPropertyOp30
 70
     1
102
RTVSPropertyOp31
 70
     1
102
RTVSPropertyOp32
 70
     1
  0
XRECORD
  5
3340
102
{ACAD_REACTORS
330
333F
102
}
330
333F
100
AcDbXrecord
280
     1
102
RTVSPropertyOp0
 70
     1
102
RTVSPropertyOp1
 70
     1
102
RTVSPropertyOp2
 70
     1
102
RTVSPropertyOp3
 70
     1
102
RTVSPropertyOp4
 70
     1
102
RTVSPropertyOp5
 70
     1
102
RTVSPropertyOp6
 70
     1
102
RTVSPropertyOp7
 70
     1
102
RTVSPropertyOp8
 70
     1
102
RTVSPropertyOp9
 70
     1
102
RTVSPropertyOp10
 70
     1
102
RTVSPropertyOp11
 70
     1
102
RTVSPropertyOp12
 70
     1
102
RTVSPropertyOp13
 70
     1
102
RTVSPropertyOp14
 70
     1
102
RTVSPropertyOp15
 70
     1
102
RTVSPropertyOp16
 70
     1
102
RTVSPropertyOp17
 70
     1
102
RTVSPropertyOp18
 70
     1
102
RTVSPropertyOp19
 70
     1
102
RTVSPropertyOp20
 70
     1
102
RTVSPropertyOp21
 70
     1
102
RTVSPropertyOp22
 70
     1
102
RTVSPropertyOp23
 70
     1
102
RTVSPropertyOp24
 70
     1
102
RTVSPropertyOp25
 70
     1
102
RTVSPropertyOp26
 70
     1
102
RTVSPropertyOp27
 70
     1
102
RTVSPropertyOp28
 70
     1
102
RTVSPropertyOp29
 70
     1
102
RTVSPropertyOp30
 70
     1
102
RTVSPropertyOp31
 70
     1
102
RTVSPropertyOp32
 70
     1
  0
XRECORD
  5
3342
102
{ACAD_REACTORS
330
3341
102
}
330
3341
100
AcDbXrecord
280
     1
102
RTVSPropertyOp0
 70
     1
102
RTVSPropertyOp1
 70
     1
102
RTVSPropertyOp2
 70
     1
102
RTVSPropertyOp3
 70
     1
102
RTVSPropertyOp4
 70
     1
102
RTVSPropertyOp5
 70
     1
102
RTVSPropertyOp6
 70
     1
102
RTVSPropertyOp7
 70
     1
102
RTVSPropertyOp8
 70
     1
102
RTVSPropertyOp9
 70
     1
102
RTVSPropertyOp10
 70
     1
102
RTVSPropertyOp11
 70
     1
102
RTVSPropertyOp12
 70
     1
102
RTVSPropertyOp13
 70
     1
102
RTVSPropertyOp14
 70
     1
102
RTVSPropertyOp15
 70
     1
102
RTVSPropertyOp16
 70
     1
102
RTVSPropertyOp17
 70
     1
102
RTVSPropertyOp18
 70
     1
102
RTVSPropertyOp19
 70
     1
102
RTVSPropertyOp20
 70
     1
102
RTVSPropertyOp21
 70
     1
102
RTVSPropertyOp22
 70
     1
102
RTVSPropertyOp23
 70
     1
102
RTVSPropertyOp24
 70
     1
102
RTVSPropertyOp25
 70
     1
102
RTVSPropertyOp26
 70
     1
102
RTVSPropertyOp27
 70
     1
102
RTVSPropertyOp28
 70
     1
102
RTVSPropertyOp29
 70
     1
102
RTVSPropertyOp30
 70
     1
102
RTVSPropertyOp31
 70
     1
102
RTVSPropertyOp32
 70
     1
  0
XRECORD
  5
3333
102
{ACAD_REACTORS
330
3332
102
}
330
3332
100
AcDbXrecord
280
     1
102
RTVSPropertyOp0
 70
     1
102
RTVSPropertyOp1
 70
     1
102
RTVSPropertyOp2
 70
     1
102
RTVSPropertyOp3
 70
     1
102
RTVSPropertyOp4
 70
     1
102
RTVSPropertyOp5
 70
     1
102
RTVSPropertyOp6
 70
     1
102
RTVSPropertyOp7
 70
     1
102
RTVSPropertyOp8
 70
     1
102
RTVSPropertyOp9
 70
     1
102
RTVSPropertyOp10
 70
     1
102
RTVSPropertyOp11
 70
     1
102
RTVSPropertyOp12
 70
     1
102
RTVSPropertyOp13
 70
     1
102
RTVSPropertyOp14
 70
     1
102
RTVSPropertyOp15
 70
     1
102
RTVSPropertyOp16
 70
     1
102
RTVSPropertyOp17
 70
     1
102
RTVSPropertyOp18
 70
     1
102
RTVSPropertyOp19
 70
     1
102
RTVSPropertyOp20
 70
     1
102
RTVSPropertyOp21
 70
     1
102
RTVSPropertyOp22
 70
     1
102
RTVSPropertyOp23
 70
     1
102
RTVSPropertyOp24
 70
     1
102
RTVSPropertyOp25
 70
     1
102
RTVSPropertyOp26
 70
     1
102
RTVSPropertyOp27
 70
     1
102
RTVSPropertyOp28
 70
     1
102
RTVSPropertyOp29
 70
     1
102
RTVSPropertyOp30
 70
     1
102
RTVSPropertyOp31
 70
     1
102
RTVSPropertyOp32
 70
     1
  0
XRECORD
  5
333C
102
{ACAD_REACTORS
330
333B
102
}
330
333B
100
AcDbXrecord
280
     1
102
RTVSPropertyOp0
 70
     1
102
RTVSPropertyOp1
 70
     1
102
RTVSPropertyOp2
 70
     1
102
RTVSPropertyOp3
 70
     1
102
RTVSPropertyOp4
 70
     1
102
RTVSPropertyOp5
 70
     1
102
RTVSPropertyOp6
 70
     1
102
RTVSPropertyOp7
 70
     1
102
RTVSPropertyOp8
 70
     1
102
RTVSPropertyOp9
 70
     1
102
RTVSPropertyOp10
 70
     1
102
RTVSPropertyOp11
 70
     1
102
RTVSPropertyOp12
 70
     1
102
RTVSPropertyOp13
 70
     1
102
RTVSPropertyOp14
 70
     1
102
RTVSPropertyOp15
 70
     1
102
RTVSPropertyOp16
 70
     1
102
RTVSPropertyOp17
 70
     1
102
RTVSPropertyOp18
 70
     1
102
RTVSPropertyOp19
 70
     1
102
RTVSPropertyOp20
 70
     1
102
RTVSPropertyOp21
 70
     1
102
RTVSPropertyOp22
 70
     1
102
RTVSPropertyOp23
 70
     1
102
RTVSPropertyOp24
 70
     1
102
RTVSPropertyOp25
 70
     1
102
RTVSPropertyOp26
 70
     1
102
RTVSPropertyOp27
 70
     1
102
RTVSPropertyOp28
 70
     1
102
RTVSPropertyOp29
 70
     1
102
RTVSPropertyOp30
 70
     1
102
RTVSPropertyOp31
 70
     1
102
RTVSPropertyOp32
 70
     1
  0
XRECORD
  5
3344
102
{ACAD_REACTORS
330
3343
102
}
330
3343
100
AcDbXrecord
280
     1
102
RTVSPropertyOp0
 70
     1
102
RTVSPropertyOp1
 70
     1
102
RTVSPropertyOp2
 70
     1
102
RTVSPropertyOp3
 70
     1
102
RTVSPropertyOp4
 70
     1
102
RTVSPropertyOp5
 70
     1
102
RTVSPropertyOp6
 70
     1
102
RTVSPropertyOp7
 70
     1
102
RTVSPropertyOp8
 70
     1
102
RTVSPropertyOp9
 70
     1
102
RTVSPropertyOp10
 70
     1
102
RTVSPropertyOp11
 70
     1
102
RTVSPropertyOp12
 70
     1
102
RTVSPropertyOp13
 70
     1
102
RTVSPropertyOp14
 70
     1
102
RTVSPropertyOp15
 70
     1
102
RTVSPropertyOp16
 70
     1
102
RTVSPropertyOp17
 70
     1
102
RTVSPropertyOp18
 70
     1
102
RTVSPropertyOp19
 70
     1
102
RTVSPropertyOp20
 70
     1
102
RTVSPropertyOp21
 70
     1
102
RTVSPropertyOp22
 70
     1
102
RTVSPropertyOp23
 70
     1
102
RTVSPropertyOp24
 70
     1
102
RTVSPropertyOp25
 70
     1
102
RTVSPropertyOp26
 70
     1
102
RTVSPropertyOp27
 70
     1
102
RTVSPropertyOp28
 70
     1
102
RTVSPropertyOp29
 70
     1
102
RTVSPropertyOp30
 70
     1
102
RTVSPropertyOp31
 70
     1
102
RTVSPropertyOp32
 70
     1
  0
ENDSEC
  0
EOF
